  0
SECTION
  2
HEADER
  9
$ACADVER
  1
AC1004
  9
$INSBASE
 10
0.0
 20
0.0
  9
$EXTMIN
 10
0.0
 20
0.0
  9
$EXTMAX
 10
720.1500000000001
 20
205.7
  9
$LIMMIN
 10
0.0
 20
0.0
  9
$LIMMAX
 10
12.0
 20
9.0
  9
$ORTHOMODE
 70
     0
  9
$REGENMODE
 70
     1
  9
$FILLMODE
 70
     1
  9
$QTEXTMODE
 70
     0
  9
$DRAGMODE
 70
     2
  9
$LTSCALE
 40
1.0
  9
$OSMODE
 70
    37
  9
$ATTMODE
 70
     1
  9
$TEXTSIZE
 40
0.2
  9
$TRACEWID
 40
0.05
  9
$TEXTSTYLE
  7
STANDARD
  9
$CLAYER
  8
0
  9
$CELTYPE
  6
BYLAYER
  9
$CECOLOR
 62
   256
  9
$DIMSCALE
 40
1.0
  9
$DIMASZ
 40
3.0
  9
$DIMEXO
 40
0.0625
  9
$DIMDLI
 40
0.38
  9
$DIMRND
 40
0.0
  9
$DIMDLE
 40
0.0
  9
$DIMEXE
 40
1.5
  9
$DIMTP
 40
0.0
  9
$DIMTM
 40
0.0
  9
$DIMTXT
 40
3.0
  9
$DIMCEN
 40
0.09
  9
$DIMTSZ
 40
0.0
  9
$DIMTOL
 70
     0
  9
$DIMLIM
 70
     0
  9
$DIMTIH
 70
     1
  9
$DIMTOH
 70
     1
  9
$DIMSE1
 70
     0
  9
$DIMSE2
 70
     0
  9
$DIMTAD
 70
     1
  9
$DIMZIN
 70
     0
  9
$DIMBLK
  1

  9
$DIMASO
 70
     1
  9
$DIMSHO
 70
     1
  9
$DIMPOST
  1

  9
$DIMAPOST
  1

  9
$DIMALT
 70
     0
  9
$DIMALTD
 70
     2
  9
$DIMALTF
 40
25.4
  9
$DIMLFAC
 40
1.0
  9
$DIMTOFL
 70
     0
  9
$DIMTVP
 40
0.0
  9
$DIMTIX
 70
     0
  9
$DIMSOXD
 70
     0
  9
$DIMSAH
 70
     0
  9
$DIMBLK1
  1

  9
$DIMBLK2
  1

  9
$LUNITS
 70
     2
  9
$LUPREC
 70
     4
  9
$SKETCHINC
 40
0.1
  9
$FILLETRAD
 40
0.5
  9
$AUNITS
 70
     0
  9
$AUPREC
 70
     0
  9
$MENU
  1
.
  9
$ELEVATION
 40
0.0
  9
$THICKNESS
 40
0.0
  9
$LIMCHECK
 70
     0
  9
$CHAMFERA
 40
0.0
  9
$CHAMFERB
 40
0.0
  9
$SKPOLY
 70
     0
  9
$TDCREATE
 40
2460052.479453762
  9
$TDUPDATE
 40
2460052.479458484
  9
$TDINDWG
 40
0.0000000116
  9
$TDUSRTIMER
 40
0.0000000116
  9
$USRTIMER
 70
     1
  9
$ANGBASE
 50
0.0
  9
$ANGDIR
 70
     0
  9
$PDMODE
 70
     0
  9
$PDSIZE
 40
0.0
  9
$PLINEWID
 40
0.0
  9
$COORDS
 70
     1
  9
$SPLFRAME
 70
     0
  9
$SPLINETYPE
 70
     6
  9
$SPLINESEGS
 70
     8
  9
$ATTDIA
 70
     0
  9
$ATTREQ
 70
     1
  9
$SURFTAB1
 70
     6
  9
$SURFTAB2
 70
     6
  9
$SURFTYPE
 70
     6
  9
$SURFU
 70
     6
  9
$SURFV
 70
     6
  9
$UCSNAME
  2

  9
$UCSORG
 10
0.0
 20
0.0
 30
0.0
  9
$UCSXDIR
 10
1.0
 20
0.0
 30
0.0
  9
$UCSYDIR
 10
0.0
 20
1.0
 30
0.0
  9
$USERI1
 70
     0
  9
$USERI2
 70
     0
  9
$USERI3
 70
     0
  9
$USERI4
 70
     0
  9
$USERI5
 70
     0
  9
$USERR1
 40
0.0
  9
$USERR2
 40
0.0
  9
$USERR3
 40
0.0
  9
$USERR4
 40
0.0
  9
$USERR5
 40
0.0
  9
$WORLDVIEW
 70
     1
  0
ENDSEC
  0
SECTION
  2
TABLES
  0
TABLE
  2
LTYPE
 70
     2
  0
LTYPE
  2
CONTINUOUS
 70
     0
  3
Solid line
 72
    65
 73
     0
 40
0.0
  0
LTYPE
  2
CENTER
 70
     0
  3

 72
    65
 73
     0
 40
0.0
  0
ENDTAB
  0
TABLE
  2
LAYER
 70
     3
  0
LAYER
  2
0
 70
     0
 62
     7
  6
CONTINUOUS
  0
LAYER
  2
図面枠
 70
     0
 62
     7
  6
CONTINUOUS
  0
LAYER
  2
1
 70
     0
 62
     7
  6
CONTINUOUS
  0
ENDTAB
  0
TABLE
  2
STYLE
 70
     2
  0
STYLE
  2
STANDARD
 70
     0
 40
0.0
 41
1.0
 50
0.0
 71
     0
 42
0.2
  3
txt
  4

  0
STYLE
  2
ＭＳ_ゴシック
 70
     0
 40
0.0
 41
1.0
 50
0.0
 71
     0
 42
0.2
  3
ＭＳ ゴシック.shx
  4

  0
ENDTAB
  0
TABLE
  2
VIEW
 70
     0
  0
ENDTAB
  0
ENDSEC
  0
SECTION
  2
BLOCKS
  0
BLOCK
  8
0
  2
D_FRAME_VIEW_3440
 70
     0
 10
0.0
 20
0.0
  0
LINE
  8
1
  6
CONTINUOUS
 62
     7
 10
588.15
 20
65.79024930442031
 11
588.15
 21
62.29024930442033
  0
LINE
  8
1
  6
CONTINUOUS
 62
     7
 10
589.75
 20
62.29024930442033
 11
589.75
 21
65.79024930442031
  0
LINE
  8
1
  6
CONTINUOUS
 62
     7
 10
717.15
 20
32.79024930442031
 11
589.75
 21
32.7902493044203
  0
LINE
  8
1
  6
CONTINUOUS
 62
     7
 10
717.15
 20
31.19024930442032
 11
589.75
 21
31.19024930442032
  0
ARC
  8
1
  6
CONTINUOUS
 62
     7
 10
589.75
 20
32.79024930442031
 40
1.600000000000046
 50
180.0
 51
269.9999999999998
  0
LINE
  8
1
  6
CONTINUOUS
 62
     7
 10
589.75
 20
32.79024930442031
 11
589.75
 21
59.29024930442032
  0
LINE
  8
1
  6
CONTINUOUS
 62
     7
 10
588.15
 20
59.29024930442032
 11
588.15
 21
32.79024930442032
  0
LINE
  8
1
  6
CONTINUOUS
 62
     7
 10
588.15
 20
68.79024930442031
 11
589.75
 21
68.79024930442031
  0
LINE
  8
1
  6
CONTINUOUS
 62
     7
 10
588.15
 20
65.79024930442031
 11
588.15
 21
68.79024930442031
  0
LINE
  8
1
  6
CONTINUOUS
 62
     7
 10
589.75
 20
68.79024930442031
 11
589.75
 21
65.79024930442031
  0
LINE
  8
1
  6
CONTINUOUS
 62
     7
 10
720.15
 20
32.79024930442031
 11
720.15
 21
31.19024930442032
  0
LINE
  8
1
  6
CONTINUOUS
 62
     7
 10
720.15
 20
31.19024930442032
 11
717.15
 21
31.19024930442032
  0
LINE
  8
1
  6
CONTINUOUS
 62
     7
 10
717.15
 20
32.79024930442031
 11
720.15
 21
32.79024930442031
  0
LINE
  8
1
  6
CONTINUOUS
 62
     7
 10
589.2499999999999
 20
60.79024930442033
 11
589.7499999999999
 21
60.29024930442034
  0
LINE
  8
1
  6
CONTINUOUS
 62
     7
 10
589.75
 20
59.29024930442032
 11
589.75
 21
60.29024930442034
  0
LINE
  8
1
  6
CONTINUOUS
 62
     7
 10
588.15
 20
60.79024930442033
 11
588.15
 21
59.29024930442032
  0
LINE
  8
1
  6
CONTINUOUS
 62
     7
 10
589.7499999999999
 20
61.2902493044203
 11
589.2499999999999
 21
60.79024930442033
  0
LINE
  8
1
  6
CONTINUOUS
 62
     7
 10
588.15
 20
62.29024930442033
 11
588.15
 21
60.79024930442033
  0
LINE
  8
1
  6
CONTINUOUS
 62
     7
 10
589.75
 20
61.2902493044203
 11
589.75
 21
62.29024930442033
  0
ENDBLK
  8
0
  0
BLOCK
  8
0
  2
D_FRAME_VIEW_3524
 70
     0
 10
0.0
 20
0.0
  0
LINE
  8
1
  6
CONTINUOUS
 62
     7
 10
528.2902493044204
 20
180.2
 11
528.2902493044204
 21
196.2
  0
ARC
  8
1
  6
CONTINUOUS
 62
     7
 10
529.7902493044203
 20
180.2
 40
1.500000000000001
 50
180.0
 51
270.0
  0
ARC
  8
1
  6
CONTINUOUS
 62
     7
 10
529.7902493044203
 20
180.2
 40
1.500000000000001
 50
270.0
 51
0.0
  0
LINE
  8
1
  6
CONTINUOUS
 62
     7
 10
531.2902493044203
 20
185.95
 11
531.2902493044203
 21
180.2
  0
LINE
  8
1
  6
CONTINUOUS
 62
     7
 10
533.0402493044203
 20
185.95
 11
531.2902493044203
 21
185.95
  0
ARC
  8
1
  6
CONTINUOUS
 62
     7
 10
533.0402493044203
 20
188.2
 40
2.25000000000003
 50
270.0
 51
0.0
  0
ARC
  8
1
  6
CONTINUOUS
 62
     7
 10
533.0402493044203
 20
188.2
 40
2.249999999999974
 50
359.9999999999998
 51
90.0
  0
LINE
  8
1
  6
CONTINUOUS
 62
     7
 10
531.2902493044203
 20
190.45
 11
533.0402493044202
 21
190.45
  0
LINE
  8
1
  6
CONTINUOUS
 62
     7
 10
531.2902493044203
 20
196.2
 11
531.2902493044203
 21
190.45
  0
ARC
  8
1
  6
CONTINUOUS
 62
     7
 10
529.7902493044203
 20
196.2
 40
1.500000000000001
 50
0.0
 51
90.0
  0
ARC
  8
1
  6
CONTINUOUS
 62
     7
 10
529.7902493044203
 20
196.2
 40
1.500000000000001
 50
90.0
 51
180.0
  0
LINE
  8
1
  6
CONTINUOUS
 62
     7
 10
533.0402493044203
 20
125.95
 11
531.2902493044203
 21
125.95
  0
ARC
  8
1
  6
CONTINUOUS
 62
     7
 10
533.0402493044203
 20
128.2
 40
2.249999999999974
 50
270.0
 51
0.0000000000001705
  0
ARC
  8
1
  6
CONTINUOUS
 62
     7
 10
533.0402493044203
 20
128.2
 40
2.250000000000002
 50
0.0
 51
90.0
  0
LINE
  8
1
  6
CONTINUOUS
 62
     7
 10
531.2902493044203
 20
130.45
 11
533.0402493044202
 21
130.45
  0
LINE
  8
1
  6
CONTINUOUS
 62
     7
 10
531.2902493044203
 20
136.2
 11
531.2902493044203
 21
130.45
  0
ARC
  8
1
  6
CONTINUOUS
 62
     7
 10
529.7902493044203
 20
136.2
 40
1.500000000000001
 50
0.0
 51
90.0
  0
ARC
  8
1
  6
CONTINUOUS
 62
     7
 10
529.7902493044203
 20
136.2
 40
1.500000000000001
 50
90.0
 51
180.0
  0
LINE
  8
1
  6
CONTINUOUS
 62
     7
 10
528.2902493044204
 20
120.2
 11
528.2902493044204
 21
136.2
  0
ARC
  8
1
  6
CONTINUOUS
 62
     7
 10
529.7902493044203
 20
120.2
 40
1.500000000000001
 50
180.0
 51
270.0
  0
ARC
  8
1
  6
CONTINUOUS
 62
     7
 10
529.7902493044203
 20
120.2
 40
1.500000000000001
 50
270.0
 51
0.0
  0
LINE
  8
1
  6
CONTINUOUS
 62
     7
 10
531.2902493044203
 20
125.95
 11
531.2902493044203
 21
120.2
  0
LINE
  8
1
  6
CONTINUOUS
 62
     7
 10
528.2902493044204
 20
204.2
 11
528.2902493044204
 21
205.7
  0
ARC
  8
1
  6
CONTINUOUS
 62
     7
 10
529.7902493044203
 20
204.2
 40
1.500000000000001
 50
180.0
 51
270.0
  0
ARC
  8
1
  6
CONTINUOUS
 62
     7
 10
529.7902493044203
 20
204.2
 40
1.500000000000001
 50
270.0
 51
0.0
  0
LINE
  8
1
  6
CONTINUOUS
 62
     7
 10
531.2902493044203
 20
205.7
 11
531.2902493044203
 21
204.2
  0
LINE
  8
1
  6
CONTINUOUS
 62
     7
 10
534.7902493044203
 20
205.7
 11
531.2902493044204
 21
205.7
  0
ARC
  8
1
  6
CONTINUOUS
 62
     7
 10
534.7902493044203
 20
202.7
 40
3.000000000000003
 50
0.0
 51
90.0
  0
LINE
  8
1
  6
CONTINUOUS
 62
     7
 10
537.7902493044203
 20
202.7
 11
537.7902493044203
 21
173.7
  0
ARC
  8
1
  6
CONTINUOUS
 62
     7
 10
534.7902493044203
 20
173.7
 40
3.000000000000003
 50
270.0
 51
0.0
  0
LINE
  8
1
  6
CONTINUOUS
 62
     7
 10
531.2902493044203
 20
170.7
 11
534.7902493044202
 21
170.7
  0
LINE
  8
1
  6
CONTINUOUS
 62
     7
 10
531.2902493044203
 20
172.2
 11
531.2902493044203
 21
170.7
  0
ARC
  8
1
  6
CONTINUOUS
 62
     7
 10
529.7902493044203
 20
172.2
 40
1.500000000000001
 50
0.0
 51
90.0
  0
ARC
  8
1
  6
CONTINUOUS
 62
     7
 10
529.7902493044203
 20
172.2
 40
1.500000000000001
 50
90.0
 51
180.0
  0
LINE
  8
1
  6
CONTINUOUS
 62
     7
 10
528.2902493044204
 20
144.2
 11
528.2902493044204
 21
172.2
  0
ARC
  8
1
  6
CONTINUOUS
 62
     7
 10
529.7902493044203
 20
144.2
 40
1.500000000000001
 50
180.0000000000001
 51
270.0
  0
ARC
  8
1
  6
CONTINUOUS
 62
     7
 10
529.7902493044203
 20
144.2
 40
1.500000000000001
 50
270.0
 51
0.0
  0
LINE
  8
1
  6
CONTINUOUS
 62
     7
 10
531.2902493044203
 20
145.7
 11
531.2902493044203
 21
144.2
  0
LINE
  8
1
  6
CONTINUOUS
 62
     7
 10
534.7902493044203
 20
145.7
 11
531.2902493044204
 21
145.7
  0
ARC
  8
1
  6
CONTINUOUS
 62
     7
 10
534.7902493044203
 20
142.7
 40
3.000000000000003
 50
0.0
 51
90.0
  0
LINE
  8
1
  6
CONTINUOUS
 62
     7
 10
537.7902493044203
 20
142.7
 11
537.7902493044203
 21
113.7
  0
ARC
  8
1
  6
CONTINUOUS
 62
     7
 10
534.7902493044203
 20
113.7
 40
3.000000000000003
 50
270.0
 51
0.0
  0
LINE
  8
1
  6
CONTINUOUS
 62
     7
 10
534.7902493044203
 20
110.7
 11
531.2902493044204
 21
110.7
  0
LINE
  8
1
  6
CONTINUOUS
 62
     7
 10
531.2902493044203
 20
112.2
 11
531.2902493044203
 21
110.7
  0
ARC
  8
1
  6
CONTINUOUS
 62
     7
 10
529.7902493044203
 20
112.2
 40
1.500000000000001
 50
0.0
 51
90.0
  0
ARC
  8
1
  6
CONTINUOUS
 62
     7
 10
529.7902493044203
 20
112.2
 40
1.500000000000001
 50
90.0
 51
180.0
  0
LINE
  8
1
  6
CONTINUOUS
 62
     7
 10
528.2902493044204
 20
110.7
 11
528.2902493044204
 21
112.2
  0
LINE
  8
1
  6
CONTINUOUS
 62
     7
 10
528.2902493044204
 20
110.7
 11
501.7902493044204
 21
110.7
  0
LINE
  8
1
  6
CONTINUOUS
 62
     7
 10
528.2902493044204
 20
205.7
 11
501.7902493044204
 21
205.7
  0
ARC
  8
1
  6
CONTINUOUS
 62
     7
 10
507.0402493044203
 20
128.2
 40
2.249999999999974
 50
179.9999999999998
 51
270.0
  0
LINE
  8
1
  6
CONTINUOUS
 62
     7
 10
524.5402493044203
 20
125.95
 11
507.0402493044203
 21
125.95
  0
ARC
  8
1
  6
CONTINUOUS
 62
     7
 10
524.5402493044203
 20
128.2
 40
2.249999999999974
 50
270.0
 51
0.0
  0
ARC
  8
1
  6
CONTINUOUS
 62
     7
 10
524.5402493044203
 20
128.2
 40
2.250000000000002
 50
359.9999999999997
 51
90.00000000000016
  0
LINE
  8
1
  6
CONTINUOUS
 62
     7
 10
507.0402493044203
 20
130.45
 11
524.5402493044204
 21
130.45
  0
ARC
  8
1
  6
CONTINUOUS
 62
     7
 10
507.0402493044203
 20
128.2
 40
2.25000000000003
 50
90.0
 51
180.0
  0
ARC
  8
1
  6
CONTINUOUS
 62
     7
 10
507.0402493044203
 20
158.2
 40
2.250000000000002
 50
179.9999999999998
 51
270.0
  0
LINE
  8
1
  6
CONTINUOUS
 62
     7
 10
524.5402493044203
 20
155.95
 11
507.0402493044203
 21
155.95
  0
ARC
  8
1
  6
CONTINUOUS
 62
     7
 10
524.5402493044203
 20
158.2
 40
2.249999999999974
 50
270.0
 51
0.0
  0
ARC
  8
1
  6
CONTINUOUS
 62
     7
 10
524.5402493044203
 20
158.2
 40
2.250000000000002
 50
359.9999999999997
 51
90.00000000000016
  0
LINE
  8
1
  6
CONTINUOUS
 62
     7
 10
507.0402493044203
 20
160.45
 11
524.5402493044204
 21
160.45
  0
ARC
  8
1
  6
CONTINUOUS
 62
     7
 10
507.0402493044203
 20
158.2
 40
2.25000000000003
 50
90.0
 51
180.0
  0
ARC
  8
1
  6
CONTINUOUS
 62
     7
 10
507.0402493044203
 20
188.2
 40
2.249999999999974
 50
179.9999999999998
 51
270.0
  0
LINE
  8
1
  6
CONTINUOUS
 62
     7
 10
524.5402493044203
 20
185.95
 11
507.0402493044203
 21
185.95
  0
ARC
  8
1
  6
CONTINUOUS
 62
     7
 10
524.5402493044203
 20
188.2
 40
2.249999999999974
 50
270.0
 51
0.0
  0
ARC
  8
1
  6
CONTINUOUS
 62
     7
 10
524.5402493044203
 20
188.2
 40
2.250000000000002
 50
359.9999999999997
 51
90.00000000000016
  0
LINE
  8
1
  6
CONTINUOUS
 62
     7
 10
507.0402493044203
 20
190.45
 11
524.5402493044204
 21
190.45
  0
ARC
  8
1
  6
CONTINUOUS
 62
     7
 10
507.0402493044203
 20
188.2
 40
2.25000000000003
 50
90.0
 51
180.0
  0
LINE
  8
1
  6
CONTINUOUS
 62
     7
 10
500.1902493044203
 20
110.7
 11
500.1902493044203
 21
205.7
  0
LINE
  8
1
  6
CONTINUOUS
 62
     7
 10
500.1902493044203
 20
205.7
 11
501.7902493044204
 21
205.7
  0
LINE
  8
1
  6
CONTINUOUS
 62
     7
 10
501.7902493044203
 20
110.7
 11
500.1902493044203
 21
110.7
  0
ENDBLK
  8
0
  0
BLOCK
  8
0
  2
D_FRAME_VIEW_2751
 70
     0
 10
0.0
 20
0.0
  0
LINE
  8
1
  6
CONTINUOUS
 62
     7
 10
589.75
 20
145.7
 11
589.75
 21
142.7
  0
LINE
  8
1
  6
CONTINUOUS
 62
     7
 10
588.15
 20
142.7
 11
588.15
 21
145.7
  0
LINE
  8
1
  6
CONTINUOUS
 62
     7
 10
588.15
 20
202.7
 11
588.15
 21
205.7
  0
LINE
  8
1
  6
CONTINUOUS
 62
     7
 10
588.15
 20
205.7
 11
589.75
 21
205.7
  0
LINE
  8
1
  6
CONTINUOUS
 62
     7
 10
589.75
 20
205.7
 11
589.75
 21
202.7
  0
LINE
  8
1
  6
CONTINUOUS
 62
     7
 10
588.15
 20
170.7
 11
588.15
 21
173.7
  0
LINE
  8
1
  6
CONTINUOUS
 62
     7
 10
589.75
 20
173.7
 11
589.75
 21
170.7
  0
LINE
  8
1
  6
CONTINUOUS
 62
     7
 10
589.75
 20
113.7
 11
589.75
 21
110.7
  0
LINE
  8
1
  6
CONTINUOUS
 62
     7
 10
589.75
 20
110.7
 11
588.15
 21
110.7
  0
LINE
  8
1
  6
CONTINUOUS
 62
     7
 10
588.15
 20
110.7
 11
588.15
 21
113.7
  0
LINE
  8
1
  6
CONTINUOUS
 62
     7
 10
589.75
 20
113.7
 11
589.75
 21
142.7
  0
LINE
  8
1
  6
CONTINUOUS
 62
     7
 10
588.15
 20
142.7
 11
588.15
 21
113.7
  0
LINE
  8
1
  6
CONTINUOUS
 62
     7
 10
588.15
 20
202.7
 11
588.15
 21
173.7
  0
LINE
  8
1
  6
CONTINUOUS
 62
     7
 10
589.75
 20
173.7
 11
589.75
 21
202.7
  0
LINE
  8
1
  6
CONTINUOUS
 62
     7
 10
589.75
 20
170.7
 11
589.75
 21
145.7
  0
LINE
  8
1
  6
CONTINUOUS
 62
     7
 10
588.15
 20
145.7
 11
588.15
 21
170.7
  0
LINE
  8
1
  6
CONTINUOUS
 62
     7
 10
691.9
 20
160.7
 11
691.9
 21
199.7
  0
ARC
  8
1
  6
CONTINUOUS
 62
     7
 10
693.15
 20
160.7
 40
1.250000000000001
 50
180.0
 51
269.9999999999987
  0
ARC
  8
1
  6
CONTINUOUS
 62
     7
 10
693.15
 20
155.7
 40
1.250000000000001
 50
90.00000000000124
 51
180.0
  0
LINE
  8
1
  6
CONTINUOUS
 62
     7
 10
691.9
 20
116.7
 11
691.9
 21
155.7
  0
ARC
  8
1
  6
CONTINUOUS
 62
     7
 10
693.1499999999999
 20
199.7
 40
1.250000000000001
 50
0.0000000000018758
 51
180.0
  0
ARC
  8
1
  6
CONTINUOUS
 62
     7
 10
703.9679306876174
 20
120.2000000000001
 40
1.249999999999996
 50
149.9999999999989
 51
330.0000000000023
  0
ARC
  8
1
  6
CONTINUOUS
 62
     7
 10
638.15
 20
158.2
 40
74.75
 50
1.853569216470635
 51
29.99999999999997
  0
ARC
  8
1
  6
CONTINUOUS
 62
     7
 10
714.1084361463642
 20
160.700278092076
 40
1.250271627157337
 50
183.7821249241088
 51
271.4334705816887
  0
ARC
  8
1
  6
CONTINUOUS
 62
     7
 10
714.1083422260135
 20
155.699824791949
 40
1.250171128579539
 50
88.56210840637961
 51
176.222296087823
  0
ARC
  8
1
  6
CONTINUOUS
 62
     7
 10
638.15
 20
158.2
 40
74.74999999999999
 50
330.0
 51
358.1464307835294
  0
ARC
  8
1
  6
CONTINUOUS
 62
     7
 10
714.1078192422577
 20
155.6996574719998
 40
1.250351626791218
 50
358.1311479346321
 51
88.53834327985514
  0
ARC
  8
1
  6
CONTINUOUS
 62
     7
 10
714.1080156677235
 20
160.7001572009795
 40
1.250161364347979
 50
271.452873987385
 51
1.877634798127872
  0
LINE
  8
1
  6
CONTINUOUS
 62
     7
 10
715.3581932199733
 20
160.741141418199
 11
715.3575057976859
 21
160.7411187931748
  0
ARC
  8
1
  6
CONTINUOUS
 62
     7
 10
638.15
 20
158.2
 40
77.25
 50
1.885086720499146
 51
29.99999999999994
  0
ARC
  8
1
  6
CONTINUOUS
 62
     7
 10
638.15
 20
158.2
 40
77.24999999999999
 50
330.0
 51
358.1149132795008
  0
LINE
  8
1
  6
CONTINUOUS
 62
     7
 10
715.3575057976858
 20
155.6588812068253
 11
715.3581932199733
 21
155.658858581801
  0
ARC
  8
1
  6
CONTINUOUS
 62
     7
 10
703.9679306876174
 20
196.2
 40
1.250000000000001
 50
29.99999999999568
 51
209.9999999999998
  0
ARC
  8
1
  6
CONTINUOUS
 62
     7
 10
717.15
 20
202.7
 40
3.000000000000003
 50
0.0
 51
90.0
  0
LINE
  8
1
  6
CONTINUOUS
 62
     7
 10
720.1500000000001
 20
202.7
 11
720.1500000000001
 21
113.7
  0
ARC
  8
1
  6
CONTINUOUS
 62
     7
 10
717.15
 20
113.7
 40
3.000000000000003
 50
270.0
 51
0.0
  0
LINE
  8
1
  6
CONTINUOUS
 62
     7
 10
589.75
 20
205.7
 11
717.15
 21
205.7
  0
LINE
  8
1
  6
CONTINUOUS
 62
     7
 10
717.15
 20
110.7
 11
589.75
 21
110.7
  0
ARC
  8
1
  6
CONTINUOUS
 62
     7
 10
628.15
 20
155.7
 40
1.250000000000001
 50
0.0
 51
90.00000000000064
  0
ARC
  8
1
  6
CONTINUOUS
 62
     7
 10
628.15
 20
160.7
 40
1.250000000000001
 50
269.9999999999994
 51
0.0
  0
LINE
  8
1
  6
CONTINUOUS
 62
     7
 10
629.4
 20
160.7
 11
629.4
 21
199.7
  0
LINE
  8
1
  6
CONTINUOUS
 62
     7
 10
629.4
 20
116.7
 11
629.4
 21
155.7
  0
ARC
  8
1
  6
CONTINUOUS
 62
     7
 10
628.15
 20
199.7
 40
1.250000000000001
 50
359.9999999999997
 51
180.0
  0
LINE
  8
1
  6
CONTINUOUS
 62
     7
 10
626.9
 20
155.7
 11
626.9
 21
116.7
  0
LINE
  8
1
  6
CONTINUOUS
 62
     7
 10
626.9
 20
199.7
 11
626.9
 21
160.7
  0
ARC
  8
1
  6
CONTINUOUS
 62
     7
 10
628.15
 20
160.7
 40
1.250000000000001
 50
180.0
 51
269.9999999999994
  0
ARC
  8
1
  6
CONTINUOUS
 62
     7
 10
628.15
 20
155.7
 40
1.250000000000001
 50
90.00000000000064
 51
180.0
  0
ARC
  8
1
  6
CONTINUOUS
 62
     7
 10
693.1499999999999
 20
116.7
 40
1.250000000000001
 50
180.0000000000009
 51
359.9999999999993
  0
ARC
  8
1
  6
CONTINUOUS
 62
     7
 10
648.15
 20
116.7
 40
1.250000000000001
 50
180.0000000000009
 51
359.9999999999993
  0
LINE
  8
1
  6
CONTINUOUS
 62
     7
 10
646.9
 20
160.7
 11
646.9
 21
199.7
  0
ARC
  8
1
  6
CONTINUOUS
 62
     7
 10
648.15
 20
160.7
 40
1.250000000000001
 50
180.0
 51
269.9999999999984
  0
ARC
  8
1
  6
CONTINUOUS
 62
     7
 10
648.15
 20
155.7
 40
1.250000000000001
 50
90.00000000000159
 51
180.0
  0
LINE
  8
1
  6
CONTINUOUS
 62
     7
 10
646.9
 20
116.7
 11
646.9
 21
155.7
  0
ARC
  8
1
  6
CONTINUOUS
 62
     7
 10
628.15
 20
116.7
 40
1.250000000000001
 50
180.0
 51
359.9999999999987
  0
CIRCLE
  8
1
  6
CONTINUOUS
 62
     7
 10
638.15
 20
158.2
 40
1.599999999999997
  0
ARC
  8
1
  6
CONTINUOUS
 62
     7
 10
668.0454788807317
 20
160.7001493976717
 40
1.250159936219257
 50
273.5939272421272
 51
4.772708015130092
  0
ARC
  8
1
  6
CONTINUOUS
 62
     7
 10
638.15
 20
158.2
 40
31.24999999999999
 50
4.780191847199148
 51
45.77995557231662
  0
ARC
  8
1
  6
CONTINUOUS
 62
     7
 10
638.15
 20
158.2
 40
31.24999999999999
 50
314.2200444276833
 51
355.2198081528008
  0
ARC
  8
1
  6
CONTINUOUS
 62
     7
 10
668.045280145395
 20
155.6996789575847
 40
1.250343715146623
 50
355.2358878840077
 51
86.39747685873533
  0
ARC
  8
1
  6
CONTINUOUS
 62
     7
 10
684.081845688701
 20
160.7001539006365
 40
1.250160686205767
 50
272.3444014190752
 51
3.107971394026208
  0
ARC
  8
1
  6
CONTINUOUS
 62
     7
 10
638.15
 20
158.2
 40
47.24999999999999
 50
3.115436016001695
 51
55.69884724320843
  0
ARC
  8
1
  6
CONTINUOUS
 62
     7
 10
638.15
 20
158.2
 40
47.25
 50
304.3011527567916
 51
356.8845639839985
  0
ARC
  8
1
  6
CONTINUOUS
 62
     7
 10
684.0816483379788
 20
155.6996666888321
 40
1.250348033832014
 50
356.9007281087933
 51
87.64689907810522
  0
ARC
  8
1
  6
CONTINUOUS
 62
     7
 10
638.15
 20
158.2
 40
28.74999999999999
 50
4.780191847199117
 51
45.7799555723166
  0
ARC
  8
1
  6
CONTINUOUS
 62
     7
 10
668.0458917375175
 20
160.7002777398516
 40
1.250262216754302
 50
184.7919594819007
 51
273.5746757753573
  0
ARC
  8
1
  6
CONTINUOUS
 62
     7
 10
668.0458017790684
 20
155.6998264166887
 40
1.250163875424769
 50
86.42091176659018
 51
175.2124529761518
  0
ARC
  8
1
  6
CONTINUOUS
 62
     7
 10
638.15
 20
158.2
 40
28.74999999999999
 50
314.2200444276834
 51
355.2198081528009
  0
ARC
  8
1
  6
CONTINUOUS
 62
     7
 10
648.15
 20
160.7
 40
1.250000000000001
 50
269.9999999999984
 51
0.0
  0
LINE
  8
1
  6
CONTINUOUS
 62
     7
 10
649.4
 20
199.7
 11
649.4
 21
160.7
  0
LINE
  8
1
  6
CONTINUOUS
 62
     7
 10
649.4
 20
155.7
 11
649.4
 21
116.7
  0
ARC
  8
1
  6
CONTINUOUS
 62
     7
 10
648.15
 20
155.7
 40
1.250000000000001
 50
0.0
 51
90.00000000000159
  0
ARC
  8
1
  6
CONTINUOUS
 62
     7
 10
659.0724759529077
 20
179.7
 40
1.250000000000012
 50
45.77995557231714
 51
225.7799555723167
  0
ARC
  8
1
  6
CONTINUOUS
 62
     7
 10
638.15
 20
158.2
 40
44.75
 50
3.115436016001658
 51
55.69884724320858
  0
ARC
  8
1
  6
CONTINUOUS
 62
     7
 10
684.0822596351408
 20
160.7002691209513
 40
1.250258947123068
 50
183.127141486894
 51
272.3252313262126
  0
ARC
  8
1
  6
CONTINUOUS
 62
     7
 10
684.0820149786617
 20
155.7
 40
1.25
 50
102.8728178214398
 51
176.8845639839936
  0
POLYLINE
  8
1
  6
CONTINUOUS
 62
     7
 66
     1
  0
VERTEX
  8
1
  6
CONTINUOUS
 62
     7
 10
683.8035304209773
 20
156.9185837480991
  0
VERTEX
  8
1
  6
CONTINUOUS
 62
     7
 10
683.9343502874059
 20
156.9412117789113
  0
VERTEX
  8
1
  6
CONTINUOUS
 62
     7
 10
684.0667865745544
 20
156.9498915013082
  0
VERTEX
  8
1
  6
CONTINUOUS
 62
     7
 10
684.1329848955677
 20
156.9489603947166
  0
SEQEND
  8
1
  6
CONTINUOUS
 62
     7
  0
ARC
  8
1
  6
CONTINUOUS
 62
     7
 10
638.15
 20
158.2
 40
44.75
 50
304.3011527567916
 51
356.8845639839985
  0
ARC
  8
1
  6
CONTINUOUS
 62
     7
 10
659.0724759529077
 20
136.7
 40
1.250000000000007
 50
134.2200444276833
 51
314.2200444276828
  0
ARC
  8
1
  6
CONTINUOUS
 62
     7
 10
664.0729627936315
 20
196.2
 40
1.250000000000002
 50
55.6988472432065
 51
235.6988472432081
  0
ARC
  8
1
  6
CONTINUOUS
 62
     7
 10
648.15
 20
199.7
 40
1.250000000000001
 50
0.0000000000018758
 51
180.0
  0
ARC
  8
1
  6
CONTINUOUS
 62
     7
 10
693.15
 20
160.7
 40
1.250000000000001
 50
269.9999999999987
 51
0.0
  0
LINE
  8
1
  6
CONTINUOUS
 62
     7
 10
694.4
 20
199.7
 11
694.4
 21
160.7
  0
LINE
  8
1
  6
CONTINUOUS
 62
     7
 10
694.4
 20
155.7
 11
694.4
 21
116.7
  0
ARC
  8
1
  6
CONTINUOUS
 62
     7
 10
693.15
 20
155.7
 40
1.250000000000001
 50
0.0
 51
90.00000000000124
  0
ARC
  8
1
  6
CONTINUOUS
 62
     7
 10
664.0729627936315
 20
120.2
 40
1.249999999999996
 50
124.3011527567909
 51
304.3011527567921
  0
ENDBLK
  8
0
  0
BLOCK
  8
0
  2
D_FRAME_DRAWING_17
 70
     0
 10
0.0
 20
0.0
  0
LINE
  8
図面枠
  6
CONTINUOUS
 62
     7
 10
0.0
 20
0.0
 11
297.0
 21
0.0
  0
LINE
  8
図面枠
  6
CONTINUOUS
 62
     7
 10
297.0
 20
0.0
 11
297.0
 21
210.0
  0
LINE
  8
図面枠
  6
CONTINUOUS
 62
     7
 10
297.0
 20
210.0
 11
0.0
 21
210.0
  0
LINE
  8
図面枠
  6
CONTINUOUS
 62
     7
 10
0.0
 20
210.0
 11
0.0
 21
0.0
  0
ENDBLK
  8
0
  0
ENDSEC
  0
SECTION
  2
ENTITIES
  0
INSERT
  8
1
  6
CONTINUOUS
 62
     7
  2
D_FRAME_VIEW_3440
 10
0.0
 20
0.0
 30
0.0
  0
INSERT
  8
1
  6
CONTINUOUS
 62
     7
  2
D_FRAME_VIEW_3524
 10
0.0
 20
0.0
 30
0.0
  0
INSERT
  8
1
  6
CONTINUOUS
 62
     7
  2
D_FRAME_VIEW_2751
 10
0.0
 20
0.0
 30
0.0
  0
LINE
  8
1
  6
CENTER
 62
     1
 10
587.75
 20
158.2
 11
719.15
 21
158.2
  0
LINE
  8
1
  6
CENTER
 62
     1
 10
530.2902493044204
 20
158.2
 11
499.7902493044203
 21
158.2
  0
INSERT
  8
図面枠
 62
     7
  2
D_FRAME_DRAWING_17
 10
0.0
 20
0.0
 30
0.0
  0
ENDSEC
  0
EOF
