  0
SECTION
  2
HEADER
  9
$ACADVER
  1
AC1006
  9
$DWGCODEPAGE
  3
ansi_932
  9
$INSBASE
 10
0.0
 20
0.0
 30
0.0
  9
$EXTMIN
 10
0.0
 20
0.0
  9
$EXTMAX
 10
166.0265027619982
 20
451.0
  9
$LIMMIN
 10
0.0
 20
0.0
  9
$LIMMAX
 10
12.0
 20
9.0
  9
$ORTHOMODE
 70
     0
  9
$REGENMODE
 70
     1
  9
$FILLMODE
 70
     1
  9
$QTEXTMODE
 70
     0
  9
$MIRRTEXT
 70
     1
  9
$DRAGMODE
 70
     2
  9
$LTSCALE
 40
1.0
  9
$OSMODE
 70
    37
  9
$ATTMODE
 70
     1
  9
$TEXTSIZE
 40
0.2
  9
$TRACEWID
 40
0.05
  9
$TEXTSTYLE
  7
STANDARD
  9
$CLAYER
  8
0
  9
$CELTYPE
  6
BYLAYER
  9
$CECOLOR
 62
   256
  9
$DIMSCALE
 40
1.0
  9
$DIMASZ
 40
3.0
  9
$DIMEXO
 40
0.0625
  9
$DIMDLI
 40
0.38
  9
$DIMRND
 40
0.0
  9
$DIMDLE
 40
0.0
  9
$DIMEXE
 40
1.5
  9
$DIMTP
 40
0.0
  9
$DIMTM
 40
0.0
  9
$DIMTXT
 40
3.0
  9
$DIMCEN
 40
0.09
  9
$DIMTSZ
 40
0.0
  9
$DIMTOL
 70
     0
  9
$DIMLIM
 70
     0
  9
$DIMTIH
 70
     1
  9
$DIMTOH
 70
     1
  9
$DIMSE1
 70
     0
  9
$DIMSE2
 70
     0
  9
$DIMTAD
 70
     1
  9
$DIMZIN
 70
     0
  9
$DIMBLK
  1

  9
$DIMASO
 70
     1
  9
$DIMSHO
 70
     1
  9
$DIMPOST
  1

  9
$DIMAPOST
  1

  9
$DIMALT
 70
     0
  9
$DIMALTD
 70
     2
  9
$DIMALTF
 40
25.4
  9
$DIMLFAC
 40
1.0
  9
$DIMTOFL
 70
     0
  9
$DIMTVP
 40
0.0
  9
$DIMTIX
 70
     0
  9
$DIMSOXD
 70
     0
  9
$DIMSAH
 70
     0
  9
$DIMBLK1
  1

  9
$DIMBLK2
  1

  9
$LUNITS
 70
     2
  9
$LUPREC
 70
     4
  9
$SKETCHINC
 40
0.1
  9
$FILLETRAD
 40
0.5
  9
$AUNITS
 70
     0
  9
$AUPREC
 70
     0
  9
$MENU
  1
.
  9
$ELEVATION
 40
0.0
  9
$THICKNESS
 40
0.0
  9
$LIMCHECK
 70
     0
  9
$CHAMFERA
 40
0.0
  9
$CHAMFERB
 40
0.0
  9
$SKPOLY
 70
     0
  9
$TDCREATE
 40
2460741.748136724
  9
$TDUPDATE
 40
2460741.748137176
  9
$TDINDWG
 40
0.0000000116
  9
$TDUSRTIMER
 40
0.0000000116
  9
$USRTIMER
 70
     1
  9
$ANGBASE
 50
0.0
  9
$ANGDIR
 70
     0
  9
$PDMODE
 70
     0
  9
$PDSIZE
 40
0.0
  9
$PLINEWID
 40
0.0
  9
$COORDS
 70
     1
  9
$SPLFRAME
 70
     0
  9
$SPLINETYPE
 70
     6
  9
$SPLINESEGS
 70
     8
  9
$ATTDIA
 70
     0
  9
$ATTREQ
 70
     1
  9
$HANDLING
 70
     1
  9
$HANDSEED
  5
5A4
  9
$SURFTAB1
 70
     6
  9
$SURFTAB2
 70
     6
  9
$SURFTYPE
 70
     6
  9
$SURFU
 70
     6
  9
$SURFV
 70
     6
  9
$UCSNAME
  2

  9
$UCSORG
 10
0.0
 20
0.0
 30
0.0
  9
$UCSXDIR
 10
1.0
 20
0.0
 30
0.0
  9
$UCSYDIR
 10
0.0
 20
1.0
 30
0.0
  9
$USERI1
 70
     0
  9
$USERI2
 70
     0
  9
$USERI3
 70
     0
  9
$USERI4
 70
     0
  9
$USERI5
 70
     0
  9
$USERR1
 40
0.0
  9
$USERR2
 40
0.0
  9
$USERR3
 40
0.0
  9
$USERR4
 40
0.0
  9
$USERR5
 40
0.0
  9
$WORLDVIEW
 70
     1
  0
ENDSEC
  0
SECTION
  2
TABLES
  0
TABLE
  2
VPORT
 70
     1
  0
VPORT
  2
*ACTIVE
 70
     0
 10
0.0
 20
0.0
 11
1.0
 21
1.0
 12
83.01325138099911
 22
225.5
 13
0.0
 23
0.0
 14
0.5
 24
0.5
 15
0.5
 25
0.5
 16
0.0
 26
0.0
 36
1.0
 17
0.0
 27
0.0
 37
0.0
 40
451.0
 41
1.6
 42
50.0
 43
0.0
 44
0.0
 50
0.0
 51
0.0
 71
     0
 72
   100
 73
     1
 74
     3
 75
     0
 76
     0
 77
     0
 78
     0
  0
ENDTAB
  0
TABLE
  2
LTYPE
 70
     1
  0
LTYPE
  2
CONTINUOUS
 70
     0
  3
Solid line
 72
    65
 73
     0
 40
0.0
  0
ENDTAB
  0
TABLE
  2
LAYER
 70
     1
  0
LAYER
  2
0
 70
     0
 62
     7
  6
CONTINUOUS
  0
ENDTAB
  0
TABLE
  2
STYLE
 70
     2
  0
STYLE
  2
STANDARD
 70
     0
 40
0.0
 41
1.0
 50
0.0
 71
     0
 42
0.2
  3
txt
  4

  0
STYLE
  2
ＭＳ_ゴシック
 70
     0
 40
0.0
 41
1.0
 50
0.0
 71
     0
 42
0.2
  3
ＭＳ ゴシック.shx
  4

  0
ENDTAB
  0
TABLE
  2
VIEW
 70
     0
  0
ENDTAB
  0
TABLE
  2
UCS
 70
     0
  0
ENDTAB
  0
ENDSEC
  0
SECTION
  2
BLOCKS
  0
BLOCK
  8
0
  2
D_FRAME_DRAWING_21
 70
     0
 10
0.0
 20
0.0
 30
0.0
  0
LINE
  5
71
  8
0
  6
CONTINUOUS
 62
     7
 10
0.0
 20
0.0
 30
0.0
 11
420.0
 21
0.0
 31
0.0
  0
LINE
  5
72
  8
0
  6
CONTINUOUS
 62
     7
 10
420.0
 20
0.0
 30
0.0
 11
420.0
 21
297.0
 31
0.0
  0
LINE
  5
73
  8
0
  6
CONTINUOUS
 62
     7
 10
420.0
 20
297.0
 30
0.0
 11
0.0
 21
297.0
 31
0.0
  0
LINE
  5
74
  8
0
  6
CONTINUOUS
 62
     7
 10
0.0
 20
297.0
 30
0.0
 11
0.0
 21
0.0
 31
0.0
  0
LINE
  5
75
  8
0
  6
CONTINUOUS
 62
     7
 10
10.0
 20
10.0
 30
0.0
 11
409.9999999999999
 21
10.0
 31
0.0
  0
LINE
  5
76
  8
0
  6
CONTINUOUS
 62
     7
 10
409.9999999999999
 20
10.0
 30
0.0
 11
409.9999999999999
 21
286.9999999999999
 31
0.0
  0
LINE
  5
77
  8
0
  6
CONTINUOUS
 62
     7
 10
409.9999999999999
 20
286.9999999999999
 30
0.0
 11
10.00000000000006
 21
286.9999999999999
 31
0.0
  0
LINE
  5
78
  8
0
  6
CONTINUOUS
 62
     7
 10
10.0
 20
286.9999999999999
 30
0.0
 11
10.0
 21
10.00000000000001
 31
0.0
  0
LINE
  5
79
  8
0
  6
CONTINUOUS
 62
     7
 10
210.0
 20
0.0
 30
0.0
 11
210.0
 21
10.0
 31
0.0
  0
LINE
  5
7A
  8
0
  6
CONTINUOUS
 62
     7
 10
420.0
 20
148.5
 30
0.0
 11
409.9999999999999
 21
148.5
 31
0.0
  0
LINE
  5
7B
  8
0
  6
CONTINUOUS
 62
     7
 10
210.0
 20
297.0
 30
0.0
 11
210.0
 21
286.9999999999999
 31
0.0
  0
LINE
  5
7C
  8
0
  6
CONTINUOUS
 62
     7
 10
0.0
 20
148.5
 30
0.0
 11
10.0
 21
148.5
 31
0.0
  0
POLYLINE
  5
7D
  8
0
  6
CONTINUOUS
 62
     7
 66
     1
 10
0.0
 20
0.0
 30
0.0
 70
     1
  0
VERTEX
  5
575
  8
0
  6
CONTINUOUS
 62
     7
 10
11.0
 20
152.5
 30
0.0
  0
VERTEX
  5
576
  8
0
  6
CONTINUOUS
 62
     7
 10
0.0
 20
148.5
 30
0.0
  0
VERTEX
  5
577
  8
0
  6
CONTINUOUS
 62
     7
 10
11.0
 20
144.5
 30
0.0
  0
VERTEX
  5
578
  8
0
  6
CONTINUOUS
 62
     7
 10
11.0
 20
152.5
 30
0.0
  0
SEQEND
  5
5A2
  8
0
  6
CONTINUOUS
 62
     7
  0
INSERT
  5
7E
  8
0
 62
     7
  2
*U2
 10
0.0
 20
0.0
 30
0.0
  0
POLYLINE
  5
7F
  8
0
  6
CONTINUOUS
 62
     7
 66
     1
 10
0.0
 20
0.0
 30
0.0
 70
     1
  0
VERTEX
  5
57B
  8
0
  6
CONTINUOUS
 62
     7
 10
206.0
 20
11.0
 30
0.0
  0
VERTEX
  5
57C
  8
0
  6
CONTINUOUS
 62
     7
 10
210.0
 20
0.0
 30
0.0
  0
VERTEX
  5
57D
  8
0
  6
CONTINUOUS
 62
     7
 10
214.0
 20
11.0
 30
0.0
  0
VERTEX
  5
57E
  8
0
  6
CONTINUOUS
 62
     7
 10
206.0
 20
11.0
 30
0.0
  0
SEQEND
  5
5A3
  8
0
  6
CONTINUOUS
 62
     7
  0
INSERT
  5
80
  8
0
 62
     7
  2
*U3
 10
0.0
 20
0.0
 30
0.0
  0
LINE
  5
81
  8
0
  6
CONTINUOUS
 62
     7
 10
367.5
 20
286.9999999999999
 30
0.0
 11
367.5
 21
292.0
 31
0.0
  0
TEXT
  5
82
  8
0
  6
CONTINUOUS
 62
     7
 10
391.6340909090909
 20
291.8324293485057
 30
0.0
 40
3.5
  1
A
 50
270.0
  0
LINE
  5
83
  8
0
  6
CONTINUOUS
 62
     7
 10
367.5
 20
10.0
 30
0.0
 11
367.5
 21
5.0
 31
0.0
  0
TEXT
  5
84
  8
0
  6
CONTINUOUS
 62
     7
 10
392.9868888333125
 20
4.602272727272727
 30
0.0
 40
3.5
  1
A
  0
LINE
  5
85
  8
0
  6
CONTINUOUS
 62
     7
 10
315.0
 20
286.9999999999999
 30
0.0
 11
315.0
 21
292.0
 31
0.0
  0
TEXT
  5
86
  8
0
  6
CONTINUOUS
 62
     7
 10
339.1340909090909
 20
291.9745607727899
 30
0.0
 40
3.5
  1
B
 50
270.0
  0
LINE
  5
87
  8
0
  6
CONTINUOUS
 62
     7
 10
315.0
 20
10.0
 30
0.0
 11
315.0
 21
5.0
 31
0.0
  0
TEXT
  5
88
  8
0
  6
CONTINUOUS
 62
     7
 10
340.3447574090284
 20
4.602272727272727
 30
0.0
 40
3.5
  1
B
  0
LINE
  5
89
  8
0
  6
CONTINUOUS
 62
     7
 10
262.5
 20
286.9999999999999
 30
0.0
 11
262.5
 21
292.0
 31
0.0
  0
TEXT
  5
8A
  8
0
  6
CONTINUOUS
 62
     7
 10
286.6327779167187
 20
291.9399305989747
 30
0.0
 40
3.5
  1
C
 50
270.0
  0
LINE
  5
8B
  8
0
  6
CONTINUOUS
 62
     7
 10
262.5
 20
10.0
 30
0.0
 11
262.5
 21
5.0
 31
0.0
  0
TEXT
  5
8C
  8
0
  6
CONTINUOUS
 62
     7
 10
287.8793875828435
 20
4.600959734900587
 30
0.0
 40
3.5
  1
C
  0
LINE
  5
8D
  8
0
  6
CONTINUOUS
 62
     7
 10
210.0
 20
286.9999999999999
 30
0.0
 11
210.0
 21
292.0
 31
0.0
  0
TEXT
  5
8E
  8
0
  6
CONTINUOUS
 62
     7
 10
234.1340909090909
 20
291.9745607727898
 30
0.0
 40
3.5
  1
D
 50
270.0
  0
LINE
  5
8F
  8
0
  6
CONTINUOUS
 62
     7
 10
157.5
 20
286.9999999999999
 30
0.0
 11
157.5
 21
292.0
 31
0.0
  0
TEXT
  5
90
  8
0
  6
CONTINUOUS
 62
     7
 10
181.6327779167188
 20
292.027463423784
 30
0.0
 40
3.5
  1
E
 50
270.0
  0
LINE
  5
91
  8
0
  6
CONTINUOUS
 62
     7
 10
157.5
 20
10.0
 30
0.0
 11
157.5
 21
5.0
 31
0.0
  0
LINE
  5
92
  8
0
  6
CONTINUOUS
 62
     7
 10
105.0
 20
286.9999999999999
 30
0.0
 11
105.0
 21
292.0
 31
0.0
  0
TEXT
  5
93
  8
0
  6
CONTINUOUS
 62
     7
 10
129.1327779167188
 20
291.9924502938602
 30
0.0
 40
3.5
  1
F
 50
270.0
  0
LINE
  5
94
  8
0
  6
CONTINUOUS
 62
     7
 10
105.0
 20
10.0
 30
0.0
 11
105.0
 21
5.0
 31
0.0
  0
TEXT
  5
95
  8
0
  6
CONTINUOUS
 62
     7
 10
130.326867887958
 20
4.600959734900587
 30
0.0
 40
3.5
  1
F
  0
LINE
  5
96
  8
0
  6
CONTINUOUS
 62
     7
 10
52.50000000000004
 20
286.9999999999999
 30
0.0
 11
52.50000000000004
 21
292.0
 31
0.0
  0
TEXT
  5
97
  8
0
  6
CONTINUOUS
 62
     7
 10
76.6327779167188
 20
291.9399305989746
 30
0.0
 40
3.5
  1
G
 50
270.0
  0
LINE
  5
98
  8
0
  6
CONTINUOUS
 62
     7
 10
52.50000000000004
 20
10.0
 30
0.0
 11
52.50000000000004
 21
5.0
 31
0.0
  0
TEXT
  5
99
  8
0
  6
CONTINUOUS
 62
     7
 10
77.8793875828436
 20
4.600959734900587
 30
0.0
 40
3.5
  1
G
  0
TEXT
  5
9A
  8
0
  6
CONTINUOUS
 62
     7
 10
24.13277791671879
 20
291.9749437288983
 30
0.0
 40
3.5
  1
H
 50
270.0
  0
TEXT
  5
9B
  8
0
  6
CONTINUOUS
 62
     7
 10
25.34437445291988
 20
4.600959734900587
 30
0.0
 40
3.5
  1
H
  0
LINE
  5
9C
  8
0
  6
CONTINUOUS
 62
     7
 10
409.9999999999999
 20
74.25
 30
0.0
 11
414.9999999999999
 21
74.25
 31
0.0
  0
TEXT
  5
9D
  8
0
  6
CONTINUOUS
 62
     7
 10
412.9326059772414
 20
35.00777791671877
 30
0.0
 40
3.5
  1
1
  0
LINE
  5
9E
  8
0
  6
CONTINUOUS
 62
     7
 10
10.0
 20
74.25
 30
0.0
 11
5.0
 21
74.25
 31
0.0
  0
TEXT
  5
9F
  8
0
  6
CONTINUOUS
 62
     7
 10
4.600959734900584
 20
38.26171220457671
 30
0.0
 40
3.5
  1
1
 50
270.0
  0
LINE
  5
A0
  8
0
  6
CONTINUOUS
 62
     7
 10
409.9999999999999
 20
148.5
 30
0.0
 11
414.9999999999999
 21
148.5
 31
0.0
  0
TEXT
  5
A1
  8
0
  6
CONTINUOUS
 62
     7
 10
413.163692634738
 20
109.2577779167188
 30
0.0
 40
3.5
  1
2
  0
LINE
  5
A2
  8
0
  6
CONTINUOUS
 62
     7
 10
10.0
 20
148.5
 30
0.0
 11
5.0
 21
148.5
 31
0.0
  0
TEXT
  5
A3
  8
0
  6
CONTINUOUS
 62
     7
 10
4.600959734900599
 20
112.2806255470802
 30
0.0
 40
3.5
  1
2
 50
270.0
  0
LINE
  5
A4
  8
0
  6
CONTINUOUS
 62
     7
 10
409.9999999999999
 20
222.75
 30
0.0
 11
414.9999999999999
 21
222.75
 31
0.0
  0
TEXT
  5
A5
  8
0
  6
CONTINUOUS
 62
     7
 10
413.1811991996998
 20
183.5077779167188
 30
0.0
 40
3.5
  1
3
  0
LINE
  5
A6
  8
0
  6
CONTINUOUS
 62
     7
 10
10.0
 20
222.75
 30
0.0
 11
5.0
 21
222.75
 31
0.0
  0
TEXT
  5
A7
  8
0
  6
CONTINUOUS
 62
     7
 10
4.600959734900584
 20
186.5131189821183
 30
0.0
 40
3.5
  1
3
 50
270.0
  0
TEXT
  5
A8
  8
0
  6
CONTINUOUS
 62
     7
 10
413.2351413029886
 20
257.7590909090909
 30
0.0
 40
3.5
  1
4
  0
TEXT
  5
A9
  8
0
  6
CONTINUOUS
 62
     7
 10
4.60227272727272
 20
260.7091768788295
 30
0.0
 40
3.5
  1
4
 50
270.0
  0
LINE
  5
AA
  8
0
  6
CONTINUOUS
 62
     7
 10
220.0
 20
10.0
 30
0.0
 11
220.0
 21
7.0
 31
0.0
  0
LINE
  5
AB
  8
0
  6
CONTINUOUS
 62
     7
 10
200.0
 20
10.0
 30
0.0
 11
200.0
 21
7.0
 31
0.0
  0
LINE
  5
AC
  8
0
  6
CONTINUOUS
 62
     7
 10
230.0
 20
10.0
 30
0.0
 11
230.0
 21
7.0
 31
0.0
  0
LINE
  5
AD
  8
0
  6
CONTINUOUS
 62
     7
 10
190.0
 20
10.0
 30
0.0
 11
190.0
 21
7.0
 31
0.0
  0
LINE
  5
AE
  8
0
  6
CONTINUOUS
 62
     7
 10
240.0
 20
10.0
 30
0.0
 11
240.0
 21
7.0
 31
0.0
  0
LINE
  5
AF
  8
0
  6
CONTINUOUS
 62
     7
 10
180.0
 20
10.0
 30
0.0
 11
180.0
 21
7.0
 31
0.0
  0
LINE
  5
B0
  8
0
  6
CONTINUOUS
 62
     7
 10
250.0
 20
10.0
 30
0.0
 11
250.0
 21
7.0
 31
0.0
  0
LINE
  5
B1
  8
0
  6
CONTINUOUS
 62
     7
 10
170.0
 20
10.0
 30
0.0
 11
170.0
 21
7.0
 31
0.0
  0
LINE
  5
B2
  8
0
  6
CONTINUOUS
 62
     7
 10
260.0
 20
10.0
 30
0.0
 11
260.0
 21
5.0
 31
0.0
  0
LINE
  5
B3
  8
0
  6
CONTINUOUS
 62
     7
 10
160.0
 20
10.0
 30
0.0
 11
160.0
 21
5.0
 31
0.0
  0
LINE
  5
B4
  8
0
  6
CONTINUOUS
 62
     7
 10
260.0
 20
10.0
 30
0.0
 11
160.0
 21
10.0
 31
0.0
  0
LINE
  5
B5
  8
0
  6
CONTINUOUS
 62
     7
 10
260.0
 20
7.0
 30
0.0
 11
160.0
 21
7.0
 31
0.0
  0
INSERT
  5
B6
  8
0
 62
     7
  2
*U4
 10
0.0
 20
0.0
 30
0.0
  0
INSERT
  5
B7
  8
0
 62
     7
  2
*U5
 10
0.0
 20
0.0
 30
0.0
  0
INSERT
  5
B8
  8
0
 62
     7
  2
*U6
 10
0.0
 20
0.0
 30
0.0
  0
INSERT
  5
B9
  8
0
 62
     7
  2
*U7
 10
0.0
 20
0.0
 30
0.0
  0
ENDBLK
  8
0
  0
BLOCK
  8
0
  2
*U2
 70
     1
 10
0.0
 20
0.0
 30
0.0
  0
SOLID
  5
57A
  8
0
  6
CONTINUOUS
 62
     7
 10
11.0
 20
144.5
 30
0.0
 11
6.999999999999999
 21
148.5
 31
0.0
 12
11.0
 22
152.5
 32
0.0
 13
11.0
 23
152.5
 33
0.0
  0
ENDBLK
  8
0
  0
BLOCK
  8
0
  2
*U3
 70
     1
 10
0.0
 20
0.0
 30
0.0
  0
SOLID
  5
580
  8
0
  6
CONTINUOUS
 62
     7
 10
210.0
 20
6.999999999999999
 30
0.0
 11
206.0
 21
11.0
 31
0.0
 12
210.0
 22
11.0
 32
0.0
 13
210.0
 23
11.0
 33
0.0
  0
SOLID
  5
581
  8
0
  6
CONTINUOUS
 62
     7
 10
210.0
 20
6.999999999999999
 30
0.0
 11
210.0
 21
11.0
 31
0.0
 12
214.0
 22
11.0
 32
0.0
 13
214.0
 23
11.0
 33
0.0
  0
ENDBLK
  8
0
  0
BLOCK
  8
0
  2
*U4
 70
     1
 10
0.0
 20
0.0
 30
0.0
  0
SOLID
  5
583
  8
0
  6
CONTINUOUS
 62
     7
 10
0.0
 20
0.0
 30
0.0
 11
0.0
 21
10.0
 31
0.0
 12
2.0
 22
0.0
 32
0.0
 13
2.0
 23
0.0
 33
0.0
  0
SOLID
  5
584
  8
0
  6
CONTINUOUS
 62
     7
 10
2.0
 20
0.0
 30
0.0
 11
0.0
 21
10.0
 31
0.0
 12
2.0
 22
10.0
 32
0.0
 13
2.0
 23
10.0
 33
0.0
  0
SOLID
  5
585
  8
0
  6
CONTINUOUS
 62
     7
 10
2.0
 20
0.0
 30
0.0
 11
2.0
 21
2.0
 31
0.0
 12
10.0
 22
0.0
 32
0.0
 13
10.0
 23
0.0
 33
0.0
  0
SOLID
  5
586
  8
0
  6
CONTINUOUS
 62
     7
 10
10.0
 20
0.0
 30
0.0
 11
2.0
 21
2.0
 31
0.0
 12
10.0
 22
2.0
 32
0.0
 13
10.0
 23
2.0
 33
0.0
  0
ENDBLK
  8
0
  0
BLOCK
  8
0
  2
*U5
 70
     1
 10
0.0
 20
0.0
 30
0.0
  0
SOLID
  5
588
  8
0
  6
CONTINUOUS
 62
     7
 10
409.9999999999999
 20
0.0
 30
0.0
 11
409.9999999999999
 21
2.0
 31
0.0
 12
418.0
 22
0.0
 32
0.0
 13
418.0
 23
0.0
 33
0.0
  0
SOLID
  5
589
  8
0
  6
CONTINUOUS
 62
     7
 10
418.0
 20
0.0
 30
0.0
 11
409.9999999999999
 21
2.0
 31
0.0
 12
418.0
 22
2.0
 32
0.0
 13
418.0
 23
2.0
 33
0.0
  0
SOLID
  5
58A
  8
0
  6
CONTINUOUS
 62
     7
 10
418.0
 20
0.0
 30
0.0
 11
418.0
 21
10.0
 31
0.0
 12
420.0
 22
0.0
 32
0.0
 13
420.0
 23
0.0
 33
0.0
  0
SOLID
  5
58B
  8
0
  6
CONTINUOUS
 62
     7
 10
420.0
 20
0.0
 30
0.0
 11
418.0
 21
10.0
 31
0.0
 12
420.0
 22
10.0
 32
0.0
 13
420.0
 23
10.0
 33
0.0
  0
ENDBLK
  8
0
  0
BLOCK
  8
0
  2
*U6
 70
     1
 10
0.0
 20
0.0
 30
0.0
  0
SOLID
  5
58D
  8
0
  6
CONTINUOUS
 62
     7
 10
409.9999999999999
 20
295.0
 30
0.0
 11
409.9999999999999
 21
297.0
 31
0.0
 12
418.0
 22
295.0
 32
0.0
 13
418.0
 23
295.0
 33
0.0
  0
SOLID
  5
58E
  8
0
  6
CONTINUOUS
 62
     7
 10
418.0
 20
295.0
 30
0.0
 11
409.9999999999999
 21
297.0
 31
0.0
 12
418.0
 22
297.0
 32
0.0
 13
418.0
 23
297.0
 33
0.0
  0
SOLID
  5
58F
  8
0
  6
CONTINUOUS
 62
     7
 10
418.0
 20
286.9999999999999
 30
0.0
 11
418.0
 21
297.0
 31
0.0
 12
420.0
 22
286.9999999999999
 32
0.0
 13
420.0
 23
286.9999999999999
 33
0.0
  0
SOLID
  5
590
  8
0
  6
CONTINUOUS
 62
     7
 10
420.0
 20
286.9999999999999
 30
0.0
 11
418.0
 21
297.0
 31
0.0
 12
420.0
 22
297.0
 32
0.0
 13
420.0
 23
297.0
 33
0.0
  0
ENDBLK
  8
0
  0
BLOCK
  8
0
  2
*U7
 70
     1
 10
0.0
 20
0.0
 30
0.0
  0
SOLID
  5
592
  8
0
  6
CONTINUOUS
 62
     7
 10
0.0
 20
286.9999999999999
 30
0.0
 11
0.0
 21
297.0
 31
0.0
 12
2.0
 22
286.9999999999999
 32
0.0
 13
2.0
 23
286.9999999999999
 33
0.0
  0
SOLID
  5
593
  8
0
  6
CONTINUOUS
 62
     7
 10
2.0
 20
286.9999999999999
 30
0.0
 11
0.0
 21
297.0
 31
0.0
 12
2.0
 22
297.0
 32
0.0
 13
2.0
 23
297.0
 33
0.0
  0
SOLID
  5
594
  8
0
  6
CONTINUOUS
 62
     7
 10
2.0
 20
295.0
 30
0.0
 11
2.0
 21
297.0
 31
0.0
 12
10.0
 22
295.0
 32
0.0
 13
10.0
 23
295.0
 33
0.0
  0
SOLID
  5
595
  8
0
  6
CONTINUOUS
 62
     7
 10
10.0
 20
295.0
 30
0.0
 11
2.0
 21
297.0
 31
0.0
 12
10.0
 22
297.0
 32
0.0
 13
10.0
 23
297.0
 33
0.0
  0
ENDBLK
  8
0
  0
ENDSEC
  0
SECTION
  2
ENTITIES
  0
INSERT
  5
70
  8
0
 62
     7
  2
D_FRAME_DRAWING_21
 10
0.0
 20
0.0
 30
0.0
  0
ARC
  5
BA
  8
0
  6
CONTINUOUS
 62
     7
 10
79.97349723800181
 20
440.0
 30
0.0
 40
11.00000000000001
 50
1.420353467291079
 51
270.0
  0
ARC
  5
BB
  8
0
  6
CONTINUOUS
 62
   253
 10
79.97349723800181
 20
440.0
 30
0.0
 40
10.0
 50
1.512397957991191
 51
358.4876020420085
  0
LINE
  5
BC
  8
0
  6
CONTINUOUS
 62
     7
 10
90.97011746093067
 20
439.7273396386117
 30
0.0
 11
89.97001361068664
 21
439.7360674126897
 31
0.0
  0
ARC
  5
BD
  8
0
  6
CONTINUOUS
 62
     7
 10
79.97349723800181
 20
440.0
 30
0.0
 40
11.00000000000001
 50
270.0
 51
358.5796465327089
  0
LINE
  5
BE
  8
0
  6
CONTINUOUS
 62
     7
 10
90.97011746093067
 20
440.2726603613883
 30
0.0
 11
89.97001361068664
 21
440.2639325873102
 31
0.0
  0
LINE
  5
BF
  8
0
  6
CONTINUOUS
 62
     7
 10
88.37349723800182
 20
440.25
 30
0.0
 11
88.37349723800182
 21
439.75
 31
0.0
  0
CIRCLE
  5
C0
  8
0
  6
CONTINUOUS
 62
   253
 10
79.97349723800181
 20
440.0
 30
0.0
 40
8.395655605297494
  0
LINE
  5
C1
  8
0
  6
CONTINUOUS
 62
     7
 10
88.37349723800182
 20
439.75
 30
0.0
 11
89.97001361068664
 21
439.7360674126897
 31
0.0
  0
LINE
  5
C2
  8
0
  6
CONTINUOUS
 62
     7
 10
88.37349723800182
 20
440.25
 30
0.0
 11
89.97001361068664
 21
440.2639325873102
 31
0.0
  0
CIRCLE
  5
C3
  8
0
  6
CONTINUOUS
 62
   253
 10
79.97349723800181
 20
440.0
 30
0.0
 40
7.895674643765407
  0
CIRCLE
  5
C4
  8
0
  6
CONTINUOUS
 62
   253
 10
79.97349723800181
 20
440.0
 30
0.0
 40
7.867687742577719
  0
CIRCLE
  5
C5
  8
0
  6
CONTINUOUS
 62
   253
 10
79.97349723800181
 20
440.0
 30
0.0
 40
7.56769916565847
  0
LINE
  5
C6
  8
0
  6
CONTINUOUS
 62
     7
 10
83.72326282603532
 20
446.4947845149453
 30
0.0
 11
83.73335957863924
 21
446.4878487702856
 31
0.0
  0
LINE
  5
C7
  8
0
  6
CONTINUOUS
 62
     7
 10
83.73335957863924
 20
446.4878487702856
 30
0.0
 11
83.74315951086052
 21
446.4804704754801
 31
0.0
  0
LINE
  5
C8
  8
0
  6
CONTINUOUS
 62
     7
 10
83.74315951086052
 20
446.4804704754801
 30
0.0
 11
83.75263476799854
 21
446.4726706491843
 31
0.0
  0
LINE
  5
C9
  8
0
  6
CONTINUOUS
 62
     7
 10
83.75263476799854
 20
446.4726706491843
 30
0.0
 11
83.76175749535274
 21
446.4644703100536
 31
0.0
  0
LINE
  5
CA
  8
0
  6
CONTINUOUS
 62
     7
 10
83.76175749535274
 20
446.4644703100536
 30
0.0
 11
83.77049983822243
 21
446.4558904767434
 31
0.0
  0
LINE
  5
CB
  8
0
  6
CONTINUOUS
 62
     7
 10
83.77049983822243
 20
446.4558904767434
 30
0.0
 11
83.77849612873956
 21
446.4473344806007
 31
0.0
  0
LINE
  5
CC
  8
0
  6
CONTINUOUS
 62
     7
 10
83.77849612873956
 20
446.4473344806007
 30
0.0
 11
83.7861312590805
 21
446.438440826767
 31
0.0
  0
LINE
  5
CD
  8
0
  6
CONTINUOUS
 62
     7
 10
83.7861312590805
 20
446.438440826767
 30
0.0
 11
83.79338309133763
 21
446.4292322255909
 31
0.0
  0
LINE
  5
CE
  8
0
  6
CONTINUOUS
 62
     7
 10
83.79338309133763
 20
446.4292322255909
 30
0.0
 11
83.8002294876033
 21
446.4197313874208
 31
0.0
  0
LINE
  5
CF
  8
0
  6
CONTINUOUS
 62
     7
 10
83.8002294876033
 20
446.4197313874208
 30
0.0
 11
83.80685265454699
 21
446.4096370942912
 31
0.0
  0
LINE
  5
D0
  8
0
  6
CONTINUOUS
 62
     7
 10
83.80685265454699
 20
446.4096370942912
 30
0.0
 11
83.81302591609257
 21
446.3992474377913
 31
0.0
  0
LINE
  5
D1
  8
0
  6
CONTINUOUS
 62
     7
 10
83.81302591609257
 20
446.3992474377913
 30
0.0
 11
83.81872784091668
 21
446.3885921979894
 31
0.0
  0
LINE
  5
D2
  8
0
  6
CONTINUOUS
 62
     7
 10
83.81872784091668
 20
446.3885921979894
 30
0.0
 11
83.82393699769595
 21
446.3777011549542
 31
0.0
  0
LINE
  5
D3
  8
0
  6
CONTINUOUS
 62
     7
 10
83.82393699769595
 20
446.3777011549542
 30
0.0
 11
83.82836619198784
 21
446.3672771558892
 31
0.0
  0
LINE
  5
D4
  8
0
  6
CONTINUOUS
 62
     7
 10
83.82836619198784
 20
446.3672771558892
 30
0.0
 11
83.83234593848047
 21
446.3566620443652
 31
0.0
  0
LINE
  5
D5
  8
0
  6
CONTINUOUS
 62
     7
 10
83.83234593848047
 20
446.3566620443652
 30
0.0
 11
83.83586193890895
 21
446.3458847711971
 31
0.0
  0
LINE
  5
D6
  8
0
  6
CONTINUOUS
 62
     7
 10
83.83586193890895
 20
446.3458847711971
 30
0.0
 11
83.8388998950083
 21
446.3349742871996
 31
0.0
  0
LINE
  5
D7
  8
0
  6
CONTINUOUS
 62
     7
 10
83.8388998950083
 20
446.3349742871996
 30
0.0
 11
83.84152642745356
 21
446.3235764953474
 31
0.0
  0
LINE
  5
D8
  8
0
  6
CONTINUOUS
 62
     7
 10
83.84152642745356
 20
446.3235764953474
 30
0.0
 11
83.84362856123309
 21
446.3120576965646
 31
0.0
  0
LINE
  5
D9
  8
0
  6
CONTINUOUS
 62
     7
 10
83.84362856123309
 20
446.3120576965646
 30
0.0
 11
83.84519597636903
 21
446.3004544218883
 31
0.0
  0
LINE
  5
DA
  8
0
  6
CONTINUOUS
 62
     7
 10
83.84519597636903
 20
446.3004544218883
 30
0.0
 11
83.84621835288353
 21
446.2888032023559
 31
0.0
  0
LINE
  5
DB
  8
0
  6
CONTINUOUS
 62
     7
 10
83.84621835288353
 20
446.2888032023559
 30
0.0
 11
83.84666899650237
 21
446.2781533730291
 31
0.0
  0
LINE
  5
DC
  8
0
  6
CONTINUOUS
 62
     7
 10
83.84666899650237
 20
446.2781533730291
 30
0.0
 11
83.8466587589865
 21
446.2674839385173
 31
0.0
  0
LINE
  5
DD
  8
0
  6
CONTINUOUS
 62
     7
 10
83.8466587589865
 20
446.2674839385173
 30
0.0
 11
83.84618528716558
 21
446.2568252533866
 31
0.0
  0
LINE
  5
DE
  8
0
  6
CONTINUOUS
 62
     7
 10
83.84618528716558
 20
446.2568252533866
 30
0.0
 11
83.84524622786941
 21
446.246207672203
 31
0.0
  0
LINE
  5
DF
  8
0
  6
CONTINUOUS
 62
     7
 10
83.84524622786941
 20
446.246207672203
 30
0.0
 11
83.8437839330196
 21
446.2352979723282
 31
0.0
  0
LINE
  5
E0
  8
0
  6
CONTINUOUS
 62
     7
 10
83.8437839330196
 20
446.2352979723282
 30
0.0
 11
83.84182173819495
 21
446.2244551817456
 31
0.0
  0
LINE
  5
E1
  8
0
  6
CONTINUOUS
 62
     7
 10
83.84182173819495
 20
446.2244551817456
 30
0.0
 11
83.83936423641097
 21
446.2137140271908
 31
0.0
  0
LINE
  5
E2
  8
0
  6
CONTINUOUS
 62
     7
 10
83.83936423641097
 20
446.2137140271908
 30
0.0
 11
83.83641602068325
 21
446.2031092353997
 31
0.0
  0
LINE
  5
E3
  8
0
  6
CONTINUOUS
 62
     7
 10
83.83641602068325
 20
446.2031092353997
 30
0.0
 11
83.83304881084793
 21
446.1928610322393
 31
0.0
  0
LINE
  5
E4
  8
0
  6
CONTINUOUS
 62
     7
 10
83.83304881084793
 20
446.1928610322393
 30
0.0
 11
83.82921053282877
 21
446.1827615916183
 31
0.0
  0
LINE
  5
E5
  8
0
  6
CONTINUOUS
 62
     7
 10
83.82921053282877
 20
446.1827615916183
 30
0.0
 11
83.8249138327212
 21
446.1728423891432
 31
0.0
  0
LINE
  5
E6
  8
0
  6
CONTINUOUS
 62
     7
 10
83.8249138327212
 20
446.1728423891432
 30
0.0
 11
83.82017135662058
 21
446.1631349004201
 31
0.0
  0
LINE
  5
E7
  8
0
  6
CONTINUOUS
 62
     7
 10
83.82017135662058
 20
446.1631349004201
 30
0.0
 11
83.81499575062051
 21
446.1536706010559
 31
0.0
  0
LINE
  5
E8
  8
0
  6
CONTINUOUS
 62
     7
 10
83.38198304872829
 20
446.4036706010559
 30
0.0
 11
83.3871257241795
 21
446.4121569942427
 31
0.0
  0
LINE
  5
E9
  8
0
  6
CONTINUOUS
 62
     7
 10
83.3871257241795
 20
446.4121569942427
 30
0.0
 11
83.39262693909411
 21
446.4204261121368
 31
0.0
  0
LINE
  5
EA
  8
0
  6
CONTINUOUS
 62
     7
 10
83.39262693909411
 20
446.4204261121368
 30
0.0
 11
83.39847114273225
 21
446.4284565402216
 31
0.0
  0
LINE
  5
EB
  8
0
  6
CONTINUOUS
 62
     7
 10
83.39847114273225
 20
446.4284565402216
 30
0.0
 11
83.404642784354
 21
446.4362268639805
 31
0.0
  0
LINE
  5
EC
  8
0
  6
CONTINUOUS
 62
     7
 10
83.404642784354
 20
446.4362268639805
 30
0.0
 11
83.41133489223418
 21
446.4439487992784
 31
0.0
  0
LINE
  5
ED
  8
0
  6
CONTINUOUS
 62
     7
 10
83.41133489223418
 20
446.4439487992784
 30
0.0
 11
83.41836040243376
 21
446.4513817515535
 31
0.0
  0
LINE
  5
EE
  8
0
  6
CONTINUOUS
 62
     7
 10
83.41836040243376
 20
446.4513817515535
 30
0.0
 11
83.42569826727916
 21
446.4585067036047
 31
0.0
  0
LINE
  5
EF
  8
0
  6
CONTINUOUS
 62
     7
 10
83.42569826727916
 20
446.4585067036047
 30
0.0
 11
83.4333274390968
 21
446.465304638231
 31
0.0
  0
LINE
  5
F0
  8
0
  6
CONTINUOUS
 62
     7
 10
83.4333274390968
 20
446.465304638231
 30
0.0
 11
83.44100621723742
 21
446.4715861672286
 31
0.0
  0
LINE
  5
F1
  8
0
  6
CONTINUOUS
 62
     7
 10
83.44100621723742
 20
446.4715861672286
 30
0.0
 11
83.44894387609614
 21
446.4775511513791
 31
0.0
  0
LINE
  5
F2
  8
0
  6
CONTINUOUS
 62
     7
 10
83.44894387609614
 20
446.4775511513791
 30
0.0
 11
83.45711885368942
 21
446.4831867987068
 31
0.0
  0
LINE
  5
F3
  8
0
  6
CONTINUOUS
 62
     7
 10
83.45711885368942
 20
446.4831867987068
 30
0.0
 11
83.4655095880337
 21
446.4884803172355
 31
0.0
  0
LINE
  5
F4
  8
0
  6
CONTINUOUS
 62
     7
 10
83.4655095880337
 20
446.4884803172355
 30
0.0
 11
83.47434929153712
 21
446.4935602612425
 31
0.0
  0
LINE
  5
F5
  8
0
  6
CONTINUOUS
 62
     7
 10
83.47434929153712
 20
446.4935602612425
 30
0.0
 11
83.48339913410537
 21
446.4982744028255
 31
0.0
  0
LINE
  5
F6
  8
0
  6
CONTINUOUS
 62
     7
 10
83.48339913410537
 20
446.4982744028255
 30
0.0
 11
83.49263473327264
 21
446.5026138607504
 31
0.0
  0
LINE
  5
F7
  8
0
  6
CONTINUOUS
 62
     7
 10
83.49263473327264
 20
446.5026138607504
 30
0.0
 11
83.50203170657313
 21
446.506569753783
 31
0.0
  0
LINE
  5
F8
  8
0
  6
CONTINUOUS
 62
     7
 10
83.50203170657313
 20
446.506569753783
 30
0.0
 11
83.5115686242008
 21
446.5101358819914
 31
0.0
  0
LINE
  5
F9
  8
0
  6
CONTINUOUS
 62
     7
 10
83.5115686242008
 20
446.5101358819914
 30
0.0
 11
83.52124875015915
 21
446.5133188299868
 31
0.0
  0
LINE
  5
FA
  8
0
  6
CONTINUOUS
 62
     7
 10
83.52124875015915
 20
446.5133188299868
 30
0.0
 11
83.53104802136082
 21
446.51611430821
 31
0.0
  0
LINE
  5
FB
  8
0
  6
CONTINUOUS
 62
     7
 10
83.53104802136082
 20
446.51611430821
 30
0.0
 11
83.5409423747184
 21
446.5185180271016
 31
0.0
  0
LINE
  5
FC
  8
0
  6
CONTINUOUS
 62
     7
 10
83.5409423747184
 20
446.5185180271016
 30
0.0
 11
83.55118444917795
 21
446.5205770612349
 31
0.0
  0
LINE
  5
FD
  8
0
  6
CONTINUOUS
 62
     7
 10
83.55118444917795
 20
446.5205770612349
 30
0.0
 11
83.56150887533036
 21
446.5222261083123
 31
0.0
  0
LINE
  5
FE
  8
0
  6
CONTINUOUS
 62
     7
 10
83.56150887533036
 20
446.5222261083123
 30
0.0
 11
83.57189076103745
 21
446.5234647113271
 31
0.0
  0
LINE
  5
FF
  8
0
  6
CONTINUOUS
 62
     7
 10
83.57189076103745
 20
446.5234647113271
 30
0.0
 11
83.58230521416107
 21
446.524292413273
 31
0.0
  0
LINE
  5
100
  8
0
  6
CONTINUOUS
 62
     7
 10
83.58230521416107
 20
446.524292413273
 30
0.0
 11
83.59306074229913
 21
446.5247166827003
 31
0.0
  0
LINE
  5
101
  8
0
  6
CONTINUOUS
 62
     7
 10
83.59306074229913
 20
446.5247166827003
 30
0.0
 11
83.6038332177601
 21
446.524709734026
 31
0.0
  0
LINE
  5
102
  8
0
  6
CONTINUOUS
 62
     7
 10
83.6038332177601
 20
446.524709734026
 30
0.0
 11
83.61459711378407
 21
446.524274832677
 31
0.0
  0
LINE
  5
103
  8
0
  6
CONTINUOUS
 62
     7
 10
83.61459711378407
 20
446.524274832677
 30
0.0
 11
83.62532690361122
 21
446.5234152440802
 31
0.0
  0
LINE
  5
104
  8
0
  6
CONTINUOUS
 62
     7
 10
83.62532690361122
 20
446.5234152440802
 30
0.0
 11
83.63629233614411
 21
446.5220940599697
 31
0.0
  0
LINE
  5
105
  8
0
  6
CONTINUOUS
 62
     7
 10
83.63629233614411
 20
446.5220940599697
 30
0.0
 11
83.64720467749407
 21
446.5203326284519
 31
0.0
  0
LINE
  5
106
  8
0
  6
CONTINUOUS
 62
     7
 10
83.64720467749407
 20
446.5203326284519
 30
0.0
 11
83.65803833202102
 21
446.5181378010389
 31
0.0
  0
LINE
  5
107
  8
0
  6
CONTINUOUS
 62
     7
 10
83.65803833202102
 20
446.5181378010389
 30
0.0
 11
83.66876770408484
 21
446.5155164292432
 31
0.0
  0
LINE
  5
108
  8
0
  6
CONTINUOUS
 62
     7
 10
83.66876770408484
 20
446.5155164292432
 30
0.0
 11
83.68276697821501
 21
446.5114039244467
 31
0.0
  0
LINE
  5
109
  8
0
  6
CONTINUOUS
 62
     7
 10
83.68276697821501
 20
446.5114039244467
 30
0.0
 11
83.696552018215
 21
446.5065623085845
 31
0.0
  0
LINE
  5
10A
  8
0
  6
CONTINUOUS
 62
     7
 10
83.696552018215
 20
446.5065623085845
 30
0.0
 11
83.71006868163752
 21
446.5010147744772
 31
0.0
  0
LINE
  5
10B
  8
0
  6
CONTINUOUS
 62
     7
 10
83.71006868163752
 20
446.5010147744772
 30
0.0
 11
83.72326282603532
 21
446.4947845149453
 31
0.0
  0
LINE
  5
10C
  8
0
  6
CONTINUOUS
 62
     7
 10
76.22373164997012
 20
446.4947845149464
 30
0.0
 11
76.2347865573416
 21
446.5000606868672
 31
0.0
  0
LINE
  5
10D
  8
0
  6
CONTINUOUS
 62
     7
 10
76.2347865573416
 20
446.5000606868672
 30
0.0
 11
76.24607631419039
 21
446.5048585297234
 31
0.0
  0
LINE
  5
10E
  8
0
  6
CONTINUOUS
 62
     7
 10
76.24607631419039
 20
446.5048585297234
 30
0.0
 11
76.25756879047665
 21
446.5091644299645
 31
0.0
  0
LINE
  5
10F
  8
0
  6
CONTINUOUS
 62
     7
 10
76.25756879047665
 20
446.5091644299645
 30
0.0
 11
76.26923185616057
 21
446.5129647740397
 31
0.0
  0
LINE
  5
110
  8
0
  6
CONTINUOUS
 62
     7
 10
76.26923185616057
 20
446.5129647740397
 30
0.0
 11
76.28103338120233
 21
446.5162459483983
 31
0.0
  0
LINE
  5
111
  8
0
  6
CONTINUOUS
 62
     7
 10
76.28103338120233
 20
446.5162459483983
 30
0.0
 11
76.29244123647511
 21
446.5188929410509
 31
0.0
  0
LINE
  5
112
  8
0
  6
CONTINUOUS
 62
     7
 10
76.29244123647511
 20
446.5188929410509
 30
0.0
 11
76.30396093179804
 21
446.5210583309704
 31
0.0
  0
LINE
  5
113
  8
0
  6
CONTINUOUS
 62
     7
 10
76.30396093179804
 20
446.5210583309704
 30
0.0
 11
76.31556173047849
 21
446.522734301341
 31
0.0
  0
LINE
  5
114
  8
0
  6
CONTINUOUS
 62
     7
 10
76.31556173047849
 20
446.522734301341
 30
0.0
 11
76.3272128958238
 21
446.5239130353465
 31
0.0
  0
LINE
  5
115
  8
0
  6
CONTINUOUS
 62
     7
 10
76.3272128958238
 20
446.5239130353465
 30
0.0
 11
76.33926639357912
 21
446.5246017196084
 31
0.0
  0
LINE
  5
116
  8
0
  6
CONTINUOUS
 62
     7
 10
76.33926639357912
 20
446.5246017196084
 30
0.0
 11
76.35135073081746
 21
446.5247530926811
 31
0.0
  0
LINE
  5
117
  8
0
  6
CONTINUOUS
 62
     7
 10
76.35135073081746
 20
446.5247530926811
 30
0.0
 11
76.3634294015813
 21
446.5243634845284
 31
0.0
  0
LINE
  5
118
  8
0
  6
CONTINUOUS
 62
     7
 10
76.3634294015813
 20
446.5243634845284
 30
0.0
 11
76.37546589991318
 21
446.5234292251139
 31
0.0
  0
LINE
  5
119
  8
0
  6
CONTINUOUS
 62
     7
 10
76.37546589991318
 20
446.5234292251139
 30
0.0
 11
76.38670794505845
 21
446.5220530203565
 31
0.0
  0
LINE
  5
11A
  8
0
  6
CONTINUOUS
 62
     7
 10
76.38670794505845
 20
446.5220530203565
 30
0.0
 11
76.39789077454854
 21
446.5201920261577
 31
0.0
  0
LINE
  5
11B
  8
0
  6
CONTINUOUS
 62
     7
 10
76.39789077454854
 20
446.5201920261577
 30
0.0
 11
76.4089821671099
 21
446.5178483352644
 31
0.0
  0
LINE
  5
11C
  8
0
  6
CONTINUOUS
 62
     7
 10
76.4089821671099
 20
446.5178483352644
 30
0.0
 11
76.41994990146898
 21
446.5150240404233
 31
0.0
  0
LINE
  5
11D
  8
0
  6
CONTINUOUS
 62
     7
 10
76.41994990146898
 20
446.5150240404233
 30
0.0
 11
76.43113394498268
 21
446.5115997883186
 31
0.0
  0
LINE
  5
11E
  8
0
  6
CONTINUOUS
 62
     7
 10
76.43113394498268
 20
446.5115997883186
 30
0.0
 11
76.44216058423946
 21
446.5076608901824
 31
0.0
  0
LINE
  5
11F
  8
0
  6
CONTINUOUS
 62
     7
 10
76.44216058423946
 20
446.5076608901824
 30
0.0
 11
76.45299302244412
 21
446.5032166741703
 31
0.0
  0
LINE
  5
120
  8
0
  6
CONTINUOUS
 62
     7
 10
76.45299302244412
 20
446.5032166741703
 30
0.0
 11
76.4635944628015
 21
446.4982764684379
 31
0.0
  0
LINE
  5
121
  8
0
  6
CONTINUOUS
 62
     7
 10
76.4635944628015
 20
446.4982764684379
 30
0.0
 11
76.47304280735395
 21
446.4933418225964
 31
0.0
  0
LINE
  5
122
  8
0
  6
CONTINUOUS
 62
     7
 10
76.47304280735395
 20
446.4933418225964
 30
0.0
 11
76.48227768992723
 21
446.4879982393917
 31
0.0
  0
LINE
  5
123
  8
0
  6
CONTINUOUS
 62
     7
 10
76.48227768992723
 20
446.4879982393917
 30
0.0
 11
76.4912716461109
 21
446.4822588582015
 31
0.0
  0
LINE
  5
124
  8
0
  6
CONTINUOUS
 62
     7
 10
76.4912716461109
 20
446.4822588582015
 30
0.0
 11
76.49999721149459
 21
446.4761368184035
 31
0.0
  0
LINE
  5
125
  8
0
  6
CONTINUOUS
 62
     7
 10
76.49999721149459
 20
446.4761368184035
 30
0.0
 11
76.50871414130884
 21
446.4694155839784
 31
0.0
  0
LINE
  5
126
  8
0
  6
CONTINUOUS
 62
     7
 10
76.50871414130884
 20
446.4694155839784
 30
0.0
 11
76.51712317598901
 21
446.4622948781218
 31
0.0
  0
LINE
  5
127
  8
0
  6
CONTINUOUS
 62
     7
 10
76.51712317598901
 20
446.4622948781218
 30
0.0
 11
76.52519653780747
 21
446.4547960418696
 31
0.0
  0
LINE
  5
128
  8
0
  6
CONTINUOUS
 62
     7
 10
76.52519653780747
 20
446.4547960418696
 30
0.0
 11
76.53290644903655
 21
446.446940416258
 31
0.0
  0
LINE
  5
129
  8
0
  6
CONTINUOUS
 62
     7
 10
76.53290644903655
 20
446.446940416258
 30
0.0
 11
76.54009804839893
 21
446.4389002254205
 31
0.0
  0
LINE
  5
12A
  8
0
  6
CONTINUOUS
 62
     7
 10
76.54009804839893
 20
446.4389002254205
 30
0.0
 11
76.54692528153109
 21
446.4305264588388
 31
0.0
  0
LINE
  5
12B
  8
0
  6
CONTINUOUS
 62
     7
 10
76.54692528153109
 20
446.4305264588388
 30
0.0
 11
76.55336721280605
 21
446.4218458061555
 31
0.0
  0
LINE
  5
12C
  8
0
  6
CONTINUOUS
 62
     7
 10
76.55336721280605
 20
446.4218458061555
 30
0.0
 11
76.5594029065969
 21
446.412884957014
 31
0.0
  0
LINE
  5
12D
  8
0
  6
CONTINUOUS
 62
     7
 10
76.5594029065969
 20
446.412884957014
 30
0.0
 11
76.56501142727534
 21
446.4036706010559
 31
0.0
  0
LINE
  5
12E
  8
0
  6
CONTINUOUS
 62
     7
 10
76.13199872538311
 20
446.1536706010559
 30
0.0
 11
76.12722063102245
 21
446.1623674852334
 31
0.0
  0
LINE
  5
12F
  8
0
  6
CONTINUOUS
 62
     7
 10
76.12722063102245
 20
446.1623674852334
 30
0.0
 11
76.12280997231656
 21
446.1712662360482
 31
0.0
  0
LINE
  5
130
  8
0
  6
CONTINUOUS
 62
     7
 10
76.12280997231656
 20
446.1712662360482
 30
0.0
 11
76.1187775194109
 21
446.1803426789061
 31
0.0
  0
LINE
  5
131
  8
0
  6
CONTINUOUS
 62
     7
 10
76.1187775194109
 20
446.1803426789061
 30
0.0
 11
76.11513404245096
 21
446.1895726392131
 31
0.0
  0
LINE
  5
132
  8
0
  6
CONTINUOUS
 62
     7
 10
76.11513404245096
 20
446.1895726392131
 30
0.0
 11
76.11179270425674
 21
446.1992291422911
 31
0.0
  0
LINE
  5
133
  8
0
  6
CONTINUOUS
 62
     7
 10
76.11179270425674
 20
446.1992291422911
 30
0.0
 11
76.10886833386114
 21
446.209029888736
 31
0.0
  0
LINE
  5
134
  8
0
  6
CONTINUOUS
 62
     7
 10
76.10886833386114
 20
446.209029888736
 30
0.0
 11
76.1063668768067
 21
446.2189471421273
 31
0.0
  0
LINE
  5
135
  8
0
  6
CONTINUOUS
 62
     7
 10
76.1063668768067
 20
446.2189471421273
 30
0.0
 11
76.1042942786359
 21
446.2289531660444
 31
0.0
  0
LINE
  5
136
  8
0
  6
CONTINUOUS
 62
     7
 10
76.1042942786359
 20
446.2289531660444
 30
0.0
 11
76.10269370401963
 21
446.238743947483
 31
0.0
  0
LINE
  5
137
  8
0
  6
CONTINUOUS
 62
     7
 10
76.10269370401963
 20
446.238743947483
 30
0.0
 11
76.10149670564147
 21
446.2486006537765
 31
0.0
  0
LINE
  5
138
  8
0
  6
CONTINUOUS
 62
     7
 10
76.10149670564147
 20
446.2486006537765
 30
0.0
 11
76.10070358068567
 21
446.2584982157114
 31
0.0
  0
LINE
  5
139
  8
0
  6
CONTINUOUS
 62
     7
 10
76.10070358068567
 20
446.2584982157114
 30
0.0
 11
76.10031462633647
 21
446.2684115640744
 31
0.0
  0
LINE
  5
13A
  8
0
  6
CONTINUOUS
 62
     7
 10
76.10031462633647
 20
446.2684115640744
 30
0.0
 11
76.10033511752836
 21
446.2786069438737
 31
0.0
  0
LINE
  5
13B
  8
0
  6
CONTINUOUS
 62
     7
 10
76.10033511752836
 20
446.2786069438737
 30
0.0
 11
76.10077747244453
 21
446.2888014082296
 31
0.0
  0
LINE
  5
13C
  8
0
  6
CONTINUOUS
 62
     7
 10
76.10077747244453
 20
446.2888014082296
 30
0.0
 11
76.10163719122653
 21
446.2989694006901
 31
0.0
  0
LINE
  5
13D
  8
0
  6
CONTINUOUS
 62
     7
 10
76.10163719122653
 20
446.2989694006901
 30
0.0
 11
76.10290977401593
 21
446.3090853648033
 31
0.0
  0
LINE
  5
13E
  8
0
  6
CONTINUOUS
 62
     7
 10
76.10290977401593
 20
446.3090853648033
 30
0.0
 11
76.10458987520815
 21
446.3191276418468
 31
0.0
  0
LINE
  5
13F
  8
0
  6
CONTINUOUS
 62
     7
 10
76.10458987520815
 20
446.3191276418468
 30
0.0
 11
76.10667342436436
 21
446.3291023508363
 31
0.0
  0
LINE
  5
140
  8
0
  6
CONTINUOUS
 62
     7
 10
76.10667342436436
 20
446.3291023508363
 30
0.0
 11
76.10915210480819
 21
446.3389865077471
 31
0.0
  0
LINE
  5
141
  8
0
  6
CONTINUOUS
 62
     7
 10
76.10915210480819
 20
446.3389865077471
 30
0.0
 11
76.1120175998633
 21
446.3487571285547
 31
0.0
  0
LINE
  5
142
  8
0
  6
CONTINUOUS
 62
     7
 10
76.1120175998633
 20
446.3487571285547
 30
0.0
 11
76.11535546122633
 21
446.3586565422907
 31
0.0
  0
LINE
  5
143
  8
0
  6
CONTINUOUS
 62
     7
 10
76.11535546122633
 20
446.3586565422907
 30
0.0
 11
76.11908955764152
 21
446.3684222811569
 31
0.0
  0
LINE
  5
144
  8
0
  6
CONTINUOUS
 62
     7
 10
76.11908955764152
 20
446.3684222811569
 30
0.0
 11
76.12320783881901
 21
446.3780325594258
 31
0.0
  0
LINE
  5
145
  8
0
  6
CONTINUOUS
 62
     7
 10
76.12320783881901
 20
446.3780325594258
 30
0.0
 11
76.127698254469
 21
446.3874655913702
 31
0.0
  0
LINE
  5
146
  8
0
  6
CONTINUOUS
 62
     7
 10
76.127698254469
 20
446.3874655913702
 30
0.0
 11
76.13270859043593
 21
446.3969922866826
 31
0.0
  0
LINE
  5
147
  8
0
  6
CONTINUOUS
 62
     7
 10
76.13270859043593
 20
446.3969922866826
 30
0.0
 11
76.13810084589483
 21
446.4063180497564
 31
0.0
  0
LINE
  5
148
  8
0
  6
CONTINUOUS
 62
     7
 10
76.13810084589483
 20
446.4063180497564
 30
0.0
 11
76.14385942952315
 21
446.4154224064823
 31
0.0
  0
LINE
  5
149
  8
0
  6
CONTINUOUS
 62
     7
 10
76.14385942952315
 20
446.4154224064823
 30
0.0
 11
76.14996874999835
 21
446.4242848827515
 31
0.0
  0
LINE
  5
14A
  8
0
  6
CONTINUOUS
 62
     7
 10
76.14996874999835
 20
446.4242848827515
 30
0.0
 11
76.1565956452676
 21
446.4331206338332
 31
0.0
  0
LINE
  5
14B
  8
0
  6
CONTINUOUS
 62
     7
 10
76.1565956452676
 20
446.4331206338332
 30
0.0
 11
76.16357726038407
 21
446.4416902828981
 31
0.0
  0
LINE
  5
14C
  8
0
  6
CONTINUOUS
 62
     7
 10
76.16357726038407
 20
446.4416902828981
 30
0.0
 11
76.17089486394406
 21
446.4499750892278
 31
0.0
  0
LINE
  5
14D
  8
0
  6
CONTINUOUS
 62
     7
 10
76.17089486394406
 20
446.4499750892278
 30
0.0
 11
76.17852972454386
 21
446.4579563121038
 31
0.0
  0
LINE
  5
14E
  8
0
  6
CONTINUOUS
 62
     7
 10
76.17852972454386
 20
446.4579563121038
 30
0.0
 11
76.18909089523588
 21
446.4680237867369
 31
0.0
  0
LINE
  5
14F
  8
0
  6
CONTINUOUS
 62
     7
 10
76.18909089523588
 20
446.4680237867369
 30
0.0
 11
76.20017637756786
 21
446.477541173638
 31
0.0
  0
LINE
  5
150
  8
0
  6
CONTINUOUS
 62
     7
 10
76.20017637756786
 20
446.477541173638
 30
0.0
 11
76.21173901474441
 21
446.4864731804826
 31
0.0
  0
LINE
  5
151
  8
0
  6
CONTINUOUS
 62
     7
 10
76.21173901474441
 20
446.4864731804826
 30
0.0
 11
76.22373164997012
 21
446.4947845149464
 31
0.0
  0
LINE
  5
152
  8
0
  6
CONTINUOUS
 62
     7
 10
72.47396606193661
 20
440.000000000001
 30
0.0
 11
72.47492421670418
 21
440.0122119165816
 31
0.0
  0
LINE
  5
153
  8
0
  6
CONTINUOUS
 62
     7
 10
72.47492421670418
 20
440.0122119165816
 30
0.0
 11
72.4764140413317
 21
440.0243880542434
 31
0.0
  0
LINE
  5
154
  8
0
  6
CONTINUOUS
 62
     7
 10
72.4764140413317
 20
440.0243880542434
 30
0.0
 11
72.47843126047992
 21
440.0364937807802
 31
0.0
  0
LINE
  5
155
  8
0
  6
CONTINUOUS
 62
     7
 10
72.47843126047992
 20
440.0364937807802
 30
0.0
 11
72.48097159880967
 21
440.0484944639861
 31
0.0
  0
LINE
  5
156
  8
0
  6
CONTINUOUS
 62
     7
 10
72.48097159880967
 20
440.0484944639861
 30
0.0
 11
72.48403078098171
 21
440.0603554716549
 31
0.0
  0
LINE
  5
157
  8
0
  6
CONTINUOUS
 62
     7
 10
72.48403078098171
 20
440.0603554716549
 30
0.0
 11
72.48744234573736
 21
440.0715584604501
 31
0.0
  0
LINE
  5
158
  8
0
  6
CONTINUOUS
 62
     7
 10
72.48744234573736
 20
440.0715584604501
 30
0.0
 11
72.49132691071935
 21
440.0826175042035
 31
0.0
  0
LINE
  5
159
  8
0
  6
CONTINUOUS
 62
     7
 10
72.49132691071935
 20
440.0826175042035
 30
0.0
 11
72.49567587714269
 21
440.0935020757502
 31
0.0
  0
LINE
  5
15A
  8
0
  6
CONTINUOUS
 62
     7
 10
72.49567587714269
 20
440.0935020757502
 30
0.0
 11
72.50048064622231
 21
440.1041816479257
 31
0.0
  0
LINE
  5
15B
  8
0
  6
CONTINUOUS
 62
     7
 10
72.50048064622231
 20
440.1041816479257
 30
0.0
 11
72.50591097703396
 21
440.1149646253172
 31
0.0
  0
LINE
  5
15C
  8
0
  6
CONTINUOUS
 62
     7
 10
72.50591097703396
 20
440.1149646253172
 30
0.0
 11
72.51182205272671
 21
440.1255056548898
 31
0.0
  0
LINE
  5
15D
  8
0
  6
CONTINUOUS
 62
     7
 10
72.51182205272671
 20
440.1255056548898
 30
0.0
 11
72.51819879866645
 21
440.1357712865389
 31
0.0
  0
LINE
  5
15E
  8
0
  6
CONTINUOUS
 62
     7
 10
72.51819879866645
 20
440.1357712865389
 30
0.0
 11
72.52502614021904
 21
440.1457280701596
 31
0.0
  0
LINE
  5
15F
  8
0
  6
CONTINUOUS
 62
     7
 10
72.52502614021904
 20
440.1457280701596
 30
0.0
 11
72.53183899107242
 21
440.1547758644672
 31
0.0
  0
LINE
  5
160
  8
0
  6
CONTINUOUS
 62
     7
 10
72.53183899107242
 20
440.1547758644672
 30
0.0
 11
72.53904207406987
 21
440.1635299817925
 31
0.0
  0
LINE
  5
161
  8
0
  6
CONTINUOUS
 62
     7
 10
72.53904207406987
 20
440.1635299817925
 30
0.0
 11
72.54661746620278
 21
440.1719635640673
 31
0.0
  0
LINE
  5
162
  8
0
  6
CONTINUOUS
 62
     7
 10
72.54661746620278
 20
440.1719635640673
 30
0.0
 11
72.55454724446251
 21
440.1800497532237
 31
0.0
  0
LINE
  5
163
  8
0
  6
CONTINUOUS
 62
     7
 10
72.55454724446251
 20
440.1800497532237
 30
0.0
 11
72.56310475553093
 21
440.1880232929713
 31
0.0
  0
LINE
  5
164
  8
0
  6
CONTINUOUS
 62
     7
 10
72.56310475553093
 20
440.1880232929713
 30
0.0
 11
72.57202926100818
 21
440.1956031936179
 31
0.0
  0
LINE
  5
165
  8
0
  6
CONTINUOUS
 62
     7
 10
72.57202926100818
 20
440.1956031936179
 30
0.0
 11
72.58129428407692
 21
440.202762252282
 31
0.0
  0
LINE
  5
166
  8
0
  6
CONTINUOUS
 62
     7
 10
72.58129428407692
 20
440.202762252282
 30
0.0
 11
72.59087334791978
 21
440.209473266082
 31
0.0
  0
LINE
  5
167
  8
0
  6
CONTINUOUS
 62
     7
 10
72.59087334791978
 20
440.209473266082
 30
0.0
 11
72.59987104885339
 21
440.2151884495674
 31
0.0
  0
LINE
  5
168
  8
0
  6
CONTINUOUS
 62
     7
 10
72.59987104885339
 20
440.2151884495674
 30
0.0
 11
72.60911616894255
 21
440.2205143008744
 31
0.0
  0
LINE
  5
169
  8
0
  6
CONTINUOUS
 62
     7
 10
72.60911616894255
 20
440.2205143008744
 30
0.0
 11
72.61858359694715
 21
440.2254336048149
 31
0.0
  0
LINE
  5
16A
  8
0
  6
CONTINUOUS
 62
     7
 10
72.61858359694715
 20
440.2254336048149
 30
0.0
 11
72.62824822162699
 21
440.2299291462006
 31
0.0
  0
LINE
  5
16B
  8
0
  6
CONTINUOUS
 62
     7
 10
72.62824822162699
 20
440.2299291462006
 30
0.0
 11
72.63842744629106
 21
440.2341176116502
 31
0.0
  0
LINE
  5
16C
  8
0
  6
CONTINUOUS
 62
     7
 10
72.63842744629106
 20
440.2341176116502
 30
0.0
 11
72.6487986757959
 21
440.2378396963762
 31
0.0
  0
LINE
  5
16D
  8
0
  6
CONTINUOUS
 62
     7
 10
72.6487986757959
 20
440.2378396963762
 30
0.0
 11
72.65932953939833
 21
440.2410820146788
 31
0.0
  0
LINE
  5
16E
  8
0
  6
CONTINUOUS
 62
     7
 10
72.65932953939833
 20
440.2410820146788
 30
0.0
 11
72.66998766635511
 21
440.2438311808584
 31
0.0
  0
LINE
  5
16F
  8
0
  6
CONTINUOUS
 62
     7
 10
72.66998766635511
 20
440.2438311808584
 30
0.0
 11
72.68054647555283
 21
440.2460391931813
 31
0.0
  0
LINE
  5
170
  8
0
  6
CONTINUOUS
 62
     7
 10
72.68054647555283
 20
440.2460391931813
 30
0.0
 11
72.69121198670413
 21
440.2477648672204
 31
0.0
  0
LINE
  5
171
  8
0
  6
CONTINUOUS
 62
     7
 10
72.69121198670413
 20
440.2477648672204
 30
0.0
 11
72.70195061808668
 21
440.2490034170123
 31
0.0
  0
LINE
  5
172
  8
0
  6
CONTINUOUS
 62
     7
 10
72.70195061808668
 20
440.2490034170123
 30
0.0
 11
72.71272878797815
 21
440.2497500565939
 31
0.0
  0
LINE
  5
173
  8
0
  6
CONTINUOUS
 62
     7
 10
72.71272878797815
 20
440.2497500565939
 30
0.0
 11
72.72351291465664
 21
440.2499999999999
 31
0.0
  0
LINE
  5
174
  8
0
  6
CONTINUOUS
 62
     7
 10
72.72351291465664
 20
439.7499999999999
 30
0.0
 11
72.71359214484477
 21
439.7502104909908
 31
0.0
  0
LINE
  5
175
  8
0
  6
CONTINUOUS
 62
     7
 10
72.71359214484477
 20
439.7502104909908
 30
0.0
 11
72.70368027122426
 21
439.7508401239114
 31
0.0
  0
LINE
  5
176
  8
0
  6
CONTINUOUS
 62
     7
 10
72.70368027122426
 20
439.7508401239114
 30
0.0
 11
72.69380361468048
 21
439.7518861386845
 31
0.0
  0
LINE
  5
177
  8
0
  6
CONTINUOUS
 62
     7
 10
72.69380361468048
 20
439.7518861386845
 30
0.0
 11
72.68398849609878
 21
439.7533457752326
 31
0.0
  0
LINE
  5
178
  8
0
  6
CONTINUOUS
 62
     7
 10
72.68398849609878
 20
439.7533457752326
 30
0.0
 11
72.67395505002439
 21
439.7552803430128
 31
0.0
  0
LINE
  5
179
  8
0
  6
CONTINUOUS
 62
     7
 10
72.67395505002439
 20
439.7552803430128
 30
0.0
 11
72.6640051694292
 21
439.7576481371826
 31
0.0
  0
LINE
  5
17A
  8
0
  6
CONTINUOUS
 62
     7
 10
72.6640051694292
 20
439.7576481371826
 30
0.0
 11
72.65416584752936
 21
439.7604404385226
 31
0.0
  0
LINE
  5
17B
  8
0
  6
CONTINUOUS
 62
     7
 10
72.65416584752936
 20
439.7604404385226
 30
0.0
 11
72.64446407754092
 21
439.7636485278134
 31
0.0
  0
LINE
  5
17C
  8
0
  6
CONTINUOUS
 62
     7
 10
72.64446407754092
 20
439.7636485278134
 30
0.0
 11
72.63518472478404
 21
439.7671577802543
 31
0.0
  0
LINE
  5
17D
  8
0
  6
CONTINUOUS
 62
     7
 10
72.63518472478404
 20
439.7671577802543
 30
0.0
 11
72.62605006754715
 21
439.7710495023973
 31
0.0
  0
LINE
  5
17E
  8
0
  6
CONTINUOUS
 62
     7
 10
72.62605006754715
 20
439.7710495023973
 30
0.0
 11
72.61708196499806
 21
439.7753114170047
 31
0.0
  0
LINE
  5
17F
  8
0
  6
CONTINUOUS
 62
     7
 10
72.61708196499806
 20
439.7753114170047
 30
0.0
 11
72.60830227630458
 21
439.7799312468388
 31
0.0
  0
LINE
  5
180
  8
0
  6
CONTINUOUS
 62
     7
 10
72.60830227630458
 20
439.7799312468388
 30
0.0
 11
72.59948306399306
 21
439.7850466826312
 31
0.0
  0
LINE
  5
181
  8
0
  6
CONTINUOUS
 62
     7
 10
72.59948306399306
 20
439.7850466826312
 30
0.0
 11
72.59087557634099
 21
439.7905270054041
 31
0.0
  0
LINE
  5
182
  8
0
  6
CONTINUOUS
 62
     7
 10
72.59087557634099
 20
439.7905270054041
 30
0.0
 11
72.58249969595572
 21
439.7963555399397
 31
0.0
  0
LINE
  5
183
  8
0
  6
CONTINUOUS
 62
     7
 10
72.58249969595572
 20
439.7963555399397
 30
0.0
 11
72.57437530544462
 21
439.8025156110203
 31
0.0
  0
LINE
  5
184
  8
0
  6
CONTINUOUS
 62
     7
 10
72.57437530544462
 20
439.8025156110203
 30
0.0
 11
72.56651848900916
 21
439.8089917598554
 31
0.0
  0
LINE
  5
185
  8
0
  6
CONTINUOUS
 62
     7
 10
72.56651848900916
 20
439.8089917598554
 30
0.0
 11
72.55892191220703
 21
439.8157835208495
 31
0.0
  0
LINE
  5
186
  8
0
  6
CONTINUOUS
 62
     7
 10
72.55892191220703
 20
439.8157835208495
 30
0.0
 11
72.5516013214492
 21
439.8228721995371
 31
0.0
  0
LINE
  5
187
  8
0
  6
CONTINUOUS
 62
     7
 10
72.5516013214492
 20
439.8228721995371
 30
0.0
 11
72.54457246314671
 21
439.830239101453
 31
0.0
  0
LINE
  5
188
  8
0
  6
CONTINUOUS
 62
     7
 10
72.54457246314671
 20
439.830239101453
 30
0.0
 11
72.53766825005019
 21
439.8380794810557
 31
0.0
  0
LINE
  5
189
  8
0
  6
CONTINUOUS
 62
     7
 10
72.53766825005019
 20
439.8380794810557
 30
0.0
 11
72.53107792031298
 21
439.8461961728446
 31
0.0
  0
LINE
  5
18A
  8
0
  6
CONTINUOUS
 62
     7
 10
72.53107792031298
 20
439.8461961728446
 30
0.0
 11
72.52481431578339
 21
439.8545678480987
 31
0.0
  0
LINE
  5
18B
  8
0
  6
CONTINUOUS
 62
     7
 10
72.52481431578339
 20
439.8545678480987
 30
0.0
 11
72.51889027830975
 21
439.8631731780974
 31
0.0
  0
LINE
  5
18C
  8
0
  6
CONTINUOUS
 62
     7
 10
72.51889027830975
 20
439.8631731780974
 30
0.0
 11
72.5131450861386
 21
439.8722756039824
 31
0.0
  0
LINE
  5
18D
  8
0
  6
CONTINUOUS
 62
     7
 10
72.5131450861386
 20
439.8722756039824
 30
0.0
 11
72.50776486613655
 21
439.8816083157304
 31
0.0
  0
LINE
  5
18E
  8
0
  6
CONTINUOUS
 62
     7
 10
72.50776486613655
 20
439.8816083157304
 30
0.0
 11
72.50275955374089
 21
439.8911475738053
 31
0.0
  0
LINE
  5
18F
  8
0
  6
CONTINUOUS
 62
     7
 10
72.50275955374089
 20
439.8911475738053
 30
0.0
 11
72.49813908438895
 21
439.9008696386712
 31
0.0
  0
LINE
  5
190
  8
0
  6
CONTINUOUS
 62
     7
 10
72.49813908438895
 20
439.9008696386712
 30
0.0
 11
72.49380054712532
 21
439.9110265738635
 31
0.0
  0
LINE
  5
191
  8
0
  6
CONTINUOUS
 62
     7
 10
72.49380054712532
 20
439.9110265738635
 30
0.0
 11
72.48986982089181
 21
439.9213576544462
 31
0.0
  0
LINE
  5
192
  8
0
  6
CONTINUOUS
 62
     7
 10
72.48986982089181
 20
439.9213576544462
 30
0.0
 11
72.48635376992485
 21
439.9318372881888
 31
0.0
  0
LINE
  5
193
  8
0
  6
CONTINUOUS
 62
     7
 10
72.48635376992485
 20
439.9318372881888
 30
0.0
 11
72.48325925846083
 21
439.9424398828607
 31
0.0
  0
LINE
  5
194
  8
0
  6
CONTINUOUS
 62
     7
 10
72.48325925846083
 20
439.9424398828607
 30
0.0
 11
72.47982115502269
 21
439.9566198622902
 31
0.0
  0
LINE
  5
195
  8
0
  6
CONTINUOUS
 62
     7
 10
72.47982115502269
 20
439.9566198622902
 30
0.0
 11
72.47712159735468
 21
439.9709788650534
 31
0.0
  0
LINE
  5
196
  8
0
  6
CONTINUOUS
 62
     7
 10
72.47712159735468
 20
439.9709788650534
 30
0.0
 11
72.4751675711087
 21
439.9854584060054
 31
0.0
  0
LINE
  5
197
  8
0
  6
CONTINUOUS
 62
     7
 10
72.4751675711087
 20
439.9854584060054
 30
0.0
 11
72.47396606193661
 21
440.000000000001
 31
0.0
  0
LINE
  5
198
  8
0
  6
CONTINUOUS
 62
     7
 10
76.22373164996831
 20
433.5052154850546
 30
0.0
 11
76.2136348973644
 21
433.5121512297144
 31
0.0
  0
LINE
  5
199
  8
0
  6
CONTINUOUS
 62
     7
 10
76.2136348973644
 20
433.5121512297144
 30
0.0
 11
76.20383496514312
 21
433.5195295245199
 31
0.0
  0
LINE
  5
19A
  8
0
  6
CONTINUOUS
 62
     7
 10
76.20383496514312
 20
433.5195295245199
 30
0.0
 11
76.19435970800508
 21
433.5273293508156
 31
0.0
  0
LINE
  5
19B
  8
0
  6
CONTINUOUS
 62
     7
 10
76.19435970800508
 20
433.5273293508156
 30
0.0
 11
76.1852369806509
 21
433.5355296899464
 31
0.0
  0
LINE
  5
19C
  8
0
  6
CONTINUOUS
 62
     7
 10
76.1852369806509
 20
433.5355296899464
 30
0.0
 11
76.1764946377812
 21
433.5441095232566
 31
0.0
  0
LINE
  5
19D
  8
0
  6
CONTINUOUS
 62
     7
 10
76.1764946377812
 20
433.5441095232566
 30
0.0
 11
76.16849834726406
 21
433.5526655193993
 31
0.0
  0
LINE
  5
19E
  8
0
  6
CONTINUOUS
 62
     7
 10
76.16849834726406
 20
433.5526655193993
 30
0.0
 11
76.16086321692313
 21
433.561559173233
 31
0.0
  0
LINE
  5
19F
  8
0
  6
CONTINUOUS
 62
     7
 10
76.16086321692313
 20
433.561559173233
 30
0.0
 11
76.15361138466601
 21
433.5707677744091
 31
0.0
  0
LINE
  5
1A0
  8
0
  6
CONTINUOUS
 62
     7
 10
76.15361138466601
 20
433.5707677744091
 30
0.0
 11
76.14676498840032
 21
433.5802686125792
 31
0.0
  0
LINE
  5
1A1
  8
0
  6
CONTINUOUS
 62
     7
 10
76.14676498840032
 20
433.5802686125792
 30
0.0
 11
76.14014182145665
 21
433.5903629057088
 31
0.0
  0
LINE
  5
1A2
  8
0
  6
CONTINUOUS
 62
     7
 10
76.14014182145665
 20
433.5903629057088
 30
0.0
 11
76.13396855991105
 21
433.6007525622087
 31
0.0
  0
LINE
  5
1A3
  8
0
  6
CONTINUOUS
 62
     7
 10
76.13396855991105
 20
433.6007525622087
 30
0.0
 11
76.12826663508696
 21
433.6114078020105
 31
0.0
  0
LINE
  5
1A4
  8
0
  6
CONTINUOUS
 62
     7
 10
76.12826663508696
 20
433.6114078020105
 30
0.0
 11
76.12305747830767
 21
433.6222988450457
 31
0.0
  0
LINE
  5
1A5
  8
0
  6
CONTINUOUS
 62
     7
 10
76.12305747830767
 20
433.6222988450457
 30
0.0
 11
76.11862828401578
 21
433.6327228441108
 31
0.0
  0
LINE
  5
1A6
  8
0
  6
CONTINUOUS
 62
     7
 10
76.11862828401578
 20
433.6327228441108
 30
0.0
 11
76.11464853752315
 21
433.6433379556348
 31
0.0
  0
LINE
  5
1A7
  8
0
  6
CONTINUOUS
 62
     7
 10
76.11464853752315
 20
433.6433379556348
 30
0.0
 11
76.1111325370947
 21
433.6541152288029
 31
0.0
  0
LINE
  5
1A8
  8
0
  6
CONTINUOUS
 62
     7
 10
76.1111325370947
 20
433.6541152288029
 30
0.0
 11
76.10809458099534
 21
433.6650257128004
 31
0.0
  0
LINE
  5
1A9
  8
0
  6
CONTINUOUS
 62
     7
 10
76.10809458099534
 20
433.6650257128004
 30
0.0
 11
76.10546804855008
 21
433.6764235046526
 31
0.0
  0
LINE
  5
1AA
  8
0
  6
CONTINUOUS
 62
     7
 10
76.10546804855008
 20
433.6764235046526
 30
0.0
 11
76.10336591477055
 21
433.6879423034354
 31
0.0
  0
LINE
  5
1AB
  8
0
  6
CONTINUOUS
 62
     7
 10
76.10336591477055
 20
433.6879423034354
 30
0.0
 11
76.10179849963461
 21
433.6995455781117
 31
0.0
  0
LINE
  5
1AC
  8
0
  6
CONTINUOUS
 62
     7
 10
76.10179849963461
 20
433.6995455781117
 30
0.0
 11
76.1007761231201
 21
433.711196797644
 31
0.0
  0
LINE
  5
1AD
  8
0
  6
CONTINUOUS
 62
     7
 10
76.1007761231201
 20
433.711196797644
 30
0.0
 11
76.10032547950125
 21
433.7218466269709
 31
0.0
  0
LINE
  5
1AE
  8
0
  6
CONTINUOUS
 62
     7
 10
76.10032547950125
 20
433.7218466269709
 30
0.0
 11
76.10033571701716
 21
433.7325160614827
 31
0.0
  0
LINE
  5
1AF
  8
0
  6
CONTINUOUS
 62
     7
 10
76.10033571701716
 20
433.7325160614827
 30
0.0
 11
76.10080918883806
 21
433.7431747466134
 31
0.0
  0
LINE
  5
1B0
  8
0
  6
CONTINUOUS
 62
     7
 10
76.10080918883806
 20
433.7431747466134
 30
0.0
 11
76.10174824813423
 21
433.753792327797
 31
0.0
  0
LINE
  5
1B1
  8
0
  6
CONTINUOUS
 62
     7
 10
76.10174824813423
 20
433.753792327797
 30
0.0
 11
76.10321054298403
 21
433.7647020276718
 31
0.0
  0
LINE
  5
1B2
  8
0
  6
CONTINUOUS
 62
     7
 10
76.10321054298403
 20
433.7647020276718
 30
0.0
 11
76.1051727378087
 21
433.7755448182544
 31
0.0
  0
LINE
  5
1B3
  8
0
  6
CONTINUOUS
 62
     7
 10
76.1051727378087
 20
433.7755448182544
 30
0.0
 11
76.10763023959267
 21
433.7862859728092
 31
0.0
  0
LINE
  5
1B4
  8
0
  6
CONTINUOUS
 62
     7
 10
76.10763023959267
 20
433.7862859728092
 30
0.0
 11
76.1105784553204
 21
433.7968907646003
 31
0.0
  0
LINE
  5
1B5
  8
0
  6
CONTINUOUS
 62
     7
 10
76.1105784553204
 20
433.7968907646003
 30
0.0
 11
76.11394566515571
 21
433.8071389677607
 31
0.0
  0
LINE
  5
1B6
  8
0
  6
CONTINUOUS
 62
     7
 10
76.11394566515571
 20
433.8071389677607
 30
0.0
 11
76.11778394317487
 21
433.8172384083816
 31
0.0
  0
LINE
  5
1B7
  8
0
  6
CONTINUOUS
 62
     7
 10
76.11778394317487
 20
433.8172384083816
 30
0.0
 11
76.12208064328244
 21
433.8271576108568
 31
0.0
  0
LINE
  5
1B8
  8
0
  6
CONTINUOUS
 62
     7
 10
76.12208064328244
 20
433.8271576108568
 30
0.0
 11
76.12682311938306
 21
433.8368650995799
 31
0.0
  0
LINE
  5
1B9
  8
0
  6
CONTINUOUS
 62
     7
 10
76.12682311938306
 20
433.8368650995799
 30
0.0
 11
76.13199872538311
 21
433.8463293989441
 31
0.0
  0
LINE
  5
1BA
  8
0
  6
CONTINUOUS
 62
     7
 10
76.56501142727534
 20
433.5963293989441
 30
0.0
 11
76.55986875182413
 21
433.5878430057573
 31
0.0
  0
LINE
  5
1BB
  8
0
  6
CONTINUOUS
 62
     7
 10
76.55986875182413
 20
433.5878430057573
 30
0.0
 11
76.55436753690951
 21
433.5795738878632
 31
0.0
  0
LINE
  5
1BC
  8
0
  6
CONTINUOUS
 62
     7
 10
76.55436753690951
 20
433.5795738878632
 30
0.0
 11
76.54852333327139
 21
433.5715434597784
 31
0.0
  0
LINE
  5
1BD
  8
0
  6
CONTINUOUS
 62
     7
 10
76.54852333327139
 20
433.5715434597784
 30
0.0
 11
76.54235169164963
 21
433.5637731360195
 31
0.0
  0
LINE
  5
1BE
  8
0
  6
CONTINUOUS
 62
     7
 10
76.54235169164963
 20
433.5637731360195
 30
0.0
 11
76.53565958376946
 21
433.5560512007216
 31
0.0
  0
LINE
  5
1BF
  8
0
  6
CONTINUOUS
 62
     7
 10
76.53565958376946
 20
433.5560512007216
 30
0.0
 11
76.52863407356988
 21
433.5486182484465
 31
0.0
  0
LINE
  5
1C0
  8
0
  6
CONTINUOUS
 62
     7
 10
76.52863407356988
 20
433.5486182484465
 30
0.0
 11
76.52129620872446
 21
433.5414932963953
 31
0.0
  0
LINE
  5
1C1
  8
0
  6
CONTINUOUS
 62
     7
 10
76.52129620872446
 20
433.5414932963953
 30
0.0
 11
76.51366703690682
 21
433.534695361769
 31
0.0
  0
LINE
  5
1C2
  8
0
  6
CONTINUOUS
 62
     7
 10
76.51366703690682
 20
433.534695361769
 30
0.0
 11
76.50598825876622
 21
433.5284138327713
 31
0.0
  0
LINE
  5
1C3
  8
0
  6
CONTINUOUS
 62
     7
 10
76.50598825876622
 20
433.5284138327713
 30
0.0
 11
76.4980505999075
 21
433.5224488486209
 31
0.0
  0
LINE
  5
1C4
  8
0
  6
CONTINUOUS
 62
     7
 10
76.4980505999075
 20
433.5224488486209
 30
0.0
 11
76.48987562231423
 21
433.5168132012932
 31
0.0
  0
LINE
  5
1C5
  8
0
  6
CONTINUOUS
 62
     7
 10
76.48987562231423
 20
433.5168132012932
 30
0.0
 11
76.48148488796996
 21
433.5115196827645
 31
0.0
  0
LINE
  5
1C6
  8
0
  6
CONTINUOUS
 62
     7
 10
76.48148488796996
 20
433.5115196827645
 30
0.0
 11
76.47264518446651
 21
433.5064397387575
 31
0.0
  0
LINE
  5
1C7
  8
0
  6
CONTINUOUS
 62
     7
 10
76.47264518446651
 20
433.5064397387575
 30
0.0
 11
76.46359534189827
 21
433.5017255971745
 31
0.0
  0
LINE
  5
1C8
  8
0
  6
CONTINUOUS
 62
     7
 10
76.46359534189827
 20
433.5017255971745
 30
0.0
 11
76.454359742731
 21
433.4973861392496
 31
0.0
  0
LINE
  5
1C9
  8
0
  6
CONTINUOUS
 62
     7
 10
76.454359742731
 20
433.4973861392496
 30
0.0
 11
76.4449627694305
 21
433.493430246217
 31
0.0
  0
LINE
  5
1CA
  8
0
  6
CONTINUOUS
 62
     7
 10
76.4449627694305
 20
433.493430246217
 30
0.0
 11
76.43542585180283
 21
433.4898641180086
 31
0.0
  0
LINE
  5
1CB
  8
0
  6
CONTINUOUS
 62
     7
 10
76.43542585180283
 20
433.4898641180086
 30
0.0
 11
76.42574572584448
 21
433.4866811700131
 31
0.0
  0
LINE
  5
1CC
  8
0
  6
CONTINUOUS
 62
     7
 10
76.42574572584448
 20
433.4866811700131
 30
0.0
 11
76.41594645464284
 21
433.48388569179
 31
0.0
  0
LINE
  5
1CD
  8
0
  6
CONTINUOUS
 62
     7
 10
76.41594645464284
 20
433.48388569179
 30
0.0
 11
76.40605210128523
 21
433.4814819728984
 31
0.0
  0
LINE
  5
1CE
  8
0
  6
CONTINUOUS
 62
     7
 10
76.40605210128523
 20
433.4814819728984
 30
0.0
 11
76.39581002682569
 21
433.479422938765
 31
0.0
  0
LINE
  5
1CF
  8
0
  6
CONTINUOUS
 62
     7
 10
76.39581002682569
 20
433.479422938765
 30
0.0
 11
76.38548560067328
 21
433.4777738916877
 31
0.0
  0
LINE
  5
1D0
  8
0
  6
CONTINUOUS
 62
     7
 10
76.38548560067328
 20
433.4777738916877
 30
0.0
 11
76.37510371496619
 21
433.4765352886728
 31
0.0
  0
LINE
  5
1D1
  8
0
  6
CONTINUOUS
 62
     7
 10
76.37510371496619
 20
433.4765352886728
 30
0.0
 11
76.36468926184257
 21
433.475707586727
 31
0.0
  0
LINE
  5
1D2
  8
0
  6
CONTINUOUS
 62
     7
 10
76.36468926184257
 20
433.475707586727
 30
0.0
 11
76.3539337337045
 21
433.4752833172997
 31
0.0
  0
LINE
  5
1D3
  8
0
  6
CONTINUOUS
 62
     7
 10
76.3539337337045
 20
433.4752833172997
 30
0.0
 11
76.34316125824354
 21
433.475290265974
 31
0.0
  0
LINE
  5
1D4
  8
0
  6
CONTINUOUS
 62
     7
 10
76.34316125824354
 20
433.475290265974
 30
0.0
 11
76.33239736221955
 21
433.4757251673229
 31
0.0
  0
LINE
  5
1D5
  8
0
  6
CONTINUOUS
 62
     7
 10
76.33239736221955
 20
433.4757251673229
 30
0.0
 11
76.3216675723924
 21
433.4765847559198
 31
0.0
  0
LINE
  5
1D6
  8
0
  6
CONTINUOUS
 62
     7
 10
76.3216675723924
 20
433.4765847559198
 30
0.0
 11
76.31070213985952
 21
433.4779059400303
 31
0.0
  0
LINE
  5
1D7
  8
0
  6
CONTINUOUS
 62
     7
 10
76.31070213985952
 20
433.4779059400303
 30
0.0
 11
76.29978979850955
 21
433.4796673715481
 31
0.0
  0
LINE
  5
1D8
  8
0
  6
CONTINUOUS
 62
     7
 10
76.29978979850955
 20
433.4796673715481
 30
0.0
 11
76.2889561439826
 21
433.481862198961
 31
0.0
  0
LINE
  5
1D9
  8
0
  6
CONTINUOUS
 62
     7
 10
76.2889561439826
 20
433.481862198961
 30
0.0
 11
76.27822677191878
 21
433.4844835707568
 31
0.0
  0
LINE
  5
1DA
  8
0
  6
CONTINUOUS
 62
     7
 10
76.27822677191878
 20
433.4844835707568
 30
0.0
 11
76.26422749778862
 21
433.4885960755533
 31
0.0
  0
LINE
  5
1DB
  8
0
  6
CONTINUOUS
 62
     7
 10
76.26422749778862
 20
433.4885960755533
 30
0.0
 11
76.25044245778864
 21
433.4934376914155
 31
0.0
  0
LINE
  5
1DC
  8
0
  6
CONTINUOUS
 62
     7
 10
76.25044245778864
 20
433.4934376914155
 30
0.0
 11
76.23692579436612
 21
433.4989852255227
 31
0.0
  0
LINE
  5
1DD
  8
0
  6
CONTINUOUS
 62
     7
 10
76.23692579436612
 20
433.4989852255227
 30
0.0
 11
76.22373164996831
 21
433.5052154850546
 31
0.0
  0
LINE
  5
1DE
  8
0
  6
CONTINUOUS
 62
     7
 10
83.7232628260335
 20
433.5052154850536
 30
0.0
 11
83.71220791866203
 21
433.4999393131328
 31
0.0
  0
LINE
  5
1DF
  8
0
  6
CONTINUOUS
 62
     7
 10
83.71220791866203
 20
433.4999393131328
 30
0.0
 11
83.70091816181323
 21
433.4951414702766
 31
0.0
  0
LINE
  5
1E0
  8
0
  6
CONTINUOUS
 62
     7
 10
83.70091816181323
 20
433.4951414702766
 30
0.0
 11
83.68942568552697
 21
433.4908355700355
 31
0.0
  0
LINE
  5
1E1
  8
0
  6
CONTINUOUS
 62
     7
 10
83.68942568552697
 20
433.4908355700355
 30
0.0
 11
83.67776261984304
 21
433.4870352259603
 31
0.0
  0
LINE
  5
1E2
  8
0
  6
CONTINUOUS
 62
     7
 10
83.67776261984304
 20
433.4870352259603
 30
0.0
 11
83.6659610948013
 21
433.4837540516016
 31
0.0
  0
LINE
  5
1E3
  8
0
  6
CONTINUOUS
 62
     7
 10
83.6659610948013
 20
433.4837540516016
 30
0.0
 11
83.65455323952851
 21
433.4811070589491
 31
0.0
  0
LINE
  5
1E4
  8
0
  6
CONTINUOUS
 62
     7
 10
83.65455323952851
 20
433.4811070589491
 30
0.0
 11
83.64303354420558
 21
433.4789416690296
 31
0.0
  0
LINE
  5
1E5
  8
0
  6
CONTINUOUS
 62
     7
 10
83.64303354420558
 20
433.4789416690296
 30
0.0
 11
83.63143274552513
 21
433.477265698659
 31
0.0
  0
LINE
  5
1E6
  8
0
  6
CONTINUOUS
 62
     7
 10
83.63143274552513
 20
433.477265698659
 30
0.0
 11
83.61978158017982
 21
433.4760869646535
 31
0.0
  0
LINE
  5
1E7
  8
0
  6
CONTINUOUS
 62
     7
 10
83.61978158017982
 20
433.4760869646535
 30
0.0
 11
83.6077280824245
 21
433.4753982803916
 31
0.0
  0
LINE
  5
1E8
  8
0
  6
CONTINUOUS
 62
     7
 10
83.6077280824245
 20
433.4753982803916
 30
0.0
 11
83.59564374518615
 21
433.4752469073189
 31
0.0
  0
LINE
  5
1E9
  8
0
  6
CONTINUOUS
 62
     7
 10
83.59564374518615
 20
433.4752469073189
 30
0.0
 11
83.58356507442231
 21
433.4756365154716
 31
0.0
  0
LINE
  5
1EA
  8
0
  6
CONTINUOUS
 62
     7
 10
83.58356507442231
 20
433.4756365154716
 30
0.0
 11
83.57152857609046
 21
433.4765707748861
 31
0.0
  0
LINE
  5
1EB
  8
0
  6
CONTINUOUS
 62
     7
 10
83.57152857609046
 20
433.4765707748861
 30
0.0
 11
83.56028653094519
 21
433.4779469796435
 31
0.0
  0
LINE
  5
1EC
  8
0
  6
CONTINUOUS
 62
     7
 10
83.56028653094519
 20
433.4779469796435
 30
0.0
 11
83.54910370145508
 21
433.4798079738423
 31
0.0
  0
LINE
  5
1ED
  8
0
  6
CONTINUOUS
 62
     7
 10
83.54910370145508
 20
433.4798079738423
 30
0.0
 11
83.53801230889373
 21
433.4821516647356
 31
0.0
  0
LINE
  5
1EE
  8
0
  6
CONTINUOUS
 62
     7
 10
83.53801230889373
 20
433.4821516647356
 30
0.0
 11
83.52704457453464
 21
433.4849759595767
 31
0.0
  0
LINE
  5
1EF
  8
0
  6
CONTINUOUS
 62
     7
 10
83.52704457453464
 20
433.4849759595767
 30
0.0
 11
83.51586053102095
 21
433.4884002116814
 31
0.0
  0
LINE
  5
1F0
  8
0
  6
CONTINUOUS
 62
     7
 10
83.51586053102095
 20
433.4884002116814
 30
0.0
 11
83.50483389176418
 21
433.4923391098175
 31
0.0
  0
LINE
  5
1F1
  8
0
  6
CONTINUOUS
 62
     7
 10
83.50483389176418
 20
433.4923391098175
 30
0.0
 11
83.4940014535595
 21
433.4967833258297
 31
0.0
  0
LINE
  5
1F2
  8
0
  6
CONTINUOUS
 62
     7
 10
83.4940014535595
 20
433.4967833258297
 30
0.0
 11
83.48340001320213
 21
433.501723531562
 31
0.0
  0
LINE
  5
1F3
  8
0
  6
CONTINUOUS
 62
     7
 10
83.48340001320213
 20
433.501723531562
 30
0.0
 11
83.47395166864966
 21
433.5066581774035
 31
0.0
  0
LINE
  5
1F4
  8
0
  6
CONTINUOUS
 62
     7
 10
83.47395166864966
 20
433.5066581774035
 30
0.0
 11
83.46471678607641
 21
433.5120017606083
 31
0.0
  0
LINE
  5
1F5
  8
0
  6
CONTINUOUS
 62
     7
 10
83.46471678607641
 20
433.5120017606083
 30
0.0
 11
83.45572282989274
 21
433.5177411417985
 31
0.0
  0
LINE
  5
1F6
  8
0
  6
CONTINUOUS
 62
     7
 10
83.45572282989274
 20
433.5177411417985
 30
0.0
 11
83.44699726450905
 21
433.5238631815965
 31
0.0
  0
LINE
  5
1F7
  8
0
  6
CONTINUOUS
 62
     7
 10
83.44699726450905
 20
433.5238631815965
 30
0.0
 11
83.43828033469477
 21
433.5305844160216
 31
0.0
  0
LINE
  5
1F8
  8
0
  6
CONTINUOUS
 62
     7
 10
83.43828033469477
 20
433.5305844160216
 30
0.0
 11
83.4298713000146
 21
433.5377051218782
 31
0.0
  0
LINE
  5
1F9
  8
0
  6
CONTINUOUS
 62
     7
 10
83.4298713000146
 20
433.5377051218782
 30
0.0
 11
83.42179793819615
 21
433.5452039581304
 31
0.0
  0
LINE
  5
1FA
  8
0
  6
CONTINUOUS
 62
     7
 10
83.42179793819615
 20
433.5452039581304
 30
0.0
 11
83.4140880269671
 21
433.553059583742
 31
0.0
  0
LINE
  5
1FB
  8
0
  6
CONTINUOUS
 62
     7
 10
83.4140880269671
 20
433.553059583742
 30
0.0
 11
83.40689642760468
 21
433.5610997745795
 31
0.0
  0
LINE
  5
1FC
  8
0
  6
CONTINUOUS
 62
     7
 10
83.40689642760468
 20
433.5610997745795
 30
0.0
 11
83.40006919447254
 21
433.5694735411612
 31
0.0
  0
LINE
  5
1FD
  8
0
  6
CONTINUOUS
 62
     7
 10
83.40006919447254
 20
433.5694735411612
 30
0.0
 11
83.39362726319759
 21
433.5781541938445
 31
0.0
  0
LINE
  5
1FE
  8
0
  6
CONTINUOUS
 62
     7
 10
83.39362726319759
 20
433.5781541938445
 30
0.0
 11
83.38759156940672
 21
433.5871150429859
 31
0.0
  0
LINE
  5
1FF
  8
0
  6
CONTINUOUS
 62
     7
 10
83.38759156940672
 20
433.5871150429859
 30
0.0
 11
83.38198304872829
 21
433.5963293989441
 31
0.0
  0
LINE
  5
200
  8
0
  6
CONTINUOUS
 62
     7
 10
83.81499575062051
 20
433.8463293989441
 30
0.0
 11
83.81977384498117
 21
433.8376325147666
 31
0.0
  0
LINE
  5
201
  8
0
  6
CONTINUOUS
 62
     7
 10
83.81977384498117
 20
433.8376325147666
 30
0.0
 11
83.82418450368708
 21
433.8287337639518
 31
0.0
  0
LINE
  5
202
  8
0
  6
CONTINUOUS
 62
     7
 10
83.82418450368708
 20
433.8287337639518
 30
0.0
 11
83.82821695659273
 21
433.8196573210938
 31
0.0
  0
LINE
  5
203
  8
0
  6
CONTINUOUS
 62
     7
 10
83.82821695659273
 20
433.8196573210938
 30
0.0
 11
83.83186043355268
 21
433.8104273607869
 31
0.0
  0
LINE
  5
204
  8
0
  6
CONTINUOUS
 62
     7
 10
83.83186043355268
 20
433.8104273607869
 30
0.0
 11
83.83520177174688
 21
433.8007708577089
 31
0.0
  0
LINE
  5
205
  8
0
  6
CONTINUOUS
 62
     7
 10
83.83520177174688
 20
433.8007708577089
 30
0.0
 11
83.83812614214249
 21
433.790970111264
 31
0.0
  0
LINE
  5
206
  8
0
  6
CONTINUOUS
 62
     7
 10
83.83812614214249
 20
433.790970111264
 30
0.0
 11
83.84062759919692
 21
433.7810528578727
 31
0.0
  0
LINE
  5
207
  8
0
  6
CONTINUOUS
 62
     7
 10
83.84062759919692
 20
433.7810528578727
 30
0.0
 11
83.84270019736772
 21
433.7710468339556
 31
0.0
  0
LINE
  5
208
  8
0
  6
CONTINUOUS
 62
     7
 10
83.84270019736772
 20
433.7710468339556
 30
0.0
 11
83.844300771984
 21
433.761256052517
 31
0.0
  0
LINE
  5
209
  8
0
  6
CONTINUOUS
 62
     7
 10
83.844300771984
 20
433.761256052517
 30
0.0
 11
83.84549777036217
 21
433.7513993462235
 31
0.0
  0
LINE
  5
20A
  8
0
  6
CONTINUOUS
 62
     7
 10
83.84549777036217
 20
433.7513993462235
 30
0.0
 11
83.84629089531796
 21
433.7415017842886
 31
0.0
  0
LINE
  5
20B
  8
0
  6
CONTINUOUS
 62
     7
 10
83.84629089531796
 20
433.7415017842886
 30
0.0
 11
83.84667984966717
 21
433.7315884359256
 31
0.0
  0
LINE
  5
20C
  8
0
  6
CONTINUOUS
 62
     7
 10
83.84667984966717
 20
433.7315884359256
 30
0.0
 11
83.84665935847526
 21
433.7213930561263
 31
0.0
  0
LINE
  5
20D
  8
0
  6
CONTINUOUS
 62
     7
 10
83.84665935847526
 20
433.7213930561263
 30
0.0
 11
83.84621700355909
 21
433.7111985917704
 31
0.0
  0
LINE
  5
20E
  8
0
  6
CONTINUOUS
 62
     7
 10
83.84621700355909
 20
433.7111985917704
 30
0.0
 11
83.8453572847771
 21
433.7010305993099
 31
0.0
  0
LINE
  5
20F
  8
0
  6
CONTINUOUS
 62
     7
 10
83.8453572847771
 20
433.7010305993099
 30
0.0
 11
83.8440847019877
 21
433.6909146351967
 31
0.0
  0
LINE
  5
210
  8
0
  6
CONTINUOUS
 62
     7
 10
83.8440847019877
 20
433.6909146351967
 30
0.0
 11
83.84240460079548
 21
433.6808723581532
 31
0.0
  0
LINE
  5
211
  8
0
  6
CONTINUOUS
 62
     7
 10
83.84240460079548
 20
433.6808723581532
 30
0.0
 11
83.84032105163926
 21
433.6708976491636
 31
0.0
  0
LINE
  5
212
  8
0
  6
CONTINUOUS
 62
     7
 10
83.84032105163926
 20
433.6708976491636
 30
0.0
 11
83.83784237119545
 21
433.6610134922529
 31
0.0
  0
LINE
  5
213
  8
0
  6
CONTINUOUS
 62
     7
 10
83.83784237119545
 20
433.6610134922529
 30
0.0
 11
83.83497687614035
 21
433.6512428714453
 31
0.0
  0
LINE
  5
214
  8
0
  6
CONTINUOUS
 62
     7
 10
83.83497687614035
 20
433.6512428714453
 30
0.0
 11
83.83163901477731
 21
433.6413434577092
 31
0.0
  0
LINE
  5
215
  8
0
  6
CONTINUOUS
 62
     7
 10
83.83163901477731
 20
433.6413434577092
 30
0.0
 11
83.82790491836212
 21
433.6315777188431
 31
0.0
  0
LINE
  5
216
  8
0
  6
CONTINUOUS
 62
     7
 10
83.82790491836212
 20
433.6315777188431
 30
0.0
 11
83.82378663718463
 21
433.6219674405742
 31
0.0
  0
LINE
  5
217
  8
0
  6
CONTINUOUS
 62
     7
 10
83.82378663718463
 20
433.6219674405742
 30
0.0
 11
83.81929622153464
 21
433.6125344086297
 31
0.0
  0
LINE
  5
218
  8
0
  6
CONTINUOUS
 62
     7
 10
83.81929622153464
 20
433.6125344086297
 30
0.0
 11
83.8142858855677
 21
433.6030077133174
 31
0.0
  0
LINE
  5
219
  8
0
  6
CONTINUOUS
 62
     7
 10
83.8142858855677
 20
433.6030077133174
 30
0.0
 11
83.80889363010881
 21
433.5936819502436
 31
0.0
  0
LINE
  5
21A
  8
0
  6
CONTINUOUS
 62
     7
 10
83.80889363010881
 20
433.5936819502436
 30
0.0
 11
83.80313504648049
 21
433.5845775935176
 31
0.0
  0
LINE
  5
21B
  8
0
  6
CONTINUOUS
 62
     7
 10
83.80313504648049
 20
433.5845775935176
 30
0.0
 11
83.79702572600526
 21
433.5757151172485
 31
0.0
  0
LINE
  5
21C
  8
0
  6
CONTINUOUS
 62
     7
 10
83.79702572600526
 20
433.5757151172485
 30
0.0
 11
83.79039883073602
 21
433.5668793661667
 31
0.0
  0
LINE
  5
21D
  8
0
  6
CONTINUOUS
 62
     7
 10
83.79039883073602
 20
433.5668793661667
 30
0.0
 11
83.78341721561956
 21
433.5583097171019
 31
0.0
  0
LINE
  5
21E
  8
0
  6
CONTINUOUS
 62
     7
 10
83.78341721561956
 20
433.5583097171019
 30
0.0
 11
83.77609961205957
 21
433.5500249107722
 31
0.0
  0
LINE
  5
21F
  8
0
  6
CONTINUOUS
 62
     7
 10
83.77609961205957
 20
433.5500249107722
 30
0.0
 11
83.76846475145977
 21
433.5420436878962
 31
0.0
  0
LINE
  5
220
  8
0
  6
CONTINUOUS
 62
     7
 10
83.76846475145977
 20
433.5420436878962
 30
0.0
 11
83.75790358076775
 21
433.5319762132631
 31
0.0
  0
LINE
  5
221
  8
0
  6
CONTINUOUS
 62
     7
 10
83.75790358076775
 20
433.5319762132631
 30
0.0
 11
83.74681809843577
 21
433.522458826362
 31
0.0
  0
LINE
  5
222
  8
0
  6
CONTINUOUS
 62
     7
 10
83.74681809843577
 20
433.522458826362
 30
0.0
 11
83.73525546125921
 21
433.5135268195174
 31
0.0
  0
LINE
  5
223
  8
0
  6
CONTINUOUS
 62
     7
 10
83.73525546125921
 20
433.5135268195174
 30
0.0
 11
83.7232628260335
 21
433.5052154850536
 31
0.0
  0
LINE
  5
224
  8
0
  6
CONTINUOUS
 62
     7
 10
87.47302841406702
 20
439.9999999999989
 30
0.0
 11
87.47207025929946
 21
439.9877880834184
 31
0.0
  0
LINE
  5
225
  8
0
  6
CONTINUOUS
 62
     7
 10
87.47207025929946
 20
439.9877880834184
 30
0.0
 11
87.47058043467194
 21
439.9756119457566
 31
0.0
  0
LINE
  5
226
  8
0
  6
CONTINUOUS
 62
     7
 10
87.47058043467194
 20
439.9756119457566
 30
0.0
 11
87.4685632155237
 21
439.9635062192198
 31
0.0
  0
LINE
  5
227
  8
0
  6
CONTINUOUS
 62
     7
 10
87.4685632155237
 20
439.9635062192198
 30
0.0
 11
87.46602287719396
 21
439.9515055360139
 31
0.0
  0
LINE
  5
228
  8
0
  6
CONTINUOUS
 62
     7
 10
87.46602287719396
 20
439.9515055360139
 30
0.0
 11
87.46296369502191
 21
439.9396445283451
 31
0.0
  0
LINE
  5
229
  8
0
  6
CONTINUOUS
 62
     7
 10
87.46296369502191
 20
439.9396445283451
 30
0.0
 11
87.45955213026626
 21
439.9284415395499
 31
0.0
  0
LINE
  5
22A
  8
0
  6
CONTINUOUS
 62
     7
 10
87.45955213026626
 20
439.9284415395499
 30
0.0
 11
87.45566756528427
 21
439.9173824957965
 31
0.0
  0
LINE
  5
22B
  8
0
  6
CONTINUOUS
 62
     7
 10
87.45566756528427
 20
439.9173824957965
 30
0.0
 11
87.45131859886095
 21
439.9064979242498
 31
0.0
  0
LINE
  5
22C
  8
0
  6
CONTINUOUS
 62
     7
 10
87.45131859886095
 20
439.9064979242498
 30
0.0
 11
87.44651382978131
 21
439.8958183520743
 31
0.0
  0
LINE
  5
22D
  8
0
  6
CONTINUOUS
 62
     7
 10
87.44651382978131
 20
439.8958183520743
 30
0.0
 11
87.44108349896968
 21
439.8850353746828
 31
0.0
  0
LINE
  5
22E
  8
0
  6
CONTINUOUS
 62
     7
 10
87.44108349896968
 20
439.8850353746828
 30
0.0
 11
87.43517242327691
 21
439.8744943451102
 31
0.0
  0
LINE
  5
22F
  8
0
  6
CONTINUOUS
 62
     7
 10
87.43517242327691
 20
439.8744943451102
 30
0.0
 11
87.42879567733718
 21
439.8642287134611
 31
0.0
  0
LINE
  5
230
  8
0
  6
CONTINUOUS
 62
     7
 10
87.42879567733718
 20
439.8642287134611
 30
0.0
 11
87.4219683357846
 21
439.8542719298403
 31
0.0
  0
LINE
  5
231
  8
0
  6
CONTINUOUS
 62
     7
 10
87.4219683357846
 20
439.8542719298403
 30
0.0
 11
87.41515548493122
 21
439.8452241355328
 31
0.0
  0
LINE
  5
232
  8
0
  6
CONTINUOUS
 62
     7
 10
87.41515548493122
 20
439.8452241355328
 30
0.0
 11
87.40795240193376
 21
439.8364700182075
 31
0.0
  0
LINE
  5
233
  8
0
  6
CONTINUOUS
 62
     7
 10
87.40795240193376
 20
439.8364700182075
 30
0.0
 11
87.40037700980085
 21
439.8280364359327
 31
0.0
  0
LINE
  5
234
  8
0
  6
CONTINUOUS
 62
     7
 10
87.40037700980085
 20
439.8280364359327
 30
0.0
 11
87.39244723154111
 21
439.8199502467763
 31
0.0
  0
LINE
  5
235
  8
0
  6
CONTINUOUS
 62
     7
 10
87.39244723154111
 20
439.8199502467763
 30
0.0
 11
87.3838897204727
 21
439.8119767070287
 31
0.0
  0
LINE
  5
236
  8
0
  6
CONTINUOUS
 62
     7
 10
87.3838897204727
 20
439.8119767070287
 30
0.0
 11
87.37496521499546
 21
439.8043968063821
 31
0.0
  0
LINE
  5
237
  8
0
  6
CONTINUOUS
 62
     7
 10
87.37496521499546
 20
439.8043968063821
 30
0.0
 11
87.36570019192672
 21
439.797237747718
 31
0.0
  0
LINE
  5
238
  8
0
  6
CONTINUOUS
 62
     7
 10
87.36570019192672
 20
439.797237747718
 30
0.0
 11
87.35612112808384
 21
439.790526733918
 31
0.0
  0
LINE
  5
239
  8
0
  6
CONTINUOUS
 62
     7
 10
87.35612112808384
 20
439.790526733918
 30
0.0
 11
87.34712342715022
 21
439.7848115504326
 31
0.0
  0
LINE
  5
23A
  8
0
  6
CONTINUOUS
 62
     7
 10
87.34712342715022
 20
439.7848115504326
 30
0.0
 11
87.33787830706108
 21
439.7794856991255
 31
0.0
  0
LINE
  5
23B
  8
0
  6
CONTINUOUS
 62
     7
 10
87.33787830706108
 20
439.7794856991255
 30
0.0
 11
87.32841087905649
 21
439.774566395185
 31
0.0
  0
LINE
  5
23C
  8
0
  6
CONTINUOUS
 62
     7
 10
87.32841087905649
 20
439.774566395185
 30
0.0
 11
87.31874625437665
 21
439.7700708537994
 31
0.0
  0
LINE
  5
23D
  8
0
  6
CONTINUOUS
 62
     7
 10
87.31874625437665
 20
439.7700708537994
 30
0.0
 11
87.30856702971256
 21
439.7658823883498
 31
0.0
  0
LINE
  5
23E
  8
0
  6
CONTINUOUS
 62
     7
 10
87.30856702971256
 20
439.7658823883498
 30
0.0
 11
87.29819580020772
 21
439.7621603036238
 31
0.0
  0
LINE
  5
23F
  8
0
  6
CONTINUOUS
 62
     7
 10
87.29819580020772
 20
439.7621603036238
 30
0.0
 11
87.28766493660531
 21
439.7589179853211
 31
0.0
  0
LINE
  5
240
  8
0
  6
CONTINUOUS
 62
     7
 10
87.28766493660531
 20
439.7589179853211
 30
0.0
 11
87.27700680964851
 21
439.7561688191416
 31
0.0
  0
LINE
  5
241
  8
0
  6
CONTINUOUS
 62
     7
 10
87.27700680964851
 20
439.7561688191416
 30
0.0
 11
87.2664480004508
 21
439.7539608068187
 31
0.0
  0
LINE
  5
242
  8
0
  6
CONTINUOUS
 62
     7
 10
87.2664480004508
 20
439.7539608068187
 30
0.0
 11
87.25578248929949
 21
439.7522351327796
 31
0.0
  0
LINE
  5
243
  8
0
  6
CONTINUOUS
 62
     7
 10
87.25578248929949
 20
439.7522351327796
 30
0.0
 11
87.24504385791695
 21
439.7509965829877
 31
0.0
  0
LINE
  5
244
  8
0
  6
CONTINUOUS
 62
     7
 10
87.24504385791695
 20
439.7509965829877
 30
0.0
 11
87.23426568802549
 21
439.7502499434061
 31
0.0
  0
LINE
  5
245
  8
0
  6
CONTINUOUS
 62
     7
 10
87.23426568802549
 20
439.7502499434061
 30
0.0
 11
87.22348156134699
 21
439.75
 31
0.0
  0
LINE
  5
246
  8
0
  6
CONTINUOUS
 62
     7
 10
87.22348156134699
 20
440.2499999999999
 30
0.0
 11
87.23340233115887
 21
440.2497895090092
 31
0.0
  0
LINE
  5
247
  8
0
  6
CONTINUOUS
 62
     7
 10
87.23340233115887
 20
440.2497895090092
 30
0.0
 11
87.24331420477938
 21
440.2491598760886
 31
0.0
  0
LINE
  5
248
  8
0
  6
CONTINUOUS
 62
     7
 10
87.24331420477938
 20
440.2491598760886
 30
0.0
 11
87.25319086132316
 21
440.2481138613155
 31
0.0
  0
LINE
  5
249
  8
0
  6
CONTINUOUS
 62
     7
 10
87.25319086132316
 20
440.2481138613155
 30
0.0
 11
87.26300597990486
 21
440.2466542247674
 31
0.0
  0
LINE
  5
24A
  8
0
  6
CONTINUOUS
 62
     7
 10
87.26300597990486
 20
440.2466542247674
 30
0.0
 11
87.27303942597925
 21
440.2447196569872
 31
0.0
  0
LINE
  5
24B
  8
0
  6
CONTINUOUS
 62
     7
 10
87.27303942597925
 20
440.2447196569872
 30
0.0
 11
87.28298930657442
 21
440.2423518628174
 31
0.0
  0
LINE
  5
24C
  8
0
  6
CONTINUOUS
 62
     7
 10
87.28298930657442
 20
440.2423518628174
 30
0.0
 11
87.29282862847427
 21
440.2395595614774
 31
0.0
  0
LINE
  5
24D
  8
0
  6
CONTINUOUS
 62
     7
 10
87.29282862847427
 20
440.2395595614774
 30
0.0
 11
87.30253039846271
 21
440.2363514721866
 31
0.0
  0
LINE
  5
24E
  8
0
  6
CONTINUOUS
 62
     7
 10
87.30253039846271
 20
440.2363514721866
 30
0.0
 11
87.31180975121958
 21
440.2328422197457
 31
0.0
  0
LINE
  5
24F
  8
0
  6
CONTINUOUS
 62
     7
 10
87.31180975121958
 20
440.2328422197457
 30
0.0
 11
87.32094440845647
 21
440.2289504976027
 31
0.0
  0
LINE
  5
250
  8
0
  6
CONTINUOUS
 62
     7
 10
87.32094440845647
 20
440.2289504976027
 30
0.0
 11
87.32991251100556
 21
440.2246885829953
 31
0.0
  0
LINE
  5
251
  8
0
  6
CONTINUOUS
 62
     7
 10
87.32991251100556
 20
440.2246885829953
 30
0.0
 11
87.33869219969904
 21
440.2200687531612
 31
0.0
  0
LINE
  5
252
  8
0
  6
CONTINUOUS
 62
     7
 10
87.33869219969904
 20
440.2200687531612
 30
0.0
 11
87.34751141201056
 21
440.2149533173688
 31
0.0
  0
LINE
  5
253
  8
0
  6
CONTINUOUS
 62
     7
 10
87.34751141201056
 20
440.2149533173688
 30
0.0
 11
87.35611889966265
 21
440.2094729945959
 31
0.0
  0
LINE
  5
254
  8
0
  6
CONTINUOUS
 62
     7
 10
87.35611889966265
 20
440.2094729945959
 30
0.0
 11
87.36449478004792
 21
440.2036444600603
 31
0.0
  0
LINE
  5
255
  8
0
  6
CONTINUOUS
 62
     7
 10
87.36449478004792
 20
440.2036444600603
 30
0.0
 11
87.372619170559
 21
440.1974843889797
 31
0.0
  0
LINE
  5
256
  8
0
  6
CONTINUOUS
 62
     7
 10
87.372619170559
 20
440.1974843889797
 30
0.0
 11
87.38047598699447
 21
440.1910082401446
 31
0.0
  0
LINE
  5
257
  8
0
  6
CONTINUOUS
 62
     7
 10
87.38047598699447
 20
440.1910082401446
 30
0.0
 11
87.3880725637966
 21
440.1842164791505
 31
0.0
  0
LINE
  5
258
  8
0
  6
CONTINUOUS
 62
     7
 10
87.3880725637966
 20
440.1842164791505
 30
0.0
 11
87.39539315455444
 21
440.1771278004629
 31
0.0
  0
LINE
  5
259
  8
0
  6
CONTINUOUS
 62
     7
 10
87.39539315455444
 20
440.1771278004629
 30
0.0
 11
87.40242201285693
 21
440.169760898547
 31
0.0
  0
LINE
  5
25A
  8
0
  6
CONTINUOUS
 62
     7
 10
87.40242201285693
 20
440.169760898547
 30
0.0
 11
87.40932622595345
 21
440.1619205189443
 31
0.0
  0
LINE
  5
25B
  8
0
  6
CONTINUOUS
 62
     7
 10
87.40932622595345
 20
440.1619205189443
 30
0.0
 11
87.41591655569066
 21
440.1538038271554
 31
0.0
  0
LINE
  5
25C
  8
0
  6
CONTINUOUS
 62
     7
 10
87.41591655569066
 20
440.1538038271554
 30
0.0
 11
87.42218016022024
 21
440.1454321519013
 31
0.0
  0
LINE
  5
25D
  8
0
  6
CONTINUOUS
 62
     7
 10
87.42218016022024
 20
440.1454321519013
 30
0.0
 11
87.42810419769388
 21
440.1368268219026
 31
0.0
  0
LINE
  5
25E
  8
0
  6
CONTINUOUS
 62
     7
 10
87.42810419769388
 20
440.1368268219026
 30
0.0
 11
87.43384938986502
 21
440.1277243960176
 31
0.0
  0
LINE
  5
25F
  8
0
  6
CONTINUOUS
 62
     7
 10
87.43384938986502
 20
440.1277243960176
 30
0.0
 11
87.43922960986708
 21
440.1183916842696
 31
0.0
  0
LINE
  5
260
  8
0
  6
CONTINUOUS
 62
     7
 10
87.43922960986708
 20
440.1183916842696
 30
0.0
 11
87.44423492226275
 21
440.1088524261947
 31
0.0
  0
LINE
  5
261
  8
0
  6
CONTINUOUS
 62
     7
 10
87.44423492226275
 20
440.1088524261947
 30
0.0
 11
87.44885539161467
 21
440.0991303613287
 31
0.0
  0
LINE
  5
262
  8
0
  6
CONTINUOUS
 62
     7
 10
87.44885539161467
 20
440.0991303613287
 30
0.0
 11
87.45319392887832
 21
440.0889734261365
 31
0.0
  0
LINE
  5
263
  8
0
  6
CONTINUOUS
 62
     7
 10
87.45319392887832
 20
440.0889734261365
 30
0.0
 11
87.45712465511183
 21
440.0786423455538
 31
0.0
  0
LINE
  5
264
  8
0
  6
CONTINUOUS
 62
     7
 10
87.45712465511183
 20
440.0786423455538
 30
0.0
 11
87.46064070607878
 21
440.0681627118112
 31
0.0
  0
LINE
  5
265
  8
0
  6
CONTINUOUS
 62
     7
 10
87.46064070607878
 20
440.0681627118112
 30
0.0
 11
87.46373521754279
 21
440.0575601171393
 31
0.0
  0
LINE
  5
266
  8
0
  6
CONTINUOUS
 62
     7
 10
87.46373521754279
 20
440.0575601171393
 30
0.0
 11
87.46717332098095
 21
440.0433801377098
 31
0.0
  0
LINE
  5
267
  8
0
  6
CONTINUOUS
 62
     7
 10
87.46717332098095
 20
440.0433801377098
 30
0.0
 11
87.46987287864894
 21
440.0290211349466
 31
0.0
  0
LINE
  5
268
  8
0
  6
CONTINUOUS
 62
     7
 10
87.46987287864894
 20
440.0290211349466
 30
0.0
 11
87.47182690489493
 21
440.0145415939946
 31
0.0
  0
LINE
  5
269
  8
0
  6
CONTINUOUS
 62
     7
 10
87.47182690489493
 20
440.0145415939946
 30
0.0
 11
87.47302841406702
 21
439.9999999999989
 31
0.0
  0
LINE
  5
26A
  8
0
  6
CONTINUOUS
 62
     7
 10
83.81499575062051
 20
433.8463293989441
 30
0.0
 11
80.40650993989404
 21
439.7499999999999
 31
0.0
  0
LINE
  5
26B
  8
0
  6
CONTINUOUS
 62
     7
 10
72.72351291465664
 20
439.7499999999999
 30
0.0
 11
79.54048453610959
 21
439.75
 31
0.0
  0
LINE
  5
26C
  8
0
  6
CONTINUOUS
 62
     7
 10
76.56501142727534
 20
433.5963293989441
 30
0.0
 11
79.97349723800181
 21
439.5
 31
0.0
  0
LINE
  5
26D
  8
0
  6
CONTINUOUS
 62
     7
 10
79.97349723800181
 20
440.5
 30
0.0
 11
76.56501142727534
 21
446.4036706010559
 31
0.0
  0
LINE
  5
26E
  8
0
  6
CONTINUOUS
 62
     7
 10
79.54048453610959
 20
440.2499999999999
 30
0.0
 11
72.72351291465664
 21
440.2499999999999
 31
0.0
  0
LINE
  5
26F
  8
0
  6
CONTINUOUS
 62
     7
 10
80.40650993989404
 20
440.2499999999999
 30
0.0
 11
83.81499575062051
 21
446.1536706010559
 31
0.0
  0
LINE
  5
270
  8
0
  6
CONTINUOUS
 62
     7
 10
87.22348156134699
 20
440.2499999999999
 30
0.0
 11
80.40650993989404
 21
440.2499999999999
 31
0.0
  0
LINE
  5
271
  8
0
  6
CONTINUOUS
 62
     7
 10
80.40650993989404
 20
439.75
 30
0.0
 11
87.22348156134699
 21
439.75
 31
0.0
  0
LINE
  5
272
  8
0
  6
CONTINUOUS
 62
     7
 10
83.38198304872829
 20
446.4036706010559
 30
0.0
 11
79.97349723800181
 21
440.5
 31
0.0
  0
LINE
  5
273
  8
0
  6
CONTINUOUS
 62
     7
 10
79.97349723800181
 20
439.5
 30
0.0
 11
83.38198304872829
 21
433.5963293989441
 31
0.0
  0
LINE
  5
274
  8
0
  6
CONTINUOUS
 62
     7
 10
76.13199872538311
 20
446.1536706010559
 30
0.0
 11
79.54048453610959
 21
440.2499999999999
 31
0.0
  0
LINE
  5
275
  8
0
  6
CONTINUOUS
 62
     7
 10
79.54048453610959
 20
439.75
 30
0.0
 11
76.13199872538311
 21
433.8463293989441
 31
0.0
  0
CIRCLE
  5
276
  8
0
  6
CONTINUOUS
 62
   253
 10
155.0265027619982
 20
440.0
 30
0.0
 40
8.395655605297481
  0
CIRCLE
  5
277
  8
0
  6
CONTINUOUS
 62
   253
 10
155.0265027619982
 20
440.0
 30
0.0
 40
7.895674643765395
  0
LINE
  5
278
  8
0
  6
CONTINUOUS
 62
     7
 10
146.6265027619982
 20
439.7499999999999
 30
0.0
 11
146.6265027619982
 21
440.2499999999999
 31
0.0
  0
LINE
  5
279
  8
0
  6
CONTINUOUS
 62
     7
 10
146.2801618339917
 20
440.2530224714892
 30
0.0
 11
146.6265027619982
 21
440.2499999999999
 31
0.0
  0
ARC
  5
27A
  8
0
  6
CONTINUOUS
 62
     7
 10
155.0265027619982
 20
440.0
 30
0.0
 40
8.750000000000002
 50
181.6570446716084
 51
178.342955328392
  0
LINE
  5
27B
  8
0
  6
CONTINUOUS
 62
     7
 10
146.2801618339917
 20
439.7469775285107
 30
0.0
 11
146.6265027619982
 21
439.7499999999999
 31
0.0
  0
ARC
  5
27C
  8
0
  6
CONTINUOUS
 62
     7
 10
155.0265027619982
 20
440.0
 30
0.0
 40
9.300000000000015
 50
181.5886088045087
 51
178.4113911954912
  0
LINE
  5
27D
  8
0
  6
CONTINUOUS
 62
     7
 10
145.7300772496085
 20
439.7421770130691
 30
0.0
 11
146.2801618339917
 21
439.7469775285107
 31
0.0
  0
LINE
  5
27E
  8
0
  6
CONTINUOUS
 62
     7
 10
145.7300772496085
 20
440.2578229869309
 30
0.0
 11
146.2801618339917
 21
440.2530224714892
 31
0.0
  0
CIRCLE
  5
27F
  8
0
  6
CONTINUOUS
 62
   253
 10
155.0265027619982
 20
440.0
 30
0.0
 40
7.794597464236025
  0
ARC
  5
280
  8
0
  6
CONTINUOUS
 62
   253
 10
207.3526140733321
 20
471.5779009484649
 30
0.0
 40
60.07322054547219
 50
204.3563019586006
 51
209.4204095100569
  0
LINE
  5
281
  8
0
  6
CONTINUOUS
 62
     7
 10
155.0265027619982
 20
442.0690903702862
 30
0.0
 11
155.0265027619982
 21
441.1368506813931
 31
0.0
  0
ARC
  5
282
  8
0
  6
CONTINUOUS
 62
   253
 10
211.1971681986886
 20
473.4741314339165
 30
0.0
 40
64.81391349138035
 50
204.406512471318
 51
209.9289029642676
  0
LINE
  5
283
  8
0
  6
CONTINUOUS
 62
   253
 10
152.1752399161697
 20
446.692507810967
 30
0.0
 11
152.2248168060387
 21
446.6894262304143
 31
0.0
  0
LINE
  5
284
  8
0
  6
CONTINUOUS
 62
   253
 10
152.2248168060387
 20
446.6894262304143
 30
0.0
 11
152.288310344439
 21
446.6956142406291
 31
0.0
  0
LINE
  5
285
  8
0
  6
CONTINUOUS
 62
   253
 10
152.288310344439
 20
446.6956142406291
 30
0.0
 11
152.3632476431085
 21
446.7108308366492
 31
0.0
  0
LINE
  5
286
  8
0
  6
CONTINUOUS
 62
   253
 10
152.3632476431085
 20
446.7108308366492
 30
0.0
 11
152.4467101126767
 21
446.7344833764098
 31
0.0
  0
LINE
  5
287
  8
0
  6
CONTINUOUS
 62
   253
 10
152.4467101126767
 20
446.7344833764098
 30
0.0
 11
152.5354471332141
 21
446.7656506624251
 31
0.0
  0
LINE
  5
288
  8
0
  6
CONTINUOUS
 62
   253
 10
152.5354471332141
 20
446.7656506624251
 30
0.0
 11
152.6260026564042
 21
446.8031188197453
 31
0.0
  0
LINE
  5
289
  8
0
  6
CONTINUOUS
 62
     7
 10
155.0265027619982
 20
441.1368506813931
 30
0.0
 11
155.0265027619982
 21
440.5
 31
0.0
  0
LINE
  5
28A
  8
0
  6
CONTINUOUS
 62
     7
 10
151.6180169512717
 20
446.4036706010559
 30
0.0
 11
155.0265027619982
 21
440.5
 31
0.0
  0
ARC
  5
28B
  8
0
  6
CONTINUOUS
 62
   253
 10
155.2299521823355
 20
440.1174615775982
 30
0.0
 40
7.25
 50
114.9191924080309
 51
119.8808496278286
  0
LINE
  5
28C
  8
0
  6
CONTINUOUS
 62
     7
 10
154.5934900601059
 20
440.2499999999999
 30
0.0
 11
151.1850042493795
 21
446.1536706010559
 31
0.0
  0
LINE
  5
28D
  8
0
  6
CONTINUOUS
 62
     7
 10
154.5934900601059
 20
440.2499999999999
 30
0.0
 11
154.0419611916021
 21
440.5684253406965
 31
0.0
  0
ARC
  5
28E
  8
0
  6
CONTINUOUS
 62
   253
 10
97.98931700234085
 20
408.1161009222247
 30
0.0
 40
64.76922325278933
 50
30.06919035558973
 51
35.59539420882419
  0
ARC
  5
28F
  8
0
  6
CONTINUOUS
 62
   253
 10
154.8230533416608
 20
439.8825384224018
 30
0.0
 40
7.249999999999999
 50
120.1191503721713
 51
125.080807591969
  0
LINE
  5
290
  8
0
  6
CONTINUOUS
 62
     7
 10
154.0419611916021
 20
440.5684253406965
 30
0.0
 11
153.2346179386046
 21
441.034545185143
 31
0.0
  0
ARC
  5
291
  8
0
  6
CONTINUOUS
 62
   253
 10
101.34685290031
 20
410.3627750545072
 30
0.0
 40
60.27518265103668
 50
30.58808006030262
 51
35.63520847104012
  0
LINE
  5
292
  8
0
  6
CONTINUOUS
 62
   253
 10
150.3350790919317
 20
445.4804534831041
 30
0.0
 11
150.412805229599
 21
445.5401427879797
 31
0.0
  0
LINE
  5
293
  8
0
  6
CONTINUOUS
 62
   253
 10
150.412805229599
 20
445.5401427879797
 30
0.0
 11
150.484165401324
 21
445.6014076590136
 31
0.0
  0
LINE
  5
294
  8
0
  6
CONTINUOUS
 62
   253
 10
150.484165401324
 20
445.6014076590136
 30
0.0
 11
150.5463803364048
 21
445.6618620080419
 31
0.0
  0
LINE
  5
295
  8
0
  6
CONTINUOUS
 62
   253
 10
150.5463803364048
 20
445.6618620080419
 30
0.0
 11
150.597026944452
 21
445.7191513143707
 31
0.0
  0
LINE
  5
296
  8
0
  6
CONTINUOUS
 62
   253
 10
150.597026944452
 20
445.7191513143707
 30
0.0
 11
150.6341326876971
 21
445.7710443264941
 31
0.0
  0
LINE
  5
297
  8
0
  6
CONTINUOUS
 62
   253
 10
150.6341326876971
 20
445.7710443264941
 30
0.0
 11
150.6562524055892
 21
445.8155199628376
 31
0.0
  0
LINE
  5
298
  8
0
  6
CONTINUOUS
 62
     7
 10
155.4595154638904
 20
439.75
 30
0.0
 11
158.8680012746169
 21
433.8463293989441
 31
0.0
  0
LINE
  5
299
  8
0
  6
CONTINUOUS
 62
     7
 10
156.0110443323942
 20
439.4315746593034
 30
0.0
 11
155.4595154638904
 21
439.75
 31
0.0
  0
ARC
  5
29A
  8
0
  6
CONTINUOUS
 62
   253
 10
212.0636885216555
 20
471.8838990777753
 30
0.0
 40
64.76922325278932
 50
210.0691903555899
 51
215.5953942088242
  0
ARC
  5
29B
  8
0
  6
CONTINUOUS
 62
   253
 10
155.2299521823355
 20
440.1174615775982
 30
0.0
 40
7.250000000000004
 50
300.1191503721713
 51
305.0808075919691
  0
ARC
  5
29C
  8
0
  6
CONTINUOUS
 62
   253
 10
154.8230533416608
 20
440.1174615775982
 30
0.0
 40
7.249999999999999
 50
60.11915037217133
 51
65.08080759196908
  0
LINE
  5
29D
  8
0
  6
CONTINUOUS
 62
     7
 10
155.0265027619982
 20
440.5
 30
0.0
 11
158.4349885727246
 21
446.4036706010559
 31
0.0
  0
ARC
  5
29E
  8
0
  6
CONTINUOUS
 62
   253
 10
98.89243584852534
 20
473.4553484156293
 30
0.0
 40
64.7728242710172
 50
330.0693440882782
 51
335.5952404761362
  0
ARC
  5
29F
  8
0
  6
CONTINUOUS
 62
   253
 10
208.7061526236864
 20
469.6372249454927
 30
0.0
 40
60.27518265103668
 50
210.5880800603026
 51
215.6352084710401
  0
LINE
  5
2A0
  8
0
  6
CONTINUOUS
 62
   253
 10
159.7179264320646
 20
434.5195465168958
 30
0.0
 11
159.6402002943973
 21
434.4598572120203
 31
0.0
  0
LINE
  5
2A1
  8
0
  6
CONTINUOUS
 62
   253
 10
159.6402002943973
 20
434.4598572120203
 30
0.0
 11
159.5688401226723
 21
434.3985923409863
 31
0.0
  0
LINE
  5
2A2
  8
0
  6
CONTINUOUS
 62
   253
 10
159.5688401226723
 20
434.3985923409863
 30
0.0
 11
159.5066251875915
 21
434.338137991958
 31
0.0
  0
LINE
  5
2A3
  8
0
  6
CONTINUOUS
 62
   253
 10
159.5066251875915
 20
434.338137991958
 30
0.0
 11
159.4559785795443
 21
434.2808486856293
 31
0.0
  0
LINE
  5
2A4
  8
0
  6
CONTINUOUS
 62
   253
 10
159.4559785795443
 20
434.2808486856293
 30
0.0
 11
159.4188728362992
 21
434.2289556735059
 31
0.0
  0
LINE
  5
2A5
  8
0
  6
CONTINUOUS
 62
   253
 10
159.4188728362992
 20
434.2289556735059
 30
0.0
 11
159.3967531184071
 21
434.1844800371624
 31
0.0
  0
LINE
  5
2A6
  8
0
  6
CONTINUOUS
 62
     7
 10
156.8183875853917
 20
438.9654548148569
 30
0.0
 11
156.0110443323942
 21
439.4315746593034
 31
0.0
  0
ARC
  5
2A7
  8
0
  6
CONTINUOUS
 62
   253
 10
102.5200881306918
 20
471.6693279737254
 30
0.0
 40
60.27518265102745
 50
330.5880800603022
 51
335.6352084710404
  0
LINE
  5
2A8
  8
0
  6
CONTINUOUS
 62
   253
 10
157.427002867592
 20
446.8031188197454
 30
0.0
 11
157.5175583907822
 21
446.7656506624252
 31
0.0
  0
LINE
  5
2A9
  8
0
  6
CONTINUOUS
 62
   253
 10
157.5175583907822
 20
446.7656506624252
 30
0.0
 11
157.6062954113196
 21
446.7344833764098
 31
0.0
  0
LINE
  5
2AA
  8
0
  6
CONTINUOUS
 62
   253
 10
157.6062954113196
 20
446.7344833764098
 30
0.0
 11
157.6897578808878
 21
446.7108308366492
 31
0.0
  0
LINE
  5
2AB
  8
0
  6
CONTINUOUS
 62
   253
 10
157.6897578808878
 20
446.7108308366492
 30
0.0
 11
157.7646951795573
 21
446.6956142406292
 31
0.0
  0
LINE
  5
2AC
  8
0
  6
CONTINUOUS
 62
   253
 10
157.7646951795573
 20
446.6956142406292
 30
0.0
 11
157.8281887179575
 21
446.6894262304144
 31
0.0
  0
LINE
  5
2AD
  8
0
  6
CONTINUOUS
 62
   253
 10
157.8281887179575
 20
446.6894262304144
 30
0.0
 11
157.8777656078266
 21
446.692507810967
 31
0.0
  0
ARC
  5
2AE
  8
0
  6
CONTINUOUS
 62
   253
 10
154.1223872889532
 20
505.3822889326395
 30
0.0
 40
64.81391349141106
 50
264.4065124713202
 51
269.928902964267
  0
LINE
  5
2AF
  8
0
  6
CONTINUOUS
 62
   253
 10
147.8049895597608
 20
440.8769878481293
 30
0.0
 11
147.8324467317377
 21
440.9183819039202
 31
0.0
  0
LINE
  5
2B0
  8
0
  6
CONTINUOUS
 62
   253
 10
147.8324467317377
 20
440.9183819039202
 30
0.0
 11
147.8588345268929
 21
440.9764629262584
 31
0.0
  0
LINE
  5
2B1
  8
0
  6
CONTINUOUS
 62
   253
 10
147.8588345268929
 20
440.9764629262584
 30
0.0
 11
147.8831252175152
 21
441.0489688286072
 31
0.0
  0
LINE
  5
2B2
  8
0
  6
CONTINUOUS
 62
   253
 10
147.8831252175152
 20
441.0489688286072
 30
0.0
 11
147.9043727520026
 21
441.1330757173961
 31
0.0
  0
LINE
  5
2B3
  8
0
  6
CONTINUOUS
 62
   253
 10
147.9043727520026
 20
441.1330757173961
 30
0.0
 11
147.921749600815
 21
441.2255078744453
 31
0.0
  0
LINE
  5
2B4
  8
0
  6
CONTINUOUS
 62
   253
 10
147.921749600815
 20
441.2255078744453
 30
0.0
 11
147.9345789863378
 21
441.322665336641
 31
0.0
  0
ARC
  5
2B5
  8
0
  6
CONTINUOUS
 62
   253
 10
153.8422939981078
 20
501.1046921511294
 30
0.0
 40
60.07322054550172
 50
264.3563019586014
 51
269.4204095100553
  0
LINE
  5
2B6
  8
0
  6
CONTINUOUS
 62
     7
 10
147.776518438653
 20
440.2499999999999
 30
0.0
 11
154.5934900601059
 21
440.2499999999999
 31
0.0
  0
ARC
  5
2B7
  8
0
  6
CONTINUOUS
 62
   253
 10
155.0265027619982
 20
440.2349231551964
 30
0.0
 40
7.249999999999999
 50
174.9191924080308
 51
179.8808496278288
  0
LINE
  5
2B8
  8
0
  6
CONTINUOUS
 62
     7
 10
158.4349885727246
 20
433.5963293989441
 30
0.0
 11
155.0265027619982
 21
439.5
 31
0.0
  0
ARC
  5
2B9
  8
0
  6
CONTINUOUS
 62
   253
 10
154.8230533416608
 20
439.8825384224018
 30
0.0
 40
7.250000000000005
 50
294.9191924080309
 51
299.8808496278287
  0
ARC
  5
2BA
  8
0
  6
CONTINUOUS
 62
   253
 10
98.85882916354122
 20
406.527404031105
 30
0.0
 40
64.81055454755031
 50
24.40636925564775
 51
29.92904617993833
  0
LINE
  5
2BB
  8
0
  6
CONTINUOUS
 62
     7
 10
155.0265027619982
 20
438.8631493186069
 30
0.0
 11
155.0265027619982
 21
439.5
 31
0.0
  0
LINE
  5
2BC
  8
0
  6
CONTINUOUS
 62
   253
 10
157.8777656078266
 20
433.307492189033
 30
0.0
 11
157.8281887179575
 21
433.3105737695856
 31
0.0
  0
LINE
  5
2BD
  8
0
  6
CONTINUOUS
 62
   253
 10
157.8281887179575
 20
433.3105737695856
 30
0.0
 11
157.7646951795573
 21
433.3043857593708
 31
0.0
  0
LINE
  5
2BE
  8
0
  6
CONTINUOUS
 62
   253
 10
157.7646951795573
 20
433.3043857593708
 30
0.0
 11
157.6897578808878
 21
433.2891691633508
 31
0.0
  0
LINE
  5
2BF
  8
0
  6
CONTINUOUS
 62
   253
 10
157.6897578808878
 20
433.2891691633508
 30
0.0
 11
157.6062954113196
 21
433.2655166235901
 31
0.0
  0
LINE
  5
2C0
  8
0
  6
CONTINUOUS
 62
   253
 10
157.6062954113196
 20
433.2655166235901
 30
0.0
 11
157.5175583907821
 21
433.2343493375748
 31
0.0
  0
LINE
  5
2C1
  8
0
  6
CONTINUOUS
 62
   253
 10
157.5175583907821
 20
433.2343493375748
 30
0.0
 11
157.427002867592
 21
433.1968811802546
 31
0.0
  0
ARC
  5
2C2
  8
0
  6
CONTINUOUS
 62
   253
 10
102.7003914506552
 20
408.4220990515309
 30
0.0
 40
60.0732205454821
 50
24.35630195860072
 51
29.42040951005627
  0
LINE
  5
2C3
  8
0
  6
CONTINUOUS
 62
     7
 10
155.0265027619982
 20
438.8631493186069
 30
0.0
 11
155.0265027619982
 21
437.9309096297138
 31
0.0
  0
ARC
  5
2C4
  8
0
  6
CONTINUOUS
 62
   253
 10
154.1201764552221
 20
374.6623986328671
 30
0.0
 40
64.76922325279936
 50
90.06919035558963
 51
95.59539420882327
  0
LINE
  5
2C5
  8
0
  6
CONTINUOUS
 62
     7
 10
154.0419611916021
 20
439.4315746593034
 30
0.0
 11
153.2346179386046
 21
438.9654548148569
 31
0.0
  0
ARC
  5
2C6
  8
0
  6
CONTINUOUS
 62
   253
 10
153.8532675316242
 20
378.69344708079
 30
0.0
 40
60.27518265102458
 50
90.58808006030235
 51
95.63520847104108
  0
LINE
  5
2C7
  8
0
  6
CONTINUOUS
 62
   253
 10
147.9345789863378
 20
438.677334663359
 30
0.0
 11
147.921749600815
 21
438.7744921255547
 31
0.0
  0
LINE
  5
2C8
  8
0
  6
CONTINUOUS
 62
   253
 10
147.921749600815
 20
438.7744921255547
 30
0.0
 11
147.9043727520026
 21
438.8669242826039
 31
0.0
  0
LINE
  5
2C9
  8
0
  6
CONTINUOUS
 62
   253
 10
147.9043727520026
 20
438.8669242826039
 30
0.0
 11
147.8831252175152
 21
438.9510311713928
 31
0.0
  0
LINE
  5
2CA
  8
0
  6
CONTINUOUS
 62
   253
 10
147.8831252175152
 20
438.9510311713928
 30
0.0
 11
147.8588345268929
 21
439.0235370737416
 31
0.0
  0
LINE
  5
2CB
  8
0
  6
CONTINUOUS
 62
   253
 10
147.8588345268929
 20
439.0235370737416
 30
0.0
 11
147.8324467317377
 21
439.0816180960798
 31
0.0
  0
LINE
  5
2CC
  8
0
  6
CONTINUOUS
 62
   253
 10
147.8324467317377
 20
439.0816180960798
 30
0.0
 11
147.8049895597608
 21
439.1230121518707
 31
0.0
  0
LINE
  5
2CD
  8
0
  6
CONTINUOUS
 62
     7
 10
154.5934900601059
 20
439.75
 30
0.0
 11
147.776518438653
 21
439.75
 31
0.0
  0
LINE
  5
2CE
  8
0
  6
CONTINUOUS
 62
     7
 10
154.0419611916021
 20
439.4315746593034
 30
0.0
 11
154.5934900601059
 21
439.75
 31
0.0
  0
ARC
  5
2CF
  8
0
  6
CONTINUOUS
 62
   253
 10
155.0265027619982
 20
439.7650768448035
 30
0.0
 40
7.25
 50
180.1191503721712
 51
185.0808075919689
  0
ARC
  5
2D0
  8
0
  6
CONTINUOUS
 62
   253
 10
207.5329173933292
 20
408.3306720262621
 30
0.0
 40
60.27518265105513
 50
150.5880800603032
 51
155.6352084710394
  0
LINE
  5
2D1
  8
0
  6
CONTINUOUS
 62
   253
 10
152.6260026564042
 20
433.1968811802547
 30
0.0
 11
152.5354471332141
 21
433.2343493375749
 31
0.0
  0
LINE
  5
2D2
  8
0
  6
CONTINUOUS
 62
   253
 10
152.5354471332141
 20
433.2343493375749
 30
0.0
 11
152.4467101126767
 21
433.2655166235902
 31
0.0
  0
LINE
  5
2D3
  8
0
  6
CONTINUOUS
 62
   253
 10
152.4467101126767
 20
433.2655166235902
 30
0.0
 11
152.3632476431085
 21
433.2891691633508
 31
0.0
  0
LINE
  5
2D4
  8
0
  6
CONTINUOUS
 62
   253
 10
152.3632476431085
 20
433.2891691633508
 30
0.0
 11
152.288310344439
 21
433.3043857593709
 31
0.0
  0
LINE
  5
2D5
  8
0
  6
CONTINUOUS
 62
   253
 10
152.288310344439
 20
433.3043857593709
 30
0.0
 11
152.2248168060387
 21
433.3105737695857
 31
0.0
  0
LINE
  5
2D6
  8
0
  6
CONTINUOUS
 62
   253
 10
152.2248168060387
 20
433.3105737695857
 30
0.0
 11
152.1752399161697
 21
433.307492189033
 31
0.0
  0
ARC
  5
2D7
  8
0
  6
CONTINUOUS
 62
   253
 10
211.1573622148797
 20
406.5462977106522
 30
0.0
 40
64.7692232527896
 50
150.0691903555899
 51
155.5953942088241
  0
ARC
  5
2D8
  8
0
  6
CONTINUOUS
 62
   253
 10
97.95172185224754
 20
471.9081574987015
 30
0.0
 40
64.81391349139756
 50
324.4065124713188
 51
329.9289029642669
  0
LINE
  5
2D9
  8
0
  6
CONTINUOUS
 62
   253
 10
150.6562524055893
 20
434.1844800371624
 30
0.0
 11
150.6341326876971
 21
434.2289556735059
 31
0.0
  0
LINE
  5
2DA
  8
0
  6
CONTINUOUS
 62
   253
 10
150.6341326876971
 20
434.2289556735059
 30
0.0
 11
150.597026944452
 21
434.2808486856293
 31
0.0
  0
LINE
  5
2DB
  8
0
  6
CONTINUOUS
 62
   253
 10
150.597026944452
 20
434.2808486856293
 30
0.0
 11
150.5463803364048
 21
434.338137991958
 31
0.0
  0
LINE
  5
2DC
  8
0
  6
CONTINUOUS
 62
   253
 10
150.5463803364048
 20
434.338137991958
 30
0.0
 11
150.484165401324
 21
434.3985923409863
 31
0.0
  0
LINE
  5
2DD
  8
0
  6
CONTINUOUS
 62
   253
 10
150.484165401324
 20
434.3985923409863
 30
0.0
 11
150.412805229599
 21
434.4598572120202
 31
0.0
  0
LINE
  5
2DE
  8
0
  6
CONTINUOUS
 62
   253
 10
150.412805229599
 20
434.4598572120202
 30
0.0
 11
150.3350790919317
 21
434.5195465168958
 31
0.0
  0
ARC
  5
2DF
  8
0
  6
CONTINUOUS
 62
   253
 10
101.5161826867743
 20
469.5267912026337
 30
0.0
 40
60.07322054546943
 50
324.3563019586003
 51
329.4204095100569
  0
ARC
  5
2E0
  8
0
  6
CONTINUOUS
 62
   253
 10
155.2299521823355
 20
439.8825384224018
 30
0.0
 40
7.25
 50
240.1191503721713
 51
245.080807591969
  0
LINE
  5
2E1
  8
0
  6
CONTINUOUS
 62
     7
 10
155.0265027619982
 20
439.5
 30
0.0
 11
151.6180169512717
 21
433.5963293989441
 31
0.0
  0
LINE
  5
2E2
  8
0
  6
CONTINUOUS
 62
     7
 10
151.1850042493795
 20
433.8463293989441
 30
0.0
 11
154.5934900601059
 21
439.7499999999999
 31
0.0
  0
ARC
  5
2E3
  8
0
  6
CONTINUOUS
 62
   253
 10
154.8230533416608
 20
440.1174615775982
 30
0.0
 40
7.25
 50
234.9191924080308
 51
239.8808496278289
  0
LINE
  5
2E4
  8
0
  6
CONTINUOUS
 62
     7
 10
158.8680012746169
 20
446.1536706010559
 30
0.0
 11
155.4595154638904
 21
440.2499999999999
 31
0.0
  0
ARC
  5
2E5
  8
0
  6
CONTINUOUS
 62
   253
 10
155.2299521823355
 20
439.8825384224018
 30
0.0
 40
7.25
 50
54.91919240803086
 51
59.8808496278288
  0
ARC
  5
2E6
  8
0
  6
CONTINUOUS
 62
   253
 10
212.1012836717569
 20
408.0918425012935
 30
0.0
 40
64.81391349140708
 50
144.4065124713194
 51
149.9289029642667
  0
LINE
  5
2E7
  8
0
  6
CONTINUOUS
 62
     7
 10
156.0110443323942
 20
440.5684253406965
 30
0.0
 11
155.4595154638904
 21
440.2499999999999
 31
0.0
  0
LINE
  5
2E8
  8
0
  6
CONTINUOUS
 62
     7
 10
162.2764870853433
 20
439.7499999999999
 30
0.0
 11
155.4595154638904
 21
439.75
 31
0.0
  0
ARC
  5
2E9
  8
0
  6
CONTINUOUS
 62
   253
 10
155.0265027619982
 20
439.7650768448035
 30
0.0
 40
7.249999999999999
 50
354.9191924080308
 51
359.8808496278285
  0
ARC
  5
2EA
  8
0
  6
CONTINUOUS
 62
   253
 10
155.9306182350437
 20
374.6177110673831
 30
0.0
 40
64.81391349138842
 50
84.40651247131859
 51
89.92890296426742
  0
ARC
  5
2EB
  8
0
  6
CONTINUOUS
 62
   253
 10
156.2107115258885
 20
378.8953078488706
 30
0.0
 40
60.07322054550172
 50
84.35630195860139
 51
89.42040951005531
  0
LINE
  5
2EC
  8
0
  6
CONTINUOUS
 62
   253
 10
162.2480159642356
 20
439.1230121518707
 30
0.0
 11
162.2205587922587
 21
439.0816180960798
 31
0.0
  0
LINE
  5
2ED
  8
0
  6
CONTINUOUS
 62
   253
 10
162.2205587922587
 20
439.0816180960798
 30
0.0
 11
162.1941709971034
 21
439.0235370737416
 31
0.0
  0
LINE
  5
2EE
  8
0
  6
CONTINUOUS
 62
   253
 10
162.1941709971034
 20
439.0235370737416
 30
0.0
 11
162.1698803064812
 21
438.9510311713928
 31
0.0
  0
LINE
  5
2EF
  8
0
  6
CONTINUOUS
 62
   253
 10
162.1698803064812
 20
438.9510311713928
 30
0.0
 11
162.1486327719938
 21
438.8669242826039
 31
0.0
  0
LINE
  5
2F0
  8
0
  6
CONTINUOUS
 62
   253
 10
162.1486327719938
 20
438.8669242826039
 30
0.0
 11
162.1312559231814
 21
438.7744921255547
 31
0.0
  0
LINE
  5
2F1
  8
0
  6
CONTINUOUS
 62
   253
 10
162.1312559231814
 20
438.7744921255547
 30
0.0
 11
162.1184265376586
 21
438.677334663359
 31
0.0
  0
ARC
  5
2F2
  8
0
  6
CONTINUOUS
 62
   253
 10
208.536822837222
 20
410.4732087973663
 30
0.0
 40
60.07322054546943
 50
144.3563019586003
 51
149.420409510057
  0
LINE
  5
2F3
  8
0
  6
CONTINUOUS
 62
     7
 10
156.8183875853917
 20
441.034545185143
 30
0.0
 11
156.0110443323942
 21
440.5684253406965
 31
0.0
  0
LINE
  5
2F4
  8
0
  6
CONTINUOUS
 62
   253
 10
159.3967531184071
 20
445.8155199628376
 30
0.0
 11
159.4188728362993
 21
445.7710443264941
 31
0.0
  0
LINE
  5
2F5
  8
0
  6
CONTINUOUS
 62
   253
 10
159.4188728362993
 20
445.7710443264941
 30
0.0
 11
159.4559785795444
 21
445.7191513143707
 31
0.0
  0
LINE
  5
2F6
  8
0
  6
CONTINUOUS
 62
   253
 10
159.4559785795444
 20
445.7191513143707
 30
0.0
 11
159.5066251875916
 21
445.6618620080419
 31
0.0
  0
LINE
  5
2F7
  8
0
  6
CONTINUOUS
 62
   253
 10
159.5066251875916
 20
445.6618620080419
 30
0.0
 11
159.5688401226724
 21
445.6014076590135
 31
0.0
  0
LINE
  5
2F8
  8
0
  6
CONTINUOUS
 62
   253
 10
159.5688401226724
 20
445.6014076590135
 30
0.0
 11
159.6402002943974
 21
445.5401427879797
 31
0.0
  0
LINE
  5
2F9
  8
0
  6
CONTINUOUS
 62
   253
 10
159.6402002943974
 20
445.5401427879797
 30
0.0
 11
159.7179264320647
 21
445.4804534831041
 31
0.0
  0
ARC
  5
2FA
  8
0
  6
CONTINUOUS
 62
   253
 10
156.1997379923721
 20
501.30655291921
 30
0.0
 40
60.27518265102453
 50
270.5880800603023
 51
275.635208471041
  0
LINE
  5
2FB
  8
0
  6
CONTINUOUS
 62
   253
 10
162.1184265376586
 20
441.322665336641
 30
0.0
 11
162.1312559231814
 21
441.2255078744453
 31
0.0
  0
LINE
  5
2FC
  8
0
  6
CONTINUOUS
 62
   253
 10
162.1312559231814
 20
441.2255078744453
 30
0.0
 11
162.1486327719938
 21
441.1330757173961
 31
0.0
  0
LINE
  5
2FD
  8
0
  6
CONTINUOUS
 62
   253
 10
162.1486327719938
 20
441.1330757173961
 30
0.0
 11
162.1698803064812
 21
441.0489688286072
 31
0.0
  0
LINE
  5
2FE
  8
0
  6
CONTINUOUS
 62
   253
 10
162.1698803064812
 20
441.0489688286072
 30
0.0
 11
162.1941709971034
 21
440.9764629262584
 31
0.0
  0
LINE
  5
2FF
  8
0
  6
CONTINUOUS
 62
   253
 10
162.1941709971034
 20
440.9764629262584
 30
0.0
 11
162.2205587922587
 21
440.9183819039202
 31
0.0
  0
LINE
  5
300
  8
0
  6
CONTINUOUS
 62
   253
 10
162.2205587922587
 20
440.9183819039202
 30
0.0
 11
162.2480159642356
 21
440.8769878481293
 31
0.0
  0
ARC
  5
301
  8
0
  6
CONTINUOUS
 62
   253
 10
155.9328290687742
 20
505.337601367133
 30
0.0
 40
64.76922325279942
 50
270.0691903555898
 51
275.5953942088233
  0
LINE
  5
302
  8
0
  6
CONTINUOUS
 62
     7
 10
155.4595154638904
 20
440.2499999999999
 30
0.0
 11
162.2764870853433
 21
440.2499999999999
 31
0.0
  0
ARC
  5
303
  8
0
  6
CONTINUOUS
 62
   253
 10
155.0265027619982
 20
440.2349231551964
 30
0.0
 40
7.249999999999999
 50
0.1191503721712064
 51
5.080807591968864
  0
LINE
  5
304
  8
0
  6
CONTINUOUS
 62
   253
 10
147.5508350012872
 20
441.2432201448052
 30
0.0
 11
147.9345789863378
 21
441.3226653366411
 31
0.0
  0
ARC
  5
305
  8
0
  6
CONTINUOUS
 62
   253
 10
155.0265027619982
 20
440.0
 30
0.0
 40
7.578337865058732
 50
129.4420041121542
 51
170.5579958878873
  0
LINE
  5
306
  8
0
  6
CONTINUOUS
 62
   253
 10
150.3350790919317
 20
445.4804534831042
 30
0.0
 11
150.2120086537405
 21
445.8525081186219
 31
0.0
  0
LINE
  5
307
  8
0
  6
CONTINUOUS
 62
   253
 10
162.5021705227092
 20
438.7567798551948
 30
0.0
 11
162.1184265376585
 21
438.6773346633589
 31
0.0
  0
ARC
  5
308
  8
0
  6
CONTINUOUS
 62
   253
 10
155.0265027619982
 20
440.0
 30
0.0
 40
7.578337865058737
 50
309.4420041120711
 51
350.5579958878873
  0
LINE
  5
309
  8
0
  6
CONTINUOUS
 62
   253
 10
159.7179264320646
 20
434.5195465168958
 30
0.0
 11
159.8409968702473
 21
434.1474918813711
 31
0.0
  0
LINE
  5
30A
  8
0
  6
CONTINUOUS
 62
   253
 10
157.6876764144558
 20
432.9042717365693
 30
0.0
 11
157.427002867592
 21
433.1968811802547
 31
0.0
  0
ARC
  5
30B
  8
0
  6
CONTINUOUS
 62
   253
 10
155.0265027619982
 20
440.0
 30
0.0
 40
7.578337865058733
 50
249.4420041121542
 51
290.5579958878873
  0
LINE
  5
30C
  8
0
  6
CONTINUOUS
 62
   253
 10
152.6260026564043
 20
433.1968811802547
 30
0.0
 11
152.3653291095457
 21
432.9042717365674
 31
0.0
  0
LINE
  5
30D
  8
0
  6
CONTINUOUS
 62
   253
 10
152.3653291095406
 20
447.0957282634306
 30
0.0
 11
152.6260026564043
 21
446.8031188197452
 31
0.0
  0
ARC
  5
30E
  8
0
  6
CONTINUOUS
 62
   253
 10
155.0265027619982
 20
440.0
 30
0.0
 40
7.578337865058711
 50
69.44200411207113
 51
110.5579958878874
  0
LINE
  5
30F
  8
0
  6
CONTINUOUS
 62
   253
 10
157.4270028675921
 20
446.8031188197452
 30
0.0
 11
157.6876764144609
 21
447.0957282634287
 31
0.0
  0
LINE
  5
310
  8
0
  6
CONTINUOUS
 62
   253
 10
159.8409968702516
 20
445.8525081186254
 30
0.0
 11
159.7179264320646
 21
445.4804534831042
 31
0.0
  0
ARC
  5
311
  8
0
  6
CONTINUOUS
 62
   253
 10
155.0265027619982
 20
440.0
 30
0.0
 40
7.578337865058734
 50
9.44200411207117
 51
50.55799588788733
  0
LINE
  5
312
  8
0
  6
CONTINUOUS
 62
   253
 10
162.1184265376585
 20
441.3226653366411
 30
0.0
 11
162.50217052271
 21
441.2432201447998
 31
0.0
  0
LINE
  5
313
  8
0
  6
CONTINUOUS
 62
   253
 10
150.2120086537448
 20
434.1474918813745
 30
0.0
 11
150.3350790919317
 21
434.5195465168958
 31
0.0
  0
ARC
  5
314
  8
0
  6
CONTINUOUS
 62
   253
 10
155.0265027619982
 20
440.0
 30
0.0
 40
7.578337865058734
 50
189.4420041120711
 51
230.5579958878873
  0
LINE
  5
315
  8
0
  6
CONTINUOUS
 62
   253
 10
147.9345789863378
 20
438.6773346633589
 30
0.0
 11
147.5508350012863
 21
438.7567798552002
 31
0.0
  0
LINE
  5
316
  8
0
  6
CONTINUOUS
 62
   253
 10
162.6805641196052
 20
439.3208776886977
 30
0.0
 11
162.5021705227092
 21
438.7567798551948
 31
0.0
  0
ARC
  5
317
  8
0
  6
CONTINUOUS
 62
   253
 10
155.0265027619982
 20
440.0
 30
0.0
 40
7.68413055457303
 50
354.9295920682125
 51
5.070407931787487
  0
LINE
  5
318
  8
0
  6
CONTINUOUS
 62
   253
 10
162.50217052271
 20
441.2432201447998
 30
0.0
 11
162.6805641196052
 21
440.6791223113023
 31
0.0
  0
LINE
  5
319
  8
0
  6
CONTINUOUS
 62
   253
 10
159.4416706146663
 20
446.2890504221614
 30
0.0
 11
159.8409968702516
 21
445.8525081186254
 31
0.0
  0
ARC
  5
31A
  8
0
  6
CONTINUOUS
 62
   253
 10
155.0265027619982
 20
440.0
 30
0.0
 40
7.684130554572995
 50
54.92959206821246
 51
65.07040793178743
  0
LINE
  5
31B
  8
0
  6
CONTINUOUS
 62
   253
 10
157.6876764144609
 20
447.0957282634287
 30
0.0
 11
158.2653962669371
 21
446.9681727334637
 31
0.0
  0
LINE
  5
31C
  8
0
  6
CONTINUOUS
 62
   253
 10
151.7876092570592
 20
446.9681727334637
 30
0.0
 11
152.3653291095406
 21
447.0957282634306
 31
0.0
  0
ARC
  5
31D
  8
0
  6
CONTINUOUS
 62
   253
 10
155.0265027619982
 20
440.0
 30
0.0
 40
7.684130554572998
 50
114.9295920682125
 51
125.0704079317875
  0
LINE
  5
31E
  8
0
  6
CONTINUOUS
 62
   253
 10
150.2120086537405
 20
445.8525081186219
 30
0.0
 11
150.6113349093301
 21
446.2890504221614
 31
0.0
  0
LINE
  5
31F
  8
0
  6
CONTINUOUS
 62
   253
 10
147.3724414043911
 20
440.6791223113023
 30
0.0
 11
147.5508350012872
 21
441.2432201448052
 31
0.0
  0
ARC
  5
320
  8
0
  6
CONTINUOUS
 62
   253
 10
155.0265027619982
 20
440.0
 30
0.0
 40
7.684130554572946
 50
174.9295920682125
 51
185.0704079317875
  0
LINE
  5
321
  8
0
  6
CONTINUOUS
 62
   253
 10
147.5508350012863
 20
438.7567798552002
 30
0.0
 11
147.3724414043911
 21
439.3208776886977
 31
0.0
  0
LINE
  5
322
  8
0
  6
CONTINUOUS
 62
   253
 10
150.6113349093301
 20
433.7109495778386
 30
0.0
 11
150.2120086537448
 21
434.1474918813745
 31
0.0
  0
ARC
  5
323
  8
0
  6
CONTINUOUS
 62
   253
 10
155.0265027619982
 20
440.0
 30
0.0
 40
7.684130554572995
 50
234.9295920682125
 51
245.0704079317875
  0
LINE
  5
324
  8
0
  6
CONTINUOUS
 62
   253
 10
152.3653291095457
 20
432.9042717365674
 30
0.0
 11
151.7876092570592
 21
433.0318272665363
 31
0.0
  0
LINE
  5
325
  8
0
  6
CONTINUOUS
 62
   253
 10
158.2653962669371
 20
433.0318272665363
 30
0.0
 11
157.6876764144558
 21
432.9042717365693
 31
0.0
  0
ARC
  5
326
  8
0
  6
CONTINUOUS
 62
   253
 10
155.0265027619982
 20
440.0
 30
0.0
 40
7.684130554572981
 50
294.9295920682125
 51
305.0704079317874
  0
LINE
  5
327
  8
0
  6
CONTINUOUS
 62
   253
 10
159.8409968702473
 20
434.1474918813711
 30
0.0
 11
159.4416706146663
 21
433.7109495778386
 31
0.0
  0
LINE
  5
328
  8
0
  6
CONTINUOUS
 62
   253
 10
150.717133125468
 20
446.1383493983115
 30
0.0
 11
150.6032899012654
 21
445.9343580241036
 31
0.0
  0
LINE
  5
329
  8
0
  6
CONTINUOUS
 62
   253
 10
150.2120086537406
 20
445.8525081186165
 30
0.0
 11
150.3008880587119
 21
445.858887866963
 31
0.0
  0
LINE
  5
32A
  8
0
  6
CONTINUOUS
 62
   253
 10
150.3008880587119
 20
445.858887866963
 30
0.0
 11
150.3837252044261
 21
445.8687183249003
 31
0.0
  0
LINE
  5
32B
  8
0
  6
CONTINUOUS
 62
   253
 10
150.3837252044261
 20
445.8687183249003
 30
0.0
 11
150.4577007801054
 21
445.8816649189011
 31
0.0
  0
LINE
  5
32C
  8
0
  6
CONTINUOUS
 62
   253
 10
150.4577007801054
 20
445.8816649189011
 30
0.0
 11
150.5202970730017
 21
445.8972870196839
 31
0.0
  0
LINE
  5
32D
  8
0
  6
CONTINUOUS
 62
   253
 10
150.5202970730017
 20
445.8972870196839
 30
0.0
 11
150.5693836571848
 21
445.9150529387566
 31
0.0
  0
LINE
  5
32E
  8
0
  6
CONTINUOUS
 62
   253
 10
150.5693836571848
 20
445.9150529387566
 30
0.0
 11
150.6032899012654
 21
445.9343580241035
 31
0.0
  0
LINE
  5
32F
  8
0
  6
CONTINUOUS
 62
   253
 10
150.717133125468
 20
446.1383493983115
 30
0.0
 11
150.6113349093301
 21
446.2890504221614
 31
0.0
  0
LINE
  5
330
  8
0
  6
CONTINUOUS
 62
   253
 10
151.8652210640205
 20
433.1988017213117
 30
0.0
 11
152.0988043883389
 21
433.2022062842076
 31
0.0
  0
LINE
  5
331
  8
0
  6
CONTINUOUS
 62
   253
 10
152.3653291095504
 20
432.9042717365702
 30
0.0
 11
152.3153643829269
 21
432.9780536849753
 31
0.0
  0
LINE
  5
332
  8
0
  6
CONTINUOUS
 62
   253
 10
152.3153643829269
 20
432.9780536849753
 30
0.0
 11
152.2654323837654
 21
433.0448775285721
 31
0.0
  0
LINE
  5
333
  8
0
  6
CONTINUOUS
 62
   253
 10
152.2654323837654
 20
433.0448775285721
 30
0.0
 11
152.2172325166285
 21
433.1024689593696
 31
0.0
  0
LINE
  5
334
  8
0
  6
CONTINUOUS
 62
   253
 10
152.2172325166285
 20
433.1024689593696
 30
0.0
 11
152.1724052340419
 21
433.1488678888091
 31
0.0
  0
LINE
  5
335
  8
0
  6
CONTINUOUS
 62
   253
 10
152.1724052340419
 20
433.1488678888091
 30
0.0
 11
152.1324762047118
 21
433.1824951581602
 31
0.0
  0
LINE
  5
336
  8
0
  6
CONTINUOUS
 62
   253
 10
152.1324762047118
 20
433.1824951581602
 30
0.0
 11
152.0988043883389
 21
433.2022062842075
 31
0.0
  0
LINE
  5
337
  8
0
  6
CONTINUOUS
 62
   253
 10
151.8652210640205
 20
433.1988017213117
 30
0.0
 11
151.7876092570592
 21
433.0318272665363
 31
0.0
  0
LINE
  5
338
  8
0
  6
CONTINUOUS
 62
   253
 10
158.2653962669371
 20
446.9681727334637
 30
0.0
 11
158.1877844599758
 21
446.8011982786882
 31
0.0
  0
LINE
  5
339
  8
0
  6
CONTINUOUS
 62
   253
 10
158.1877844599758
 20
446.8011982786882
 30
0.0
 11
157.9542011356625
 21
446.7977937157955
 31
0.0
  0
LINE
  5
33A
  8
0
  6
CONTINUOUS
 62
   253
 10
157.6876764144609
 20
447.0957282634287
 30
0.0
 11
157.7376411410817
 21
447.0219463150241
 31
0.0
  0
LINE
  5
33B
  8
0
  6
CONTINUOUS
 62
   253
 10
157.7376411410817
 20
447.0219463150241
 30
0.0
 11
157.7875731402407
 21
446.9551224714278
 31
0.0
  0
LINE
  5
33C
  8
0
  6
CONTINUOUS
 62
   253
 10
157.7875731402407
 20
446.9551224714278
 30
0.0
 11
157.8357730073752
 21
446.897531040631
 31
0.0
  0
LINE
  5
33D
  8
0
  6
CONTINUOUS
 62
   253
 10
157.8357730073752
 20
446.897531040631
 30
0.0
 11
157.8806002899598
 21
446.851132111192
 31
0.0
  0
LINE
  5
33E
  8
0
  6
CONTINUOUS
 62
   253
 10
157.8806002899598
 20
446.851132111192
 30
0.0
 11
157.9205293192884
 21
446.8175048418412
 31
0.0
  0
LINE
  5
33F
  8
0
  6
CONTINUOUS
 62
   253
 10
157.9205293192884
 20
446.8175048418412
 30
0.0
 11
157.9542011356604
 21
446.7977937157942
 31
0.0
  0
LINE
  5
340
  8
0
  6
CONTINUOUS
 62
   253
 10
147.5558514274904
 20
439.3371511196233
 30
0.0
 11
147.6755915276009
 21
439.136564308314
 31
0.0
  0
LINE
  5
341
  8
0
  6
CONTINUOUS
 62
   253
 10
147.5508350012815
 20
438.7567798552028
 30
0.0
 11
147.5897496796303
 21
438.8369415519518
 31
0.0
  0
LINE
  5
342
  8
0
  6
CONTINUOUS
 62
   253
 10
147.5897496796303
 20
438.8369415519518
 30
0.0
 11
147.6226548261839
 21
438.9135958534832
 31
0.0
  0
LINE
  5
343
  8
0
  6
CONTINUOUS
 62
   253
 10
147.6226548261839
 20
438.9135958534832
 30
0.0
 11
147.6484305347274
 21
438.9841338782789
 31
0.0
  0
LINE
  5
344
  8
0
  6
CONTINUOUS
 62
   253
 10
147.6484305347274
 20
438.9841338782789
 30
0.0
 11
147.6661995450382
 21
439.046154908499
 31
0.0
  0
LINE
  5
345
  8
0
  6
CONTINUOUS
 62
   253
 10
147.6661995450382
 20
439.046154908499
 30
0.0
 11
147.6753570998922
 21
439.097548096921
 31
0.0
  0
LINE
  5
346
  8
0
  6
CONTINUOUS
 62
   253
 10
147.6753570998922
 20
439.097548096921
 30
0.0
 11
147.6755915276009
 21
439.136564308314
 31
0.0
  0
LINE
  5
347
  8
0
  6
CONTINUOUS
 62
   253
 10
147.5558514274904
 20
439.3371511196233
 30
0.0
 11
147.3724414043911
 21
439.3208776886977
 31
0.0
  0
LINE
  5
348
  8
0
  6
CONTINUOUS
 62
   253
 10
162.6805641196052
 20
440.6791223113023
 30
0.0
 11
162.497154096506
 21
440.6628488803767
 31
0.0
  0
LINE
  5
349
  8
0
  6
CONTINUOUS
 62
   253
 10
162.497154096506
 20
440.6628488803767
 30
0.0
 11
162.3774139963954
 21
440.863435691686
 31
0.0
  0
LINE
  5
34A
  8
0
  6
CONTINUOUS
 62
   253
 10
162.5021705227101
 20
441.2432201447998
 30
0.0
 11
162.4632558443614
 21
441.1630584480507
 31
0.0
  0
LINE
  5
34B
  8
0
  6
CONTINUOUS
 62
   253
 10
162.4632558443614
 20
441.1630584480507
 30
0.0
 11
162.430350697808
 21
441.0864041465192
 31
0.0
  0
LINE
  5
34C
  8
0
  6
CONTINUOUS
 62
   253
 10
162.430350697808
 20
441.0864041465192
 30
0.0
 11
162.4045749892649
 21
441.0158661217232
 31
0.0
  0
LINE
  5
34D
  8
0
  6
CONTINUOUS
 62
   253
 10
162.4045749892649
 20
441.0158661217232
 30
0.0
 11
162.3868059789547
 21
440.953845091503
 31
0.0
  0
LINE
  5
34E
  8
0
  6
CONTINUOUS
 62
   253
 10
162.3868059789547
 20
440.953845091503
 30
0.0
 11
162.3776484241012
 21
440.9024519030805
 31
0.0
  0
LINE
  5
34F
  8
0
  6
CONTINUOUS
 62
   253
 10
162.3776484241012
 20
440.9024519030805
 30
0.0
 11
162.3774139963933
 21
440.8634356916872
 31
0.0
  0
LINE
  5
350
  8
0
  6
CONTINUOUS
 62
   253
 10
159.4416706146663
 20
433.7109495778386
 30
0.0
 11
159.3358723985284
 21
433.8616506016884
 31
0.0
  0
LINE
  5
351
  8
0
  6
CONTINUOUS
 62
   253
 10
159.3358723985284
 20
433.8616506016884
 30
0.0
 11
159.4497156227311
 21
434.0656419758905
 31
0.0
  0
LINE
  5
352
  8
0
  6
CONTINUOUS
 62
   253
 10
159.8409968702473
 20
434.1474918813711
 30
0.0
 11
159.7521174652778
 21
434.1411121330266
 31
0.0
  0
LINE
  5
353
  8
0
  6
CONTINUOUS
 62
   253
 10
159.7521174652778
 20
434.1411121330266
 30
0.0
 11
159.6692803195655
 21
434.1312816750913
 31
0.0
  0
LINE
  5
354
  8
0
  6
CONTINUOUS
 62
   253
 10
159.6692803195655
 20
434.1312816750913
 30
0.0
 11
159.5953047438879
 21
434.1183350810923
 31
0.0
  0
LINE
  5
355
  8
0
  6
CONTINUOUS
 62
   253
 10
159.5953047438879
 20
434.1183350810923
 30
0.0
 11
159.5327084509931
 21
434.1027129803108
 31
0.0
  0
LINE
  5
356
  8
0
  6
CONTINUOUS
 62
   253
 10
159.5327084509931
 20
434.1027129803108
 30
0.0
 11
159.4836218668111
 21
434.0849470612392
 31
0.0
  0
LINE
  5
357
  8
0
  6
CONTINUOUS
 62
   253
 10
159.4836218668111
 20
434.0849470612392
 30
0.0
 11
159.449715622731
 21
434.065641975893
 31
0.0
  0
LINE
  5
358
  8
0
  6
CONTINUOUS
 62
   253
 10
147.6755915276035
 20
440.8634356916874
 30
0.0
 11
147.5558514274904
 21
440.6628488803767
 31
0.0
  0
LINE
  5
359
  8
0
  6
CONTINUOUS
 62
   253
 10
147.5558514274904
 20
440.6628488803767
 30
0.0
 11
147.3724414043911
 21
440.6791223113023
 31
0.0
  0
LINE
  5
35A
  8
0
  6
CONTINUOUS
 62
   253
 10
147.6755915276035
 20
440.8634356916874
 30
0.0
 11
147.6753570998953
 21
440.902451903081
 31
0.0
  0
LINE
  5
35B
  8
0
  6
CONTINUOUS
 62
   253
 10
147.6753570998953
 20
440.902451903081
 30
0.0
 11
147.6661995450418
 21
440.9538450915039
 31
0.0
  0
LINE
  5
35C
  8
0
  6
CONTINUOUS
 62
   253
 10
147.6661995450418
 20
440.9538450915039
 30
0.0
 11
147.6484305347315
 21
441.0158661217251
 31
0.0
  0
LINE
  5
35D
  8
0
  6
CONTINUOUS
 62
   253
 10
147.6484305347315
 20
441.0158661217251
 30
0.0
 11
147.6226548261886
 21
441.0864041465222
 31
0.0
  0
LINE
  5
35E
  8
0
  6
CONTINUOUS
 62
   253
 10
147.6226548261886
 20
441.0864041465222
 30
0.0
 11
147.5897496796354
 21
441.1630584480549
 31
0.0
  0
LINE
  5
35F
  8
0
  6
CONTINUOUS
 62
   253
 10
147.5897496796354
 20
441.1630584480549
 30
0.0
 11
147.5508350012872
 21
441.2432201448053
 31
0.0
  0
LINE
  5
360
  8
0
  6
CONTINUOUS
 62
   253
 10
157.95420113566
 20
433.2022062842061
 30
0.0
 11
157.9205293192879
 21
433.1824951581588
 31
0.0
  0
LINE
  5
361
  8
0
  6
CONTINUOUS
 62
   253
 10
157.9205293192879
 20
433.1824951581588
 30
0.0
 11
157.8806002899589
 21
433.1488678888076
 31
0.0
  0
LINE
  5
362
  8
0
  6
CONTINUOUS
 62
   253
 10
157.8806002899589
 20
433.1488678888076
 30
0.0
 11
157.8357730073735
 21
433.1024689593682
 31
0.0
  0
LINE
  5
363
  8
0
  6
CONTINUOUS
 62
   253
 10
157.8357730073735
 20
433.1024689593682
 30
0.0
 11
157.787573140238
 21
433.0448775285709
 31
0.0
  0
LINE
  5
364
  8
0
  6
CONTINUOUS
 62
   253
 10
157.787573140238
 20
433.0448775285709
 30
0.0
 11
157.7376411410779
 21
432.9780536849743
 31
0.0
  0
LINE
  5
365
  8
0
  6
CONTINUOUS
 62
   253
 10
157.7376411410779
 20
432.9780536849743
 30
0.0
 11
157.6876764144558
 21
432.9042717365693
 31
0.0
  0
LINE
  5
366
  8
0
  6
CONTINUOUS
 62
   253
 10
157.95420113566
 20
433.2022062842061
 30
0.0
 11
158.1877844599765
 21
433.1988017213116
 31
0.0
  0
LINE
  5
367
  8
0
  6
CONTINUOUS
 62
   253
 10
158.2653962669371
 20
433.0318272665363
 30
0.0
 11
158.1877844599758
 21
433.1988017213117
 31
0.0
  0
LINE
  5
368
  8
0
  6
CONTINUOUS
 62
   253
 10
152.0988043883363
 20
446.7977937157939
 30
0.0
 11
151.8652210640205
 21
446.8011982786882
 31
0.0
  0
LINE
  5
369
  8
0
  6
CONTINUOUS
 62
   253
 10
151.8652210640205
 20
446.8011982786882
 30
0.0
 11
151.7876092570592
 21
446.9681727334637
 31
0.0
  0
LINE
  5
36A
  8
0
  6
CONTINUOUS
 62
   253
 10
152.0988043883363
 20
446.7977937157939
 30
0.0
 11
152.1324762047085
 21
446.8175048418413
 31
0.0
  0
LINE
  5
36B
  8
0
  6
CONTINUOUS
 62
   253
 10
152.1324762047085
 20
446.8175048418413
 30
0.0
 11
152.1724052340375
 21
446.8511321111925
 31
0.0
  0
LINE
  5
36C
  8
0
  6
CONTINUOUS
 62
   253
 10
152.1724052340375
 20
446.8511321111925
 30
0.0
 11
152.2172325166228
 21
446.8975310406319
 31
0.0
  0
LINE
  5
36D
  8
0
  6
CONTINUOUS
 62
   253
 10
152.2172325166228
 20
446.8975310406319
 30
0.0
 11
152.2654323837583
 21
446.9551224714292
 31
0.0
  0
LINE
  5
36E
  8
0
  6
CONTINUOUS
 62
   253
 10
152.2654323837583
 20
446.9551224714292
 30
0.0
 11
152.3153643829185
 21
447.0219463150258
 31
0.0
  0
LINE
  5
36F
  8
0
  6
CONTINUOUS
 62
   253
 10
152.3153643829185
 20
447.0219463150258
 30
0.0
 11
152.3653291095406
 21
447.0957282634307
 31
0.0
  0
LINE
  5
370
  8
0
  6
CONTINUOUS
 62
   253
 10
150.6032899012653
 20
434.0656419758935
 30
0.0
 11
150.7171331254682
 21
433.8616506016878
 31
0.0
  0
LINE
  5
371
  8
0
  6
CONTINUOUS
 62
   253
 10
150.7171331254685
 20
433.8616506016881
 30
0.0
 11
150.6113349093304
 21
433.7109495778384
 31
0.0
  0
LINE
  5
372
  8
0
  6
CONTINUOUS
 62
   253
 10
150.6032899012654
 20
434.0656419758935
 30
0.0
 11
150.569383657185
 21
434.0849470612396
 31
0.0
  0
LINE
  5
373
  8
0
  6
CONTINUOUS
 62
   253
 10
150.569383657185
 20
434.0849470612396
 30
0.0
 11
150.5202970730025
 21
434.1027129803114
 31
0.0
  0
LINE
  5
374
  8
0
  6
CONTINUOUS
 62
   253
 10
150.5202970730025
 20
434.1027129803114
 30
0.0
 11
150.4577007801069
 21
434.1183350810932
 31
0.0
  0
LINE
  5
375
  8
0
  6
CONTINUOUS
 62
   253
 10
150.4577007801069
 20
434.1183350810932
 30
0.0
 11
150.3837252044284
 21
434.1312816750929
 31
0.0
  0
LINE
  5
376
  8
0
  6
CONTINUOUS
 62
   253
 10
150.3837252044284
 20
434.1312816750929
 30
0.0
 11
150.3008880587152
 21
434.1411121330291
 31
0.0
  0
LINE
  5
377
  8
0
  6
CONTINUOUS
 62
   253
 10
150.3008880587152
 20
434.1411121330291
 30
0.0
 11
150.2120086537448
 21
434.1474918813745
 31
0.0
  0
LINE
  5
378
  8
0
  6
CONTINUOUS
 62
   253
 10
159.449715622731
 20
445.9343580241065
 30
0.0
 11
159.4836218668113
 21
445.9150529387603
 31
0.0
  0
LINE
  5
379
  8
0
  6
CONTINUOUS
 62
   253
 10
159.4836218668113
 20
445.9150529387603
 30
0.0
 11
159.5327084509939
 21
445.8972870196886
 31
0.0
  0
LINE
  5
37A
  8
0
  6
CONTINUOUS
 62
   253
 10
159.5327084509939
 20
445.8972870196886
 30
0.0
 11
159.5953047438894
 21
445.8816649189067
 31
0.0
  0
LINE
  5
37B
  8
0
  6
CONTINUOUS
 62
   253
 10
159.5953047438894
 20
445.8816649189067
 30
0.0
 11
159.6692803195679
 21
445.868718324907
 31
0.0
  0
LINE
  5
37C
  8
0
  6
CONTINUOUS
 62
   253
 10
159.6692803195679
 20
445.868718324907
 30
0.0
 11
159.7521174652812
 21
445.8588878669709
 31
0.0
  0
LINE
  5
37D
  8
0
  6
CONTINUOUS
 62
   253
 10
159.7521174652812
 20
445.8588878669709
 30
0.0
 11
159.8409968702516
 21
445.8525081186254
 31
0.0
  0
LINE
  5
37E
  8
0
  6
CONTINUOUS
 62
   253
 10
159.449715622731
 20
445.9343580241065
 30
0.0
 11
159.3358723985284
 21
446.1383493983115
 31
0.0
  0
LINE
  5
37F
  8
0
  6
CONTINUOUS
 62
   253
 10
159.4416706146663
 20
446.2890504221614
 30
0.0
 11
159.3358723985284
 21
446.1383493983115
 31
0.0
  0
LINE
  5
380
  8
0
  6
CONTINUOUS
 62
   253
 10
162.3774139963928
 20
439.1365643083126
 30
0.0
 11
162.377648424101
 21
439.097548096919
 31
0.0
  0
LINE
  5
381
  8
0
  6
CONTINUOUS
 62
   253
 10
162.377648424101
 20
439.097548096919
 30
0.0
 11
162.3868059789546
 21
439.046154908496
 31
0.0
  0
LINE
  5
382
  8
0
  6
CONTINUOUS
 62
   253
 10
162.3868059789546
 20
439.046154908496
 30
0.0
 11
162.4045749892648
 21
438.9841338782749
 31
0.0
  0
LINE
  5
383
  8
0
  6
CONTINUOUS
 62
   253
 10
162.4045749892648
 20
438.9841338782749
 30
0.0
 11
162.4303506978078
 21
438.9135958534778
 31
0.0
  0
LINE
  5
384
  8
0
  6
CONTINUOUS
 62
   253
 10
162.4303506978078
 20
438.9135958534778
 30
0.0
 11
162.4632558443609
 21
438.8369415519451
 31
0.0
  0
LINE
  5
385
  8
0
  6
CONTINUOUS
 62
   253
 10
162.4632558443609
 20
438.8369415519451
 30
0.0
 11
162.5021705227092
 21
438.7567798551948
 31
0.0
  0
LINE
  5
386
  8
0
  6
CONTINUOUS
 62
   253
 10
162.3774139963928
 20
439.1365643083126
 30
0.0
 11
162.497154096506
 21
439.3371511196233
 31
0.0
  0
LINE
  5
387
  8
0
  6
CONTINUOUS
 62
   253
 10
162.6805641196052
 20
439.3208776886977
 30
0.0
 11
162.497154096506
 21
439.3371511196233
 31
0.0
  0
ARC
  5
388
  8
0
  6
CONTINUOUS
 62
     7
 10
155.0265027619982
 20
440.0
 30
0.0
 40
7.499999999999994
 50
174.9295920682126
 51
185.0704079317875
  0
ARC
  5
389
  8
0
  6
CONTINUOUS
 62
     7
 10
155.0265027619982
 20
440.0
 30
0.0
 40
7.500000000000011
 50
114.9295920682126
 51
125.0704079317874
  0
ARC
  5
38A
  8
0
  6
CONTINUOUS
 62
     7
 10
155.0265027619982
 20
440.0
 30
0.0
 40
7.500000000000001
 50
54.92959206821251
 51
65.07040793178737
  0
ARC
  5
38B
  8
0
  6
CONTINUOUS
 62
     7
 10
155.0265027619982
 20
440.0
 30
0.0
 40
7.499999999999981
 50
294.9295920682171
 51
305.0704079317873
  0
ARC
  5
38C
  8
0
  6
CONTINUOUS
 62
     7
 10
155.0265027619982
 20
440.0
 30
0.0
 40
7.499999999999994
 50
354.9295920682125
 51
5.070407931787429
  0
ARC
  5
38D
  8
0
  6
CONTINUOUS
 62
     7
 10
155.0265027619982
 20
440.0
 30
0.0
 40
7.500000000000003
 50
234.9295920682171
 51
245.0704079317875
  0
LINE
  5
38E
  8
0
  6
CONTINUOUS
 62
   253
 10
157.9542011356625
 20
446.7977937157955
 30
0.0
 11
157.8777656078266
 21
446.692507810967
 31
0.0
  0
LINE
  5
38F
  8
0
  6
CONTINUOUS
 62
   253
 10
150.6032899012654
 20
445.9343580241036
 30
0.0
 11
150.6562524055892
 21
445.8155199628376
 31
0.0
  0
LINE
  5
390
  8
0
  6
CONTINUOUS
 62
   253
 10
152.0988043883389
 20
433.2022062842076
 30
0.0
 11
152.1752399161697
 21
433.307492189033
 31
0.0
  0
LINE
  5
391
  8
0
  6
CONTINUOUS
 62
   253
 10
147.6755915276009
 20
439.136564308314
 30
0.0
 11
147.8049895597608
 21
439.1230121518707
 31
0.0
  0
LINE
  5
392
  8
0
  6
CONTINUOUS
 62
   253
 10
162.3774139963954
 20
440.863435691686
 30
0.0
 11
162.2480159642356
 21
440.8769878481293
 31
0.0
  0
LINE
  5
393
  8
0
  6
CONTINUOUS
 62
   253
 10
159.4497156227311
 20
434.0656419758905
 30
0.0
 11
159.3967531184071
 21
434.1844800371624
 31
0.0
  0
LINE
  5
394
  8
0
  6
CONTINUOUS
 62
   253
 10
147.8049895597608
 20
440.8769878481293
 30
0.0
 11
147.6755915276035
 21
440.8634356916874
 31
0.0
  0
LINE
  5
395
  8
0
  6
CONTINUOUS
 62
   253
 10
157.8777656078266
 20
433.307492189033
 30
0.0
 11
157.95420113566
 21
433.2022062842061
 31
0.0
  0
LINE
  5
396
  8
0
  6
CONTINUOUS
 62
   253
 10
162.2480159642356
 20
439.1230121518706
 30
0.0
 11
162.3774139963928
 21
439.1365643083126
 31
0.0
  0
LINE
  5
397
  8
0
  6
CONTINUOUS
 62
   253
 10
152.1752399161697
 20
446.692507810967
 30
0.0
 11
152.0988043883363
 21
446.7977937157939
 31
0.0
  0
LINE
  5
398
  8
0
  6
CONTINUOUS
 62
   253
 10
150.6562524055892
 20
434.1844800371624
 30
0.0
 11
150.6032899012653
 21
434.0656419758935
 31
0.0
  0
LINE
  5
399
  8
0
  6
CONTINUOUS
 62
   253
 10
159.3967531184071
 20
445.8155199628376
 30
0.0
 11
159.449715622731
 21
445.9343580241065
 31
0.0
  0
LINE
  5
39A
  8
0
  6
CONTINUOUS
 62
     7
 10
147.5265027619982
 20
440.0
 30
0.0
 11
147.526971585933
 21
439.9999999999989
 31
0.0
  0
LINE
  5
39B
  8
0
  6
CONTINUOUS
 62
     7
 10
147.526971585933
 20
439.9999999999989
 30
0.0
 11
147.5279297407005
 21
439.9877880834184
 31
0.0
  0
LINE
  5
39C
  8
0
  6
CONTINUOUS
 62
     7
 10
147.5279297407005
 20
439.9877880834184
 30
0.0
 11
147.5294195653281
 21
439.9756119457566
 31
0.0
  0
LINE
  5
39D
  8
0
  6
CONTINUOUS
 62
     7
 10
147.5294195653281
 20
439.9756119457566
 30
0.0
 11
147.5314367844763
 21
439.9635062192198
 31
0.0
  0
LINE
  5
39E
  8
0
  6
CONTINUOUS
 62
     7
 10
147.5314367844763
 20
439.9635062192198
 30
0.0
 11
147.533977122806
 21
439.9515055360139
 31
0.0
  0
LINE
  5
39F
  8
0
  6
CONTINUOUS
 62
     7
 10
147.533977122806
 20
439.9515055360139
 30
0.0
 11
147.5370363049781
 21
439.9396445283451
 31
0.0
  0
LINE
  5
3A0
  8
0
  6
CONTINUOUS
 62
     7
 10
147.5370363049781
 20
439.9396445283451
 30
0.0
 11
147.5404478697337
 21
439.9284415395499
 31
0.0
  0
LINE
  5
3A1
  8
0
  6
CONTINUOUS
 62
     7
 10
147.5404478697337
 20
439.9284415395499
 30
0.0
 11
147.5443324347157
 21
439.9173824957965
 31
0.0
  0
LINE
  5
3A2
  8
0
  6
CONTINUOUS
 62
     7
 10
147.5443324347157
 20
439.9173824957965
 30
0.0
 11
147.548681401139
 21
439.9064979242498
 31
0.0
  0
LINE
  5
3A3
  8
0
  6
CONTINUOUS
 62
     7
 10
147.548681401139
 20
439.9064979242498
 30
0.0
 11
147.5534861702187
 21
439.8958183520743
 31
0.0
  0
LINE
  5
3A4
  8
0
  6
CONTINUOUS
 62
     7
 10
147.5534861702187
 20
439.8958183520743
 30
0.0
 11
147.5589165010303
 21
439.8850353746828
 31
0.0
  0
LINE
  5
3A5
  8
0
  6
CONTINUOUS
 62
     7
 10
147.5589165010303
 20
439.8850353746828
 30
0.0
 11
147.5648275767231
 21
439.8744943451102
 31
0.0
  0
LINE
  5
3A6
  8
0
  6
CONTINUOUS
 62
     7
 10
147.5648275767231
 20
439.8744943451102
 30
0.0
 11
147.5712043226628
 21
439.8642287134611
 31
0.0
  0
LINE
  5
3A7
  8
0
  6
CONTINUOUS
 62
     7
 10
147.5712043226628
 20
439.8642287134611
 30
0.0
 11
147.5780316642154
 21
439.8542719298403
 31
0.0
  0
LINE
  5
3A8
  8
0
  6
CONTINUOUS
 62
     7
 10
147.5780316642154
 20
439.8542719298403
 30
0.0
 11
147.5848445150688
 21
439.8452241355328
 31
0.0
  0
LINE
  5
3A9
  8
0
  6
CONTINUOUS
 62
     7
 10
147.5848445150688
 20
439.8452241355328
 30
0.0
 11
147.5920475980662
 21
439.8364700182075
 31
0.0
  0
LINE
  5
3AA
  8
0
  6
CONTINUOUS
 62
     7
 10
147.5920475980662
 20
439.8364700182075
 30
0.0
 11
147.5996229901991
 21
439.8280364359327
 31
0.0
  0
LINE
  5
3AB
  8
0
  6
CONTINUOUS
 62
     7
 10
147.5996229901991
 20
439.8280364359327
 30
0.0
 11
147.6075527684588
 21
439.8199502467763
 31
0.0
  0
LINE
  5
3AC
  8
0
  6
CONTINUOUS
 62
     7
 10
147.6075527684588
 20
439.8199502467763
 30
0.0
 11
147.6161102795273
 21
439.8119767070287
 31
0.0
  0
LINE
  5
3AD
  8
0
  6
CONTINUOUS
 62
     7
 10
147.6161102795273
 20
439.8119767070287
 30
0.0
 11
147.6250347850045
 21
439.8043968063821
 31
0.0
  0
LINE
  5
3AE
  8
0
  6
CONTINUOUS
 62
     7
 10
147.6250347850045
 20
439.8043968063821
 30
0.0
 11
147.6342998080733
 21
439.797237747718
 31
0.0
  0
LINE
  5
3AF
  8
0
  6
CONTINUOUS
 62
     7
 10
147.6342998080733
 20
439.797237747718
 30
0.0
 11
147.6438788719161
 21
439.790526733918
 31
0.0
  0
LINE
  5
3B0
  8
0
  6
CONTINUOUS
 62
     7
 10
147.6438788719161
 20
439.790526733918
 30
0.0
 11
147.6528765728497
 21
439.7848115504326
 31
0.0
  0
LINE
  5
3B1
  8
0
  6
CONTINUOUS
 62
     7
 10
147.6528765728497
 20
439.7848115504326
 30
0.0
 11
147.6621216929389
 21
439.7794856991255
 31
0.0
  0
LINE
  5
3B2
  8
0
  6
CONTINUOUS
 62
     7
 10
147.6621216929389
 20
439.7794856991255
 30
0.0
 11
147.6715891209435
 21
439.774566395185
 31
0.0
  0
LINE
  5
3B3
  8
0
  6
CONTINUOUS
 62
     7
 10
147.6715891209435
 20
439.774566395185
 30
0.0
 11
147.6812537456233
 21
439.7700708537994
 31
0.0
  0
LINE
  5
3B4
  8
0
  6
CONTINUOUS
 62
     7
 10
147.6812537456233
 20
439.7700708537994
 30
0.0
 11
147.6914329702874
 21
439.7658823883498
 31
0.0
  0
LINE
  5
3B5
  8
0
  6
CONTINUOUS
 62
     7
 10
147.6914329702874
 20
439.7658823883498
 30
0.0
 11
147.7018041997923
 21
439.7621603036238
 31
0.0
  0
LINE
  5
3B6
  8
0
  6
CONTINUOUS
 62
     7
 10
147.7018041997923
 20
439.7621603036238
 30
0.0
 11
147.7123350633947
 21
439.7589179853211
 31
0.0
  0
LINE
  5
3B7
  8
0
  6
CONTINUOUS
 62
     7
 10
147.7123350633947
 20
439.7589179853211
 30
0.0
 11
147.7229931903515
 21
439.7561688191416
 31
0.0
  0
LINE
  5
3B8
  8
0
  6
CONTINUOUS
 62
     7
 10
147.7229931903515
 20
439.7561688191416
 30
0.0
 11
147.7335519995492
 21
439.7539608068187
 31
0.0
  0
LINE
  5
3B9
  8
0
  6
CONTINUOUS
 62
     7
 10
147.7335519995492
 20
439.7539608068187
 30
0.0
 11
147.7442175107005
 21
439.7522351327796
 31
0.0
  0
LINE
  5
3BA
  8
0
  6
CONTINUOUS
 62
     7
 10
147.7442175107005
 20
439.7522351327796
 30
0.0
 11
147.754956142083
 21
439.7509965829877
 31
0.0
  0
LINE
  5
3BB
  8
0
  6
CONTINUOUS
 62
     7
 10
147.754956142083
 20
439.7509965829877
 30
0.0
 11
147.7657343119745
 21
439.7502499434061
 31
0.0
  0
LINE
  5
3BC
  8
0
  6
CONTINUOUS
 62
     7
 10
147.7657343119745
 20
439.7502499434061
 30
0.0
 11
147.776518438653
 21
439.75
 31
0.0
  0
LINE
  5
3BD
  8
0
  6
CONTINUOUS
 62
     7
 10
158.7765027619982
 20
433.5048094716167
 30
0.0
 11
158.7762683500317
 21
433.5052154850546
 31
0.0
  0
LINE
  5
3BE
  8
0
  6
CONTINUOUS
 62
     7
 10
158.7762683500317
 20
433.5052154850546
 30
0.0
 11
158.7863651026356
 21
433.5121512297144
 31
0.0
  0
LINE
  5
3BF
  8
0
  6
CONTINUOUS
 62
     7
 10
158.7863651026356
 20
433.5121512297144
 30
0.0
 11
158.7961650348568
 21
433.5195295245199
 31
0.0
  0
LINE
  5
3C0
  8
0
  6
CONTINUOUS
 62
     7
 10
158.7961650348568
 20
433.5195295245199
 30
0.0
 11
158.8056402919949
 21
433.5273293508156
 31
0.0
  0
LINE
  5
3C1
  8
0
  6
CONTINUOUS
 62
     7
 10
158.8056402919949
 20
433.5273293508156
 30
0.0
 11
158.8147630193491
 21
433.5355296899464
 31
0.0
  0
LINE
  5
3C2
  8
0
  6
CONTINUOUS
 62
     7
 10
158.8147630193491
 20
433.5355296899464
 30
0.0
 11
158.8235053622188
 21
433.5441095232566
 31
0.0
  0
LINE
  5
3C3
  8
0
  6
CONTINUOUS
 62
     7
 10
158.8235053622188
 20
433.5441095232566
 30
0.0
 11
158.8315016527359
 21
433.5526655193993
 31
0.0
  0
LINE
  5
3C4
  8
0
  6
CONTINUOUS
 62
     7
 10
158.8315016527359
 20
433.5526655193993
 30
0.0
 11
158.8391367830769
 21
433.561559173233
 31
0.0
  0
LINE
  5
3C5
  8
0
  6
CONTINUOUS
 62
     7
 10
158.8391367830769
 20
433.561559173233
 30
0.0
 11
158.846388615334
 21
433.5707677744091
 31
0.0
  0
LINE
  5
3C6
  8
0
  6
CONTINUOUS
 62
     7
 10
158.846388615334
 20
433.5707677744091
 30
0.0
 11
158.8532350115997
 21
433.5802686125792
 31
0.0
  0
LINE
  5
3C7
  8
0
  6
CONTINUOUS
 62
     7
 10
158.8532350115997
 20
433.5802686125792
 30
0.0
 11
158.8598581785433
 21
433.5903629057088
 31
0.0
  0
LINE
  5
3C8
  8
0
  6
CONTINUOUS
 62
     7
 10
158.8598581785433
 20
433.5903629057088
 30
0.0
 11
158.8660314400889
 21
433.6007525622087
 31
0.0
  0
LINE
  5
3C9
  8
0
  6
CONTINUOUS
 62
     7
 10
158.8660314400889
 20
433.6007525622087
 30
0.0
 11
158.871733364913
 21
433.6114078020105
 31
0.0
  0
LINE
  5
3CA
  8
0
  6
CONTINUOUS
 62
     7
 10
158.871733364913
 20
433.6114078020105
 30
0.0
 11
158.8769425216923
 21
433.6222988450457
 31
0.0
  0
LINE
  5
3CB
  8
0
  6
CONTINUOUS
 62
     7
 10
158.8769425216923
 20
433.6222988450457
 30
0.0
 11
158.8813717159842
 21
433.6327228441108
 31
0.0
  0
LINE
  5
3CC
  8
0
  6
CONTINUOUS
 62
     7
 10
158.8813717159842
 20
433.6327228441108
 30
0.0
 11
158.8853514624768
 21
433.6433379556348
 31
0.0
  0
LINE
  5
3CD
  8
0
  6
CONTINUOUS
 62
     7
 10
158.8853514624768
 20
433.6433379556348
 30
0.0
 11
158.8888674629053
 21
433.6541152288029
 31
0.0
  0
LINE
  5
3CE
  8
0
  6
CONTINUOUS
 62
     7
 10
158.8888674629053
 20
433.6541152288029
 30
0.0
 11
158.8919054190046
 21
433.6650257128004
 31
0.0
  0
LINE
  5
3CF
  8
0
  6
CONTINUOUS
 62
     7
 10
158.8919054190046
 20
433.6650257128004
 30
0.0
 11
158.8945319514499
 21
433.6764235046526
 31
0.0
  0
LINE
  5
3D0
  8
0
  6
CONTINUOUS
 62
     7
 10
158.8945319514499
 20
433.6764235046526
 30
0.0
 11
158.8966340852294
 21
433.6879423034354
 31
0.0
  0
LINE
  5
3D1
  8
0
  6
CONTINUOUS
 62
     7
 10
158.8966340852294
 20
433.6879423034354
 30
0.0
 11
158.8982015003654
 21
433.6995455781117
 31
0.0
  0
LINE
  5
3D2
  8
0
  6
CONTINUOUS
 62
     7
 10
158.8982015003654
 20
433.6995455781117
 30
0.0
 11
158.8992238768799
 21
433.711196797644
 31
0.0
  0
LINE
  5
3D3
  8
0
  6
CONTINUOUS
 62
     7
 10
158.8992238768799
 20
433.711196797644
 30
0.0
 11
158.8996745204987
 21
433.7218466269709
 31
0.0
  0
LINE
  5
3D4
  8
0
  6
CONTINUOUS
 62
     7
 10
158.8996745204987
 20
433.7218466269709
 30
0.0
 11
158.8996642829828
 21
433.7325160614827
 31
0.0
  0
LINE
  5
3D5
  8
0
  6
CONTINUOUS
 62
     7
 10
158.8996642829828
 20
433.7325160614827
 30
0.0
 11
158.8991908111619
 21
433.7431747466134
 31
0.0
  0
LINE
  5
3D6
  8
0
  6
CONTINUOUS
 62
     7
 10
158.8991908111619
 20
433.7431747466134
 30
0.0
 11
158.8982517518658
 21
433.753792327797
 31
0.0
  0
LINE
  5
3D7
  8
0
  6
CONTINUOUS
 62
     7
 10
158.8982517518658
 20
433.753792327797
 30
0.0
 11
158.8967894570159
 21
433.7647020276718
 31
0.0
  0
LINE
  5
3D8
  8
0
  6
CONTINUOUS
 62
     7
 10
158.8967894570159
 20
433.7647020276718
 30
0.0
 11
158.8948272621913
 21
433.7755448182544
 31
0.0
  0
LINE
  5
3D9
  8
0
  6
CONTINUOUS
 62
     7
 10
158.8948272621913
 20
433.7755448182544
 30
0.0
 11
158.8923697604073
 21
433.7862859728092
 31
0.0
  0
LINE
  5
3DA
  8
0
  6
CONTINUOUS
 62
     7
 10
158.8923697604073
 20
433.7862859728092
 30
0.0
 11
158.8894215446796
 21
433.7968907646003
 31
0.0
  0
LINE
  5
3DB
  8
0
  6
CONTINUOUS
 62
     7
 10
158.8894215446796
 20
433.7968907646003
 30
0.0
 11
158.8860543348443
 21
433.8071389677607
 31
0.0
  0
LINE
  5
3DC
  8
0
  6
CONTINUOUS
 62
     7
 10
158.8860543348443
 20
433.8071389677607
 30
0.0
 11
158.8822160568251
 21
433.8172384083816
 31
0.0
  0
LINE
  5
3DD
  8
0
  6
CONTINUOUS
 62
     7
 10
158.8822160568251
 20
433.8172384083816
 30
0.0
 11
158.8779193567175
 21
433.8271576108568
 31
0.0
  0
LINE
  5
3DE
  8
0
  6
CONTINUOUS
 62
     7
 10
158.8779193567175
 20
433.8271576108568
 30
0.0
 11
158.8731768806169
 21
433.8368650995799
 31
0.0
  0
LINE
  5
3DF
  8
0
  6
CONTINUOUS
 62
     7
 10
158.8731768806169
 20
433.8368650995799
 30
0.0
 11
158.8680012746169
 21
433.8463293989441
 31
0.0
  0
LINE
  5
3E0
  8
0
  6
CONTINUOUS
 62
     7
 10
162.5265027619982
 20
440.0
 30
0.0
 11
162.5260339380634
 21
440.000000000001
 31
0.0
  0
LINE
  5
3E1
  8
0
  6
CONTINUOUS
 62
     7
 10
162.5260339380634
 20
440.000000000001
 30
0.0
 11
162.5250757832958
 21
440.0122119165816
 31
0.0
  0
LINE
  5
3E2
  8
0
  6
CONTINUOUS
 62
     7
 10
162.5250757832958
 20
440.0122119165816
 30
0.0
 11
162.5235859586683
 21
440.0243880542434
 31
0.0
  0
LINE
  5
3E3
  8
0
  6
CONTINUOUS
 62
     7
 10
162.5235859586683
 20
440.0243880542434
 30
0.0
 11
162.5215687395201
 21
440.0364937807802
 31
0.0
  0
LINE
  5
3E4
  8
0
  6
CONTINUOUS
 62
     7
 10
162.5215687395201
 20
440.0364937807802
 30
0.0
 11
162.5190284011903
 21
440.0484944639861
 31
0.0
  0
LINE
  5
3E5
  8
0
  6
CONTINUOUS
 62
     7
 10
162.5190284011903
 20
440.0484944639861
 30
0.0
 11
162.5159692190182
 21
440.0603554716549
 31
0.0
  0
LINE
  5
3E6
  8
0
  6
CONTINUOUS
 62
     7
 10
162.5159692190182
 20
440.0603554716549
 30
0.0
 11
162.5125576542626
 21
440.0715584604501
 31
0.0
  0
LINE
  5
3E7
  8
0
  6
CONTINUOUS
 62
     7
 10
162.5125576542626
 20
440.0715584604501
 30
0.0
 11
162.5086730892806
 21
440.0826175042035
 31
0.0
  0
LINE
  5
3E8
  8
0
  6
CONTINUOUS
 62
     7
 10
162.5086730892806
 20
440.0826175042035
 30
0.0
 11
162.5043241228573
 21
440.0935020757502
 31
0.0
  0
LINE
  5
3E9
  8
0
  6
CONTINUOUS
 62
     7
 10
162.5043241228573
 20
440.0935020757502
 30
0.0
 11
162.4995193537777
 21
440.1041816479257
 31
0.0
  0
LINE
  5
3EA
  8
0
  6
CONTINUOUS
 62
     7
 10
162.4995193537777
 20
440.1041816479257
 30
0.0
 11
162.494089022966
 21
440.1149646253172
 31
0.0
  0
LINE
  5
3EB
  8
0
  6
CONTINUOUS
 62
     7
 10
162.494089022966
 20
440.1149646253172
 30
0.0
 11
162.4881779472733
 21
440.1255056548898
 31
0.0
  0
LINE
  5
3EC
  8
0
  6
CONTINUOUS
 62
     7
 10
162.4881779472733
 20
440.1255056548898
 30
0.0
 11
162.4818012013335
 21
440.1357712865389
 31
0.0
  0
LINE
  5
3ED
  8
0
  6
CONTINUOUS
 62
     7
 10
162.4818012013335
 20
440.1357712865389
 30
0.0
 11
162.474973859781
 21
440.1457280701596
 31
0.0
  0
LINE
  5
3EE
  8
0
  6
CONTINUOUS
 62
     7
 10
162.474973859781
 20
440.1457280701596
 30
0.0
 11
162.4681610089276
 21
440.1547758644672
 31
0.0
  0
LINE
  5
3EF
  8
0
  6
CONTINUOUS
 62
     7
 10
162.4681610089276
 20
440.1547758644672
 30
0.0
 11
162.4609579259301
 21
440.1635299817925
 31
0.0
  0
LINE
  5
3F0
  8
0
  6
CONTINUOUS
 62
     7
 10
162.4609579259301
 20
440.1635299817925
 30
0.0
 11
162.4533825337972
 21
440.1719635640673
 31
0.0
  0
LINE
  5
3F1
  8
0
  6
CONTINUOUS
 62
     7
 10
162.4533825337972
 20
440.1719635640673
 30
0.0
 11
162.4454527555375
 21
440.1800497532237
 31
0.0
  0
LINE
  5
3F2
  8
0
  6
CONTINUOUS
 62
     7
 10
162.4454527555375
 20
440.1800497532237
 30
0.0
 11
162.436895244469
 21
440.1880232929713
 31
0.0
  0
LINE
  5
3F3
  8
0
  6
CONTINUOUS
 62
     7
 10
162.436895244469
 20
440.1880232929713
 30
0.0
 11
162.4279707389918
 21
440.1956031936179
 31
0.0
  0
LINE
  5
3F4
  8
0
  6
CONTINUOUS
 62
     7
 10
162.4279707389918
 20
440.1956031936179
 30
0.0
 11
162.4187057159231
 21
440.202762252282
 31
0.0
  0
LINE
  5
3F5
  8
0
  6
CONTINUOUS
 62
     7
 10
162.4187057159231
 20
440.202762252282
 30
0.0
 11
162.4091266520802
 21
440.209473266082
 31
0.0
  0
LINE
  5
3F6
  8
0
  6
CONTINUOUS
 62
     7
 10
162.4091266520802
 20
440.209473266082
 30
0.0
 11
162.4001289511466
 21
440.2151884495674
 31
0.0
  0
LINE
  5
3F7
  8
0
  6
CONTINUOUS
 62
     7
 10
162.4001289511466
 20
440.2151884495674
 30
0.0
 11
162.3908838310574
 21
440.2205143008744
 31
0.0
  0
LINE
  5
3F8
  8
0
  6
CONTINUOUS
 62
     7
 10
162.3908838310574
 20
440.2205143008744
 30
0.0
 11
162.3814164030528
 21
440.2254336048149
 31
0.0
  0
LINE
  5
3F9
  8
0
  6
CONTINUOUS
 62
     7
 10
162.3814164030528
 20
440.2254336048149
 30
0.0
 11
162.371751778373
 21
440.2299291462006
 31
0.0
  0
LINE
  5
3FA
  8
0
  6
CONTINUOUS
 62
     7
 10
162.371751778373
 20
440.2299291462006
 30
0.0
 11
162.3615725537089
 21
440.2341176116502
 31
0.0
  0
LINE
  5
3FB
  8
0
  6
CONTINUOUS
 62
     7
 10
162.3615725537089
 20
440.2341176116502
 30
0.0
 11
162.3512013242041
 21
440.2378396963762
 31
0.0
  0
LINE
  5
3FC
  8
0
  6
CONTINUOUS
 62
     7
 10
162.3512013242041
 20
440.2378396963762
 30
0.0
 11
162.3406704606016
 21
440.2410820146788
 31
0.0
  0
LINE
  5
3FD
  8
0
  6
CONTINUOUS
 62
     7
 10
162.3406704606016
 20
440.2410820146788
 30
0.0
 11
162.3300123336449
 21
440.2438311808584
 31
0.0
  0
LINE
  5
3FE
  8
0
  6
CONTINUOUS
 62
     7
 10
162.3300123336449
 20
440.2438311808584
 30
0.0
 11
162.3194535244471
 21
440.2460391931813
 31
0.0
  0
LINE
  5
3FF
  8
0
  6
CONTINUOUS
 62
     7
 10
162.3194535244471
 20
440.2460391931813
 30
0.0
 11
162.3087880132958
 21
440.2477648672204
 31
0.0
  0
LINE
  5
400
  8
0
  6
CONTINUOUS
 62
     7
 10
162.3087880132958
 20
440.2477648672204
 30
0.0
 11
162.2980493819133
 21
440.2490034170123
 31
0.0
  0
LINE
  5
401
  8
0
  6
CONTINUOUS
 62
     7
 10
162.2980493819133
 20
440.2490034170123
 30
0.0
 11
162.2872712120218
 21
440.2497500565939
 31
0.0
  0
LINE
  5
402
  8
0
  6
CONTINUOUS
 62
     7
 10
162.2872712120218
 20
440.2497500565939
 30
0.0
 11
162.2764870853433
 21
440.2499999999999
 31
0.0
  0
LINE
  5
403
  8
0
  6
CONTINUOUS
 62
     7
 10
158.7765027619982
 20
446.4951905283833
 30
0.0
 11
158.7762683500299
 21
446.4947845149464
 31
0.0
  0
LINE
  5
404
  8
0
  6
CONTINUOUS
 62
     7
 10
158.7762683500299
 20
446.4947845149464
 30
0.0
 11
158.7652134426584
 21
446.5000606868672
 31
0.0
  0
LINE
  5
405
  8
0
  6
CONTINUOUS
 62
     7
 10
158.7652134426584
 20
446.5000606868672
 30
0.0
 11
158.7539236858096
 21
446.5048585297234
 31
0.0
  0
LINE
  5
406
  8
0
  6
CONTINUOUS
 62
     7
 10
158.7539236858096
 20
446.5048585297234
 30
0.0
 11
158.7424312095233
 21
446.5091644299645
 31
0.0
  0
LINE
  5
407
  8
0
  6
CONTINUOUS
 62
     7
 10
158.7424312095233
 20
446.5091644299645
 30
0.0
 11
158.7307681438394
 21
446.5129647740397
 31
0.0
  0
LINE
  5
408
  8
0
  6
CONTINUOUS
 62
     7
 10
158.7307681438394
 20
446.5129647740397
 30
0.0
 11
158.7189666187977
 21
446.5162459483983
 31
0.0
  0
LINE
  5
409
  8
0
  6
CONTINUOUS
 62
     7
 10
158.7189666187977
 20
446.5162459483983
 30
0.0
 11
158.7075587635249
 21
446.5188929410509
 31
0.0
  0
LINE
  5
40A
  8
0
  6
CONTINUOUS
 62
     7
 10
158.7075587635249
 20
446.5188929410509
 30
0.0
 11
158.6960390682019
 21
446.5210583309704
 31
0.0
  0
LINE
  5
40B
  8
0
  6
CONTINUOUS
 62
     7
 10
158.6960390682019
 20
446.5210583309704
 30
0.0
 11
158.6844382695215
 21
446.522734301341
 31
0.0
  0
LINE
  5
40C
  8
0
  6
CONTINUOUS
 62
     7
 10
158.6844382695215
 20
446.522734301341
 30
0.0
 11
158.6727871041762
 21
446.5239130353465
 31
0.0
  0
LINE
  5
40D
  8
0
  6
CONTINUOUS
 62
     7
 10
158.6727871041762
 20
446.5239130353465
 30
0.0
 11
158.6607336064208
 21
446.5246017196084
 31
0.0
  0
LINE
  5
40E
  8
0
  6
CONTINUOUS
 62
     7
 10
158.6607336064208
 20
446.5246017196084
 30
0.0
 11
158.6486492691825
 21
446.5247530926811
 31
0.0
  0
LINE
  5
40F
  8
0
  6
CONTINUOUS
 62
     7
 10
158.6486492691825
 20
446.5247530926811
 30
0.0
 11
158.6365705984187
 21
446.5243634845284
 31
0.0
  0
LINE
  5
410
  8
0
  6
CONTINUOUS
 62
     7
 10
158.6365705984187
 20
446.5243634845284
 30
0.0
 11
158.6245341000868
 21
446.5234292251139
 31
0.0
  0
LINE
  5
411
  8
0
  6
CONTINUOUS
 62
     7
 10
158.6245341000868
 20
446.5234292251139
 30
0.0
 11
158.6132920549415
 21
446.5220530203565
 31
0.0
  0
LINE
  5
412
  8
0
  6
CONTINUOUS
 62
     7
 10
158.6132920549415
 20
446.5220530203565
 30
0.0
 11
158.6021092254514
 21
446.5201920261577
 31
0.0
  0
LINE
  5
413
  8
0
  6
CONTINUOUS
 62
     7
 10
158.6021092254514
 20
446.5201920261577
 30
0.0
 11
158.5910178328901
 21
446.5178483352644
 31
0.0
  0
LINE
  5
414
  8
0
  6
CONTINUOUS
 62
     7
 10
158.5910178328901
 20
446.5178483352644
 30
0.0
 11
158.580050098531
 21
446.5150240404233
 31
0.0
  0
LINE
  5
415
  8
0
  6
CONTINUOUS
 62
     7
 10
158.580050098531
 20
446.5150240404233
 30
0.0
 11
158.5688660550173
 21
446.5115997883186
 31
0.0
  0
LINE
  5
416
  8
0
  6
CONTINUOUS
 62
     7
 10
158.5688660550173
 20
446.5115997883186
 30
0.0
 11
158.5578394157605
 21
446.5076608901824
 31
0.0
  0
LINE
  5
417
  8
0
  6
CONTINUOUS
 62
     7
 10
158.5578394157605
 20
446.5076608901824
 30
0.0
 11
158.5470069775559
 21
446.5032166741703
 31
0.0
  0
LINE
  5
418
  8
0
  6
CONTINUOUS
 62
     7
 10
158.5470069775559
 20
446.5032166741703
 30
0.0
 11
158.5364055371985
 21
446.4982764684379
 31
0.0
  0
LINE
  5
419
  8
0
  6
CONTINUOUS
 62
     7
 10
158.5364055371985
 20
446.4982764684379
 30
0.0
 11
158.526957192646
 21
446.4933418225964
 31
0.0
  0
LINE
  5
41A
  8
0
  6
CONTINUOUS
 62
     7
 10
158.526957192646
 20
446.4933418225964
 30
0.0
 11
158.5177223100728
 21
446.4879982393917
 31
0.0
  0
LINE
  5
41B
  8
0
  6
CONTINUOUS
 62
     7
 10
158.5177223100728
 20
446.4879982393917
 30
0.0
 11
158.5087283538891
 21
446.4822588582015
 31
0.0
  0
LINE
  5
41C
  8
0
  6
CONTINUOUS
 62
     7
 10
158.5087283538891
 20
446.4822588582015
 30
0.0
 11
158.5000027885054
 21
446.4761368184035
 31
0.0
  0
LINE
  5
41D
  8
0
  6
CONTINUOUS
 62
     7
 10
158.5000027885054
 20
446.4761368184035
 30
0.0
 11
158.4912858586911
 21
446.4694155839784
 31
0.0
  0
LINE
  5
41E
  8
0
  6
CONTINUOUS
 62
     7
 10
158.4912858586911
 20
446.4694155839784
 30
0.0
 11
158.482876824011
 21
446.4622948781218
 31
0.0
  0
LINE
  5
41F
  8
0
  6
CONTINUOUS
 62
     7
 10
158.482876824011
 20
446.4622948781218
 30
0.0
 11
158.4748034621925
 21
446.4547960418696
 31
0.0
  0
LINE
  5
420
  8
0
  6
CONTINUOUS
 62
     7
 10
158.4748034621925
 20
446.4547960418696
 30
0.0
 11
158.4670935509635
 21
446.446940416258
 31
0.0
  0
LINE
  5
421
  8
0
  6
CONTINUOUS
 62
     7
 10
158.4670935509635
 20
446.446940416258
 30
0.0
 11
158.459901951601
 21
446.4389002254205
 31
0.0
  0
LINE
  5
422
  8
0
  6
CONTINUOUS
 62
     7
 10
158.459901951601
 20
446.4389002254205
 30
0.0
 11
158.4530747184689
 21
446.4305264588388
 31
0.0
  0
LINE
  5
423
  8
0
  6
CONTINUOUS
 62
     7
 10
158.4530747184689
 20
446.4305264588388
 30
0.0
 11
158.4466327871939
 21
446.4218458061555
 31
0.0
  0
LINE
  5
424
  8
0
  6
CONTINUOUS
 62
     7
 10
158.4466327871939
 20
446.4218458061555
 30
0.0
 11
158.4405970934031
 21
446.412884957014
 31
0.0
  0
LINE
  5
425
  8
0
  6
CONTINUOUS
 62
     7
 10
158.4405970934031
 20
446.412884957014
 30
0.0
 11
158.4349885727246
 21
446.4036706010559
 31
0.0
  0
LINE
  5
426
  8
0
  6
CONTINUOUS
 62
     7
 10
151.2765027619982
 20
446.4951905283833
 30
0.0
 11
151.2767371739647
 21
446.4947845149453
 31
0.0
  0
LINE
  5
427
  8
0
  6
CONTINUOUS
 62
     7
 10
151.2767371739647
 20
446.4947845149453
 30
0.0
 11
151.2666404213608
 21
446.4878487702856
 31
0.0
  0
LINE
  5
428
  8
0
  6
CONTINUOUS
 62
     7
 10
151.2666404213608
 20
446.4878487702856
 30
0.0
 11
151.2568404891395
 21
446.4804704754801
 31
0.0
  0
LINE
  5
429
  8
0
  6
CONTINUOUS
 62
     7
 10
151.2568404891395
 20
446.4804704754801
 30
0.0
 11
151.2473652320014
 21
446.4726706491843
 31
0.0
  0
LINE
  5
42A
  8
0
  6
CONTINUOUS
 62
     7
 10
151.2473652320014
 20
446.4726706491843
 30
0.0
 11
151.2382425046472
 21
446.4644703100536
 31
0.0
  0
LINE
  5
42B
  8
0
  6
CONTINUOUS
 62
     7
 10
151.2382425046472
 20
446.4644703100536
 30
0.0
 11
151.2295001617775
 21
446.4558904767434
 31
0.0
  0
LINE
  5
42C
  8
0
  6
CONTINUOUS
 62
     7
 10
151.2295001617775
 20
446.4558904767434
 30
0.0
 11
151.2215038712604
 21
446.4473344806007
 31
0.0
  0
LINE
  5
42D
  8
0
  6
CONTINUOUS
 62
     7
 10
151.2215038712604
 20
446.4473344806007
 30
0.0
 11
151.2138687409195
 21
446.438440826767
 31
0.0
  0
LINE
  5
42E
  8
0
  6
CONTINUOUS
 62
     7
 10
151.2138687409195
 20
446.438440826767
 30
0.0
 11
151.2066169086623
 21
446.4292322255909
 31
0.0
  0
LINE
  5
42F
  8
0
  6
CONTINUOUS
 62
     7
 10
151.2066169086623
 20
446.4292322255909
 30
0.0
 11
151.1997705123967
 21
446.4197313874208
 31
0.0
  0
LINE
  5
430
  8
0
  6
CONTINUOUS
 62
     7
 10
151.1997705123967
 20
446.4197313874208
 30
0.0
 11
151.193147345453
 21
446.4096370942912
 31
0.0
  0
LINE
  5
431
  8
0
  6
CONTINUOUS
 62
     7
 10
151.193147345453
 20
446.4096370942912
 30
0.0
 11
151.1869740839074
 21
446.3992474377913
 31
0.0
  0
LINE
  5
432
  8
0
  6
CONTINUOUS
 62
     7
 10
151.1869740839074
 20
446.3992474377913
 30
0.0
 11
151.1812721590833
 21
446.3885921979894
 31
0.0
  0
LINE
  5
433
  8
0
  6
CONTINUOUS
 62
     7
 10
151.1812721590833
 20
446.3885921979894
 30
0.0
 11
151.176063002304
 21
446.3777011549542
 31
0.0
  0
LINE
  5
434
  8
0
  6
CONTINUOUS
 62
     7
 10
151.176063002304
 20
446.3777011549542
 30
0.0
 11
151.1716338080121
 21
446.3672771558892
 31
0.0
  0
LINE
  5
435
  8
0
  6
CONTINUOUS
 62
     7
 10
151.1716338080121
 20
446.3672771558892
 30
0.0
 11
151.1676540615195
 21
446.3566620443652
 31
0.0
  0
LINE
  5
436
  8
0
  6
CONTINUOUS
 62
     7
 10
151.1676540615195
 20
446.3566620443652
 30
0.0
 11
151.1641380610911
 21
446.3458847711971
 31
0.0
  0
LINE
  5
437
  8
0
  6
CONTINUOUS
 62
     7
 10
151.1641380610911
 20
446.3458847711971
 30
0.0
 11
151.1611001049917
 21
446.3349742871996
 31
0.0
  0
LINE
  5
438
  8
0
  6
CONTINUOUS
 62
     7
 10
151.1611001049917
 20
446.3349742871996
 30
0.0
 11
151.1584735725464
 21
446.3235764953474
 31
0.0
  0
LINE
  5
439
  8
0
  6
CONTINUOUS
 62
     7
 10
151.1584735725464
 20
446.3235764953474
 30
0.0
 11
151.1563714387669
 21
446.3120576965646
 31
0.0
  0
LINE
  5
43A
  8
0
  6
CONTINUOUS
 62
     7
 10
151.1563714387669
 20
446.3120576965646
 30
0.0
 11
151.154804023631
 21
446.3004544218883
 31
0.0
  0
LINE
  5
43B
  8
0
  6
CONTINUOUS
 62
     7
 10
151.154804023631
 20
446.3004544218883
 30
0.0
 11
151.1537816471165
 21
446.2888032023559
 31
0.0
  0
LINE
  5
43C
  8
0
  6
CONTINUOUS
 62
     7
 10
151.1537816471165
 20
446.2888032023559
 30
0.0
 11
151.1533310034976
 21
446.2781533730291
 31
0.0
  0
LINE
  5
43D
  8
0
  6
CONTINUOUS
 62
     7
 10
151.1533310034976
 20
446.2781533730291
 30
0.0
 11
151.1533412410135
 21
446.2674839385173
 31
0.0
  0
LINE
  5
43E
  8
0
  6
CONTINUOUS
 62
     7
 10
151.1533412410135
 20
446.2674839385173
 30
0.0
 11
151.1538147128344
 21
446.2568252533866
 31
0.0
  0
LINE
  5
43F
  8
0
  6
CONTINUOUS
 62
     7
 10
151.1538147128344
 20
446.2568252533866
 30
0.0
 11
151.1547537721306
 21
446.246207672203
 31
0.0
  0
LINE
  5
440
  8
0
  6
CONTINUOUS
 62
     7
 10
151.1547537721306
 20
446.246207672203
 30
0.0
 11
151.1562160669804
 21
446.2352979723282
 31
0.0
  0
LINE
  5
441
  8
0
  6
CONTINUOUS
 62
     7
 10
151.1562160669804
 20
446.2352979723282
 30
0.0
 11
151.1581782618051
 21
446.2244551817456
 31
0.0
  0
LINE
  5
442
  8
0
  6
CONTINUOUS
 62
     7
 10
151.1581782618051
 20
446.2244551817456
 30
0.0
 11
151.160635763589
 21
446.2137140271908
 31
0.0
  0
LINE
  5
443
  8
0
  6
CONTINUOUS
 62
     7
 10
151.160635763589
 20
446.2137140271908
 30
0.0
 11
151.1635839793167
 21
446.2031092353997
 31
0.0
  0
LINE
  5
444
  8
0
  6
CONTINUOUS
 62
     7
 10
151.1635839793167
 20
446.2031092353997
 30
0.0
 11
151.1669511891521
 21
446.1928610322393
 31
0.0
  0
LINE
  5
445
  8
0
  6
CONTINUOUS
 62
     7
 10
151.1669511891521
 20
446.1928610322393
 30
0.0
 11
151.1707894671712
 21
446.1827615916183
 31
0.0
  0
LINE
  5
446
  8
0
  6
CONTINUOUS
 62
     7
 10
151.1707894671712
 20
446.1827615916183
 30
0.0
 11
151.1750861672788
 21
446.1728423891432
 31
0.0
  0
LINE
  5
447
  8
0
  6
CONTINUOUS
 62
     7
 10
151.1750861672788
 20
446.1728423891432
 30
0.0
 11
151.1798286433794
 21
446.1631349004201
 31
0.0
  0
LINE
  5
448
  8
0
  6
CONTINUOUS
 62
     7
 10
151.1798286433794
 20
446.1631349004201
 30
0.0
 11
151.1850042493795
 21
446.1536706010559
 31
0.0
  0
LINE
  5
449
  8
0
  6
CONTINUOUS
 62
     7
 10
151.2765027619982
 20
433.5048094716167
 30
0.0
 11
151.2767371739665
 21
433.5052154850536
 31
0.0
  0
LINE
  5
44A
  8
0
  6
CONTINUOUS
 62
     7
 10
151.2767371739665
 20
433.5052154850536
 30
0.0
 11
151.2877920813379
 21
433.4999393131328
 31
0.0
  0
LINE
  5
44B
  8
0
  6
CONTINUOUS
 62
     7
 10
151.2877920813379
 20
433.4999393131328
 30
0.0
 11
151.2990818381867
 21
433.4951414702766
 31
0.0
  0
LINE
  5
44C
  8
0
  6
CONTINUOUS
 62
     7
 10
151.2990818381867
 20
433.4951414702766
 30
0.0
 11
151.310574314473
 21
433.4908355700355
 31
0.0
  0
LINE
  5
44D
  8
0
  6
CONTINUOUS
 62
     7
 10
151.310574314473
 20
433.4908355700355
 30
0.0
 11
151.3222373801569
 21
433.4870352259603
 31
0.0
  0
LINE
  5
44E
  8
0
  6
CONTINUOUS
 62
     7
 10
151.3222373801569
 20
433.4870352259603
 30
0.0
 11
151.3340389051987
 21
433.4837540516016
 31
0.0
  0
LINE
  5
44F
  8
0
  6
CONTINUOUS
 62
     7
 10
151.3340389051987
 20
433.4837540516016
 30
0.0
 11
151.3454467604715
 21
433.4811070589491
 31
0.0
  0
LINE
  5
450
  8
0
  6
CONTINUOUS
 62
     7
 10
151.3454467604715
 20
433.4811070589491
 30
0.0
 11
151.3569664557944
 21
433.4789416690296
 31
0.0
  0
LINE
  5
451
  8
0
  6
CONTINUOUS
 62
     7
 10
151.3569664557944
 20
433.4789416690296
 30
0.0
 11
151.3685672544748
 21
433.477265698659
 31
0.0
  0
LINE
  5
452
  8
0
  6
CONTINUOUS
 62
     7
 10
151.3685672544748
 20
433.477265698659
 30
0.0
 11
151.3802184198202
 21
433.4760869646535
 31
0.0
  0
LINE
  5
453
  8
0
  6
CONTINUOUS
 62
     7
 10
151.3802184198202
 20
433.4760869646535
 30
0.0
 11
151.3922719175755
 21
433.4753982803916
 31
0.0
  0
LINE
  5
454
  8
0
  6
CONTINUOUS
 62
     7
 10
151.3922719175755
 20
433.4753982803916
 30
0.0
 11
151.4043562548138
 21
433.4752469073189
 31
0.0
  0
LINE
  5
455
  8
0
  6
CONTINUOUS
 62
     7
 10
151.4043562548138
 20
433.4752469073189
 30
0.0
 11
151.4164349255776
 21
433.4756365154716
 31
0.0
  0
LINE
  5
456
  8
0
  6
CONTINUOUS
 62
     7
 10
151.4164349255776
 20
433.4756365154716
 30
0.0
 11
151.4284714239095
 21
433.4765707748861
 31
0.0
  0
LINE
  5
457
  8
0
  6
CONTINUOUS
 62
     7
 10
151.4284714239095
 20
433.4765707748861
 30
0.0
 11
151.4397134690548
 21
433.4779469796435
 31
0.0
  0
LINE
  5
458
  8
0
  6
CONTINUOUS
 62
     7
 10
151.4397134690548
 20
433.4779469796435
 30
0.0
 11
151.4508962985449
 21
433.4798079738423
 31
0.0
  0
LINE
  5
459
  8
0
  6
CONTINUOUS
 62
     7
 10
151.4508962985449
 20
433.4798079738423
 30
0.0
 11
151.4619876911062
 21
433.4821516647356
 31
0.0
  0
LINE
  5
45A
  8
0
  6
CONTINUOUS
 62
     7
 10
151.4619876911062
 20
433.4821516647356
 30
0.0
 11
151.4729554254654
 21
433.4849759595767
 31
0.0
  0
LINE
  5
45B
  8
0
  6
CONTINUOUS
 62
     7
 10
151.4729554254654
 20
433.4849759595767
 30
0.0
 11
151.484139468979
 21
433.4884002116814
 31
0.0
  0
LINE
  5
45C
  8
0
  6
CONTINUOUS
 62
     7
 10
151.484139468979
 20
433.4884002116814
 30
0.0
 11
151.4951661082358
 21
433.4923391098175
 31
0.0
  0
LINE
  5
45D
  8
0
  6
CONTINUOUS
 62
     7
 10
151.4951661082358
 20
433.4923391098175
 30
0.0
 11
151.5059985464405
 21
433.4967833258297
 31
0.0
  0
LINE
  5
45E
  8
0
  6
CONTINUOUS
 62
     7
 10
151.5059985464405
 20
433.4967833258297
 30
0.0
 11
151.5165999867978
 21
433.501723531562
 31
0.0
  0
LINE
  5
45F
  8
0
  6
CONTINUOUS
 62
     7
 10
151.5165999867978
 20
433.501723531562
 30
0.0
 11
151.5260483313503
 21
433.5066581774035
 31
0.0
  0
LINE
  5
460
  8
0
  6
CONTINUOUS
 62
     7
 10
151.5260483313503
 20
433.5066581774035
 30
0.0
 11
151.5352832139236
 21
433.5120017606083
 31
0.0
  0
LINE
  5
461
  8
0
  6
CONTINUOUS
 62
     7
 10
151.5352832139236
 20
433.5120017606083
 30
0.0
 11
151.5442771701073
 21
433.5177411417985
 31
0.0
  0
LINE
  5
462
  8
0
  6
CONTINUOUS
 62
     7
 10
151.5442771701073
 20
433.5177411417985
 30
0.0
 11
151.5530027354909
 21
433.5238631815965
 31
0.0
  0
LINE
  5
463
  8
0
  6
CONTINUOUS
 62
     7
 10
151.5530027354909
 20
433.5238631815965
 30
0.0
 11
151.5617196653052
 21
433.5305844160216
 31
0.0
  0
LINE
  5
464
  8
0
  6
CONTINUOUS
 62
     7
 10
151.5617196653052
 20
433.5305844160216
 30
0.0
 11
151.5701286999854
 21
433.5377051218782
 31
0.0
  0
LINE
  5
465
  8
0
  6
CONTINUOUS
 62
     7
 10
151.5701286999854
 20
433.5377051218782
 30
0.0
 11
151.5782020618038
 21
433.5452039581304
 31
0.0
  0
LINE
  5
466
  8
0
  6
CONTINUOUS
 62
     7
 10
151.5782020618038
 20
433.5452039581304
 30
0.0
 11
151.5859119730329
 21
433.553059583742
 31
0.0
  0
LINE
  5
467
  8
0
  6
CONTINUOUS
 62
     7
 10
151.5859119730329
 20
433.553059583742
 30
0.0
 11
151.5931035723953
 21
433.5610997745795
 31
0.0
  0
LINE
  5
468
  8
0
  6
CONTINUOUS
 62
     7
 10
151.5931035723953
 20
433.5610997745795
 30
0.0
 11
151.5999308055274
 21
433.5694735411612
 31
0.0
  0
LINE
  5
469
  8
0
  6
CONTINUOUS
 62
     7
 10
151.5999308055274
 20
433.5694735411612
 30
0.0
 11
151.6063727368024
 21
433.5781541938445
 31
0.0
  0
LINE
  5
46A
  8
0
  6
CONTINUOUS
 62
     7
 10
151.6063727368024
 20
433.5781541938445
 30
0.0
 11
151.6124084305933
 21
433.5871150429859
 31
0.0
  0
LINE
  5
46B
  8
0
  6
CONTINUOUS
 62
     7
 10
151.6124084305933
 20
433.5871150429859
 30
0.0
 11
151.6180169512717
 21
433.5963293989441
 31
0.0
  0
LINE
  5
46C
  8
0
  6
CONTINUOUS
 62
     7
 10
158.4349885727246
 20
433.5963293989441
 30
0.0
 11
158.4401312481758
 21
433.5878430057573
 31
0.0
  0
LINE
  5
46D
  8
0
  6
CONTINUOUS
 62
     7
 10
158.4401312481758
 20
433.5878430057573
 30
0.0
 11
158.4456324630904
 21
433.5795738878632
 31
0.0
  0
LINE
  5
46E
  8
0
  6
CONTINUOUS
 62
     7
 10
158.4456324630904
 20
433.5795738878632
 30
0.0
 11
158.4514766667286
 21
433.5715434597784
 31
0.0
  0
LINE
  5
46F
  8
0
  6
CONTINUOUS
 62
     7
 10
158.4514766667286
 20
433.5715434597784
 30
0.0
 11
158.4576483083503
 21
433.5637731360195
 31
0.0
  0
LINE
  5
470
  8
0
  6
CONTINUOUS
 62
     7
 10
158.4576483083503
 20
433.5637731360195
 30
0.0
 11
158.4643404162305
 21
433.5560512007216
 31
0.0
  0
LINE
  5
471
  8
0
  6
CONTINUOUS
 62
     7
 10
158.4643404162305
 20
433.5560512007216
 30
0.0
 11
158.4713659264301
 21
433.5486182484465
 31
0.0
  0
LINE
  5
472
  8
0
  6
CONTINUOUS
 62
     7
 10
158.4713659264301
 20
433.5486182484465
 30
0.0
 11
158.4787037912755
 21
433.5414932963953
 31
0.0
  0
LINE
  5
473
  8
0
  6
CONTINUOUS
 62
     7
 10
158.4787037912755
 20
433.5414932963953
 30
0.0
 11
158.4863329630932
 21
433.534695361769
 31
0.0
  0
LINE
  5
474
  8
0
  6
CONTINUOUS
 62
     7
 10
158.4863329630932
 20
433.534695361769
 30
0.0
 11
158.4940117412337
 21
433.5284138327713
 31
0.0
  0
LINE
  5
475
  8
0
  6
CONTINUOUS
 62
     7
 10
158.4940117412337
 20
433.5284138327713
 30
0.0
 11
158.5019494000925
 21
433.5224488486209
 31
0.0
  0
LINE
  5
476
  8
0
  6
CONTINUOUS
 62
     7
 10
158.5019494000925
 20
433.5224488486209
 30
0.0
 11
158.5101243776858
 21
433.5168132012932
 31
0.0
  0
LINE
  5
477
  8
0
  6
CONTINUOUS
 62
     7
 10
158.5101243776858
 20
433.5168132012932
 30
0.0
 11
158.5185151120301
 21
433.5115196827645
 31
0.0
  0
LINE
  5
478
  8
0
  6
CONTINUOUS
 62
     7
 10
158.5185151120301
 20
433.5115196827645
 30
0.0
 11
158.5273548155335
 21
433.5064397387575
 31
0.0
  0
LINE
  5
479
  8
0
  6
CONTINUOUS
 62
     7
 10
158.5273548155335
 20
433.5064397387575
 30
0.0
 11
158.5364046581017
 21
433.5017255971745
 31
0.0
  0
LINE
  5
47A
  8
0
  6
CONTINUOUS
 62
     7
 10
158.5364046581017
 20
433.5017255971745
 30
0.0
 11
158.545640257269
 21
433.4973861392496
 31
0.0
  0
LINE
  5
47B
  8
0
  6
CONTINUOUS
 62
     7
 10
158.545640257269
 20
433.4973861392496
 30
0.0
 11
158.5550372305695
 21
433.493430246217
 31
0.0
  0
LINE
  5
47C
  8
0
  6
CONTINUOUS
 62
     7
 10
158.5550372305695
 20
433.493430246217
 30
0.0
 11
158.5645741481972
 21
433.4898641180086
 31
0.0
  0
LINE
  5
47D
  8
0
  6
CONTINUOUS
 62
     7
 10
158.5645741481972
 20
433.4898641180086
 30
0.0
 11
158.5742542741555
 21
433.4866811700131
 31
0.0
  0
LINE
  5
47E
  8
0
  6
CONTINUOUS
 62
     7
 10
158.5742542741555
 20
433.4866811700131
 30
0.0
 11
158.5840535453571
 21
433.48388569179
 31
0.0
  0
LINE
  5
47F
  8
0
  6
CONTINUOUS
 62
     7
 10
158.5840535453571
 20
433.48388569179
 30
0.0
 11
158.5939478987148
 21
433.4814819728984
 31
0.0
  0
LINE
  5
480
  8
0
  6
CONTINUOUS
 62
     7
 10
158.5939478987148
 20
433.4814819728984
 30
0.0
 11
158.6041899731743
 21
433.479422938765
 31
0.0
  0
LINE
  5
481
  8
0
  6
CONTINUOUS
 62
     7
 10
158.6041899731743
 20
433.479422938765
 30
0.0
 11
158.6145143993267
 21
433.4777738916877
 31
0.0
  0
LINE
  5
482
  8
0
  6
CONTINUOUS
 62
     7
 10
158.6145143993267
 20
433.4777738916877
 30
0.0
 11
158.6248962850338
 21
433.4765352886728
 31
0.0
  0
LINE
  5
483
  8
0
  6
CONTINUOUS
 62
     7
 10
158.6248962850338
 20
433.4765352886728
 30
0.0
 11
158.6353107381574
 21
433.475707586727
 31
0.0
  0
LINE
  5
484
  8
0
  6
CONTINUOUS
 62
     7
 10
158.6353107381574
 20
433.475707586727
 30
0.0
 11
158.6460662662955
 21
433.4752833172997
 31
0.0
  0
LINE
  5
485
  8
0
  6
CONTINUOUS
 62
     7
 10
158.6460662662955
 20
433.4752833172997
 30
0.0
 11
158.6568387417564
 21
433.475290265974
 31
0.0
  0
LINE
  5
486
  8
0
  6
CONTINUOUS
 62
     7
 10
158.6568387417564
 20
433.475290265974
 30
0.0
 11
158.6676026377804
 21
433.4757251673229
 31
0.0
  0
LINE
  5
487
  8
0
  6
CONTINUOUS
 62
     7
 10
158.6676026377804
 20
433.4757251673229
 30
0.0
 11
158.6783324276076
 21
433.4765847559198
 31
0.0
  0
LINE
  5
488
  8
0
  6
CONTINUOUS
 62
     7
 10
158.6783324276076
 20
433.4765847559198
 30
0.0
 11
158.6892978601405
 21
433.4779059400303
 31
0.0
  0
LINE
  5
489
  8
0
  6
CONTINUOUS
 62
     7
 10
158.6892978601405
 20
433.4779059400303
 30
0.0
 11
158.7002102014904
 21
433.4796673715481
 31
0.0
  0
LINE
  5
48A
  8
0
  6
CONTINUOUS
 62
     7
 10
158.7002102014904
 20
433.4796673715481
 30
0.0
 11
158.7110438560174
 21
433.481862198961
 31
0.0
  0
LINE
  5
48B
  8
0
  6
CONTINUOUS
 62
     7
 10
158.7110438560174
 20
433.481862198961
 30
0.0
 11
158.7217732280812
 21
433.4844835707568
 31
0.0
  0
LINE
  5
48C
  8
0
  6
CONTINUOUS
 62
     7
 10
158.7217732280812
 20
433.4844835707568
 30
0.0
 11
158.7357725022113
 21
433.4885960755533
 31
0.0
  0
LINE
  5
48D
  8
0
  6
CONTINUOUS
 62
     7
 10
158.7357725022113
 20
433.4885960755533
 30
0.0
 11
158.7495575422113
 21
433.4934376914155
 31
0.0
  0
LINE
  5
48E
  8
0
  6
CONTINUOUS
 62
     7
 10
158.7495575422113
 20
433.4934376914155
 30
0.0
 11
158.7630742056339
 21
433.4989852255227
 31
0.0
  0
LINE
  5
48F
  8
0
  6
CONTINUOUS
 62
     7
 10
158.7630742056339
 20
433.4989852255227
 30
0.0
 11
158.7762683500317
 21
433.5052154850546
 31
0.0
  0
LINE
  5
490
  8
0
  6
CONTINUOUS
 62
     7
 10
158.8680012746169
 20
446.1536706010559
 30
0.0
 11
158.8727793689775
 21
446.1623674852334
 31
0.0
  0
LINE
  5
491
  8
0
  6
CONTINUOUS
 62
     7
 10
158.8727793689775
 20
446.1623674852334
 30
0.0
 11
158.8771900276834
 21
446.1712662360482
 31
0.0
  0
LINE
  5
492
  8
0
  6
CONTINUOUS
 62
     7
 10
158.8771900276834
 20
446.1712662360482
 30
0.0
 11
158.8812224805891
 21
446.1803426789061
 31
0.0
  0
LINE
  5
493
  8
0
  6
CONTINUOUS
 62
     7
 10
158.8812224805891
 20
446.1803426789061
 30
0.0
 11
158.884865957549
 21
446.1895726392131
 31
0.0
  0
LINE
  5
494
  8
0
  6
CONTINUOUS
 62
     7
 10
158.884865957549
 20
446.1895726392131
 30
0.0
 11
158.8882072957432
 21
446.1992291422911
 31
0.0
  0
LINE
  5
495
  8
0
  6
CONTINUOUS
 62
     7
 10
158.8882072957432
 20
446.1992291422911
 30
0.0
 11
158.8911316661388
 21
446.209029888736
 31
0.0
  0
LINE
  5
496
  8
0
  6
CONTINUOUS
 62
     7
 10
158.8911316661388
 20
446.209029888736
 30
0.0
 11
158.8936331231933
 21
446.2189471421273
 31
0.0
  0
LINE
  5
497
  8
0
  6
CONTINUOUS
 62
     7
 10
158.8936331231933
 20
446.2189471421273
 30
0.0
 11
158.8957057213641
 21
446.2289531660444
 31
0.0
  0
LINE
  5
498
  8
0
  6
CONTINUOUS
 62
     7
 10
158.8957057213641
 20
446.2289531660444
 30
0.0
 11
158.8973062959803
 21
446.238743947483
 31
0.0
  0
LINE
  5
499
  8
0
  6
CONTINUOUS
 62
     7
 10
158.8973062959803
 20
446.238743947483
 30
0.0
 11
158.8985032943585
 21
446.2486006537765
 31
0.0
  0
LINE
  5
49A
  8
0
  6
CONTINUOUS
 62
     7
 10
158.8985032943585
 20
446.2486006537765
 30
0.0
 11
158.8992964193143
 21
446.2584982157114
 31
0.0
  0
LINE
  5
49B
  8
0
  6
CONTINUOUS
 62
     7
 10
158.8992964193143
 20
446.2584982157114
 30
0.0
 11
158.8996853736635
 21
446.2684115640744
 31
0.0
  0
LINE
  5
49C
  8
0
  6
CONTINUOUS
 62
     7
 10
158.8996853736635
 20
446.2684115640744
 30
0.0
 11
158.8996648824716
 21
446.2786069438737
 31
0.0
  0
LINE
  5
49D
  8
0
  6
CONTINUOUS
 62
     7
 10
158.8996648824716
 20
446.2786069438737
 30
0.0
 11
158.8992225275555
 21
446.2888014082296
 31
0.0
  0
LINE
  5
49E
  8
0
  6
CONTINUOUS
 62
     7
 10
158.8992225275555
 20
446.2888014082296
 30
0.0
 11
158.8983628087734
 21
446.2989694006901
 31
0.0
  0
LINE
  5
49F
  8
0
  6
CONTINUOUS
 62
     7
 10
158.8983628087734
 20
446.2989694006901
 30
0.0
 11
158.897090225984
 21
446.3090853648033
 31
0.0
  0
LINE
  5
4A0
  8
0
  6
CONTINUOUS
 62
     7
 10
158.897090225984
 20
446.3090853648033
 30
0.0
 11
158.8954101247918
 21
446.3191276418468
 31
0.0
  0
LINE
  5
4A1
  8
0
  6
CONTINUOUS
 62
     7
 10
158.8954101247918
 20
446.3191276418468
 30
0.0
 11
158.8933265756356
 21
446.3291023508363
 31
0.0
  0
LINE
  5
4A2
  8
0
  6
CONTINUOUS
 62
     7
 10
158.8933265756356
 20
446.3291023508363
 30
0.0
 11
158.8908478951918
 21
446.3389865077471
 31
0.0
  0
LINE
  5
4A3
  8
0
  6
CONTINUOUS
 62
     7
 10
158.8908478951918
 20
446.3389865077471
 30
0.0
 11
158.8879824001367
 21
446.3487571285547
 31
0.0
  0
LINE
  5
4A4
  8
0
  6
CONTINUOUS
 62
     7
 10
158.8879824001367
 20
446.3487571285547
 30
0.0
 11
158.8846445387736
 21
446.3586565422907
 31
0.0
  0
LINE
  5
4A5
  8
0
  6
CONTINUOUS
 62
     7
 10
158.8846445387736
 20
446.3586565422907
 30
0.0
 11
158.8809104423585
 21
446.3684222811569
 31
0.0
  0
LINE
  5
4A6
  8
0
  6
CONTINUOUS
 62
     7
 10
158.8809104423585
 20
446.3684222811569
 30
0.0
 11
158.876792161181
 21
446.3780325594258
 31
0.0
  0
LINE
  5
4A7
  8
0
  6
CONTINUOUS
 62
     7
 10
158.876792161181
 20
446.3780325594258
 30
0.0
 11
158.872301745531
 21
446.3874655913702
 31
0.0
  0
LINE
  5
4A8
  8
0
  6
CONTINUOUS
 62
     7
 10
158.872301745531
 20
446.3874655913702
 30
0.0
 11
158.8672914095641
 21
446.3969922866826
 31
0.0
  0
LINE
  5
4A9
  8
0
  6
CONTINUOUS
 62
     7
 10
158.8672914095641
 20
446.3969922866826
 30
0.0
 11
158.8618991541052
 21
446.4063180497564
 31
0.0
  0
LINE
  5
4AA
  8
0
  6
CONTINUOUS
 62
     7
 10
158.8618991541052
 20
446.4063180497564
 30
0.0
 11
158.8561405704768
 21
446.4154224064823
 31
0.0
  0
LINE
  5
4AB
  8
0
  6
CONTINUOUS
 62
     7
 10
158.8561405704768
 20
446.4154224064823
 30
0.0
 11
158.8500312500016
 21
446.4242848827515
 31
0.0
  0
LINE
  5
4AC
  8
0
  6
CONTINUOUS
 62
     7
 10
158.8500312500016
 20
446.4242848827515
 30
0.0
 11
158.8434043547324
 21
446.4331206338332
 31
0.0
  0
LINE
  5
4AD
  8
0
  6
CONTINUOUS
 62
     7
 10
158.8434043547324
 20
446.4331206338332
 30
0.0
 11
158.8364227396159
 21
446.4416902828981
 31
0.0
  0
LINE
  5
4AE
  8
0
  6
CONTINUOUS
 62
     7
 10
158.8364227396159
 20
446.4416902828981
 30
0.0
 11
158.8291051360559
 21
446.4499750892278
 31
0.0
  0
LINE
  5
4AF
  8
0
  6
CONTINUOUS
 62
     7
 10
158.8291051360559
 20
446.4499750892278
 30
0.0
 11
158.8214702754561
 21
446.4579563121038
 31
0.0
  0
LINE
  5
4B0
  8
0
  6
CONTINUOUS
 62
     7
 10
158.8214702754561
 20
446.4579563121038
 30
0.0
 11
158.8109091047641
 21
446.4680237867369
 31
0.0
  0
LINE
  5
4B1
  8
0
  6
CONTINUOUS
 62
     7
 10
158.8109091047641
 20
446.4680237867369
 30
0.0
 11
158.7998236224321
 21
446.477541173638
 31
0.0
  0
LINE
  5
4B2
  8
0
  6
CONTINUOUS
 62
     7
 10
158.7998236224321
 20
446.477541173638
 30
0.0
 11
158.7882609852556
 21
446.4864731804826
 31
0.0
  0
LINE
  5
4B3
  8
0
  6
CONTINUOUS
 62
     7
 10
158.7882609852556
 20
446.4864731804826
 30
0.0
 11
158.7762683500299
 21
446.4947845149464
 31
0.0
  0
LINE
  5
4B4
  8
0
  6
CONTINUOUS
 62
     7
 10
162.2764870853433
 20
439.7499999999999
 30
0.0
 11
162.2864078551552
 21
439.7502104909908
 31
0.0
  0
LINE
  5
4B5
  8
0
  6
CONTINUOUS
 62
     7
 10
162.2864078551552
 20
439.7502104909908
 30
0.0
 11
162.2963197287757
 21
439.7508401239114
 31
0.0
  0
LINE
  5
4B6
  8
0
  6
CONTINUOUS
 62
     7
 10
162.2963197287757
 20
439.7508401239114
 30
0.0
 11
162.3061963853195
 21
439.7518861386845
 31
0.0
  0
LINE
  5
4B7
  8
0
  6
CONTINUOUS
 62
     7
 10
162.3061963853195
 20
439.7518861386845
 30
0.0
 11
162.3160115039012
 21
439.7533457752326
 31
0.0
  0
LINE
  5
4B8
  8
0
  6
CONTINUOUS
 62
     7
 10
162.3160115039012
 20
439.7533457752326
 30
0.0
 11
162.3260449499756
 21
439.7552803430128
 31
0.0
  0
LINE
  5
4B9
  8
0
  6
CONTINUOUS
 62
     7
 10
162.3260449499756
 20
439.7552803430128
 30
0.0
 11
162.3359948305708
 21
439.7576481371826
 31
0.0
  0
LINE
  5
4BA
  8
0
  6
CONTINUOUS
 62
     7
 10
162.3359948305708
 20
439.7576481371826
 30
0.0
 11
162.3458341524706
 21
439.7604404385226
 31
0.0
  0
LINE
  5
4BB
  8
0
  6
CONTINUOUS
 62
     7
 10
162.3458341524706
 20
439.7604404385226
 30
0.0
 11
162.3555359224591
 21
439.7636485278134
 31
0.0
  0
LINE
  5
4BC
  8
0
  6
CONTINUOUS
 62
     7
 10
162.3555359224591
 20
439.7636485278134
 30
0.0
 11
162.364815275216
 21
439.7671577802543
 31
0.0
  0
LINE
  5
4BD
  8
0
  6
CONTINUOUS
 62
     7
 10
162.364815275216
 20
439.7671577802543
 30
0.0
 11
162.3739499324528
 21
439.7710495023973
 31
0.0
  0
LINE
  5
4BE
  8
0
  6
CONTINUOUS
 62
     7
 10
162.3739499324528
 20
439.7710495023973
 30
0.0
 11
162.3829180350019
 21
439.7753114170047
 31
0.0
  0
LINE
  5
4BF
  8
0
  6
CONTINUOUS
 62
     7
 10
162.3829180350019
 20
439.7753114170047
 30
0.0
 11
162.3916977236954
 21
439.7799312468388
 31
0.0
  0
LINE
  5
4C0
  8
0
  6
CONTINUOUS
 62
     7
 10
162.3916977236954
 20
439.7799312468388
 30
0.0
 11
162.4005169360069
 21
439.7850466826312
 31
0.0
  0
LINE
  5
4C1
  8
0
  6
CONTINUOUS
 62
     7
 10
162.4005169360069
 20
439.7850466826312
 30
0.0
 11
162.409124423659
 21
439.7905270054041
 31
0.0
  0
LINE
  5
4C2
  8
0
  6
CONTINUOUS
 62
     7
 10
162.409124423659
 20
439.7905270054041
 30
0.0
 11
162.4175003040442
 21
439.7963555399397
 31
0.0
  0
LINE
  5
4C3
  8
0
  6
CONTINUOUS
 62
     7
 10
162.4175003040442
 20
439.7963555399397
 30
0.0
 11
162.4256246945554
 21
439.8025156110203
 31
0.0
  0
LINE
  5
4C4
  8
0
  6
CONTINUOUS
 62
     7
 10
162.4256246945554
 20
439.8025156110203
 30
0.0
 11
162.4334815109908
 21
439.8089917598554
 31
0.0
  0
LINE
  5
4C5
  8
0
  6
CONTINUOUS
 62
     7
 10
162.4334815109908
 20
439.8089917598554
 30
0.0
 11
162.441078087793
 21
439.8157835208495
 31
0.0
  0
LINE
  5
4C6
  8
0
  6
CONTINUOUS
 62
     7
 10
162.441078087793
 20
439.8157835208495
 30
0.0
 11
162.4483986785508
 21
439.8228721995371
 31
0.0
  0
LINE
  5
4C7
  8
0
  6
CONTINUOUS
 62
     7
 10
162.4483986785508
 20
439.8228721995371
 30
0.0
 11
162.4554275368533
 21
439.830239101453
 31
0.0
  0
LINE
  5
4C8
  8
0
  6
CONTINUOUS
 62
     7
 10
162.4554275368533
 20
439.830239101453
 30
0.0
 11
162.4623317499498
 21
439.8380794810557
 31
0.0
  0
LINE
  5
4C9
  8
0
  6
CONTINUOUS
 62
     7
 10
162.4623317499498
 20
439.8380794810557
 30
0.0
 11
162.468922079687
 21
439.8461961728446
 31
0.0
  0
LINE
  5
4CA
  8
0
  6
CONTINUOUS
 62
     7
 10
162.468922079687
 20
439.8461961728446
 30
0.0
 11
162.4751856842166
 21
439.8545678480987
 31
0.0
  0
LINE
  5
4CB
  8
0
  6
CONTINUOUS
 62
     7
 10
162.4751856842166
 20
439.8545678480987
 30
0.0
 11
162.4811097216902
 21
439.8631731780974
 31
0.0
  0
LINE
  5
4CC
  8
0
  6
CONTINUOUS
 62
     7
 10
162.4811097216902
 20
439.8631731780974
 30
0.0
 11
162.4868549138614
 21
439.8722756039824
 31
0.0
  0
LINE
  5
4CD
  8
0
  6
CONTINUOUS
 62
     7
 10
162.4868549138614
 20
439.8722756039824
 30
0.0
 11
162.4922351338634
 21
439.8816083157304
 31
0.0
  0
LINE
  5
4CE
  8
0
  6
CONTINUOUS
 62
     7
 10
162.4922351338634
 20
439.8816083157304
 30
0.0
 11
162.4972404462591
 21
439.8911475738053
 31
0.0
  0
LINE
  5
4CF
  8
0
  6
CONTINUOUS
 62
     7
 10
162.4972404462591
 20
439.8911475738053
 30
0.0
 11
162.501860915611
 21
439.9008696386712
 31
0.0
  0
LINE
  5
4D0
  8
0
  6
CONTINUOUS
 62
     7
 10
162.501860915611
 20
439.9008696386712
 30
0.0
 11
162.5061994528747
 21
439.9110265738635
 31
0.0
  0
LINE
  5
4D1
  8
0
  6
CONTINUOUS
 62
     7
 10
162.5061994528747
 20
439.9110265738635
 30
0.0
 11
162.5101301791082
 21
439.9213576544462
 31
0.0
  0
LINE
  5
4D2
  8
0
  6
CONTINUOUS
 62
     7
 10
162.5101301791082
 20
439.9213576544462
 30
0.0
 11
162.5136462300751
 21
439.9318372881888
 31
0.0
  0
LINE
  5
4D3
  8
0
  6
CONTINUOUS
 62
     7
 10
162.5136462300751
 20
439.9318372881888
 30
0.0
 11
162.5167407415392
 21
439.9424398828607
 31
0.0
  0
LINE
  5
4D4
  8
0
  6
CONTINUOUS
 62
     7
 10
162.5167407415392
 20
439.9424398828607
 30
0.0
 11
162.5201788449773
 21
439.9566198622902
 31
0.0
  0
LINE
  5
4D5
  8
0
  6
CONTINUOUS
 62
     7
 10
162.5201788449773
 20
439.9566198622902
 30
0.0
 11
162.5228784026453
 21
439.9709788650534
 31
0.0
  0
LINE
  5
4D6
  8
0
  6
CONTINUOUS
 62
     7
 10
162.5228784026453
 20
439.9709788650534
 30
0.0
 11
162.5248324288913
 21
439.9854584060054
 31
0.0
  0
LINE
  5
4D7
  8
0
  6
CONTINUOUS
 62
     7
 10
162.5248324288913
 20
439.9854584060054
 30
0.0
 11
162.5260339380634
 21
440.000000000001
 31
0.0
  0
LINE
  5
4D8
  8
0
  6
CONTINUOUS
 62
     7
 10
147.776518438653
 20
440.2499999999999
 30
0.0
 11
147.7665976688411
 21
440.2497895090092
 31
0.0
  0
LINE
  5
4D9
  8
0
  6
CONTINUOUS
 62
     7
 10
147.7665976688411
 20
440.2497895090092
 30
0.0
 11
147.7566857952206
 21
440.2491598760886
 31
0.0
  0
LINE
  5
4DA
  8
0
  6
CONTINUOUS
 62
     7
 10
147.7566857952206
 20
440.2491598760886
 30
0.0
 11
147.7468091386768
 21
440.2481138613155
 31
0.0
  0
LINE
  5
4DB
  8
0
  6
CONTINUOUS
 62
     7
 10
147.7468091386768
 20
440.2481138613155
 30
0.0
 11
147.7369940200951
 21
440.2466542247674
 31
0.0
  0
LINE
  5
4DC
  8
0
  6
CONTINUOUS
 62
     7
 10
147.7369940200951
 20
440.2466542247674
 30
0.0
 11
147.7269605740207
 21
440.2447196569872
 31
0.0
  0
LINE
  5
4DD
  8
0
  6
CONTINUOUS
 62
     7
 10
147.7269605740207
 20
440.2447196569872
 30
0.0
 11
147.7170106934256
 21
440.2423518628174
 31
0.0
  0
LINE
  5
4DE
  8
0
  6
CONTINUOUS
 62
     7
 10
147.7170106934256
 20
440.2423518628174
 30
0.0
 11
147.7071713715257
 21
440.2395595614774
 31
0.0
  0
LINE
  5
4DF
  8
0
  6
CONTINUOUS
 62
     7
 10
147.7071713715257
 20
440.2395595614774
 30
0.0
 11
147.6974696015373
 21
440.2363514721866
 31
0.0
  0
LINE
  5
4E0
  8
0
  6
CONTINUOUS
 62
     7
 10
147.6974696015373
 20
440.2363514721866
 30
0.0
 11
147.6881902487804
 21
440.2328422197457
 31
0.0
  0
LINE
  5
4E1
  8
0
  6
CONTINUOUS
 62
     7
 10
147.6881902487804
 20
440.2328422197457
 30
0.0
 11
147.6790555915435
 21
440.2289504976027
 31
0.0
  0
LINE
  5
4E2
  8
0
  6
CONTINUOUS
 62
     7
 10
147.6790555915435
 20
440.2289504976027
 30
0.0
 11
147.6700874889944
 21
440.2246885829953
 31
0.0
  0
LINE
  5
4E3
  8
0
  6
CONTINUOUS
 62
     7
 10
147.6700874889944
 20
440.2246885829953
 30
0.0
 11
147.661307800301
 21
440.2200687531612
 31
0.0
  0
LINE
  5
4E4
  8
0
  6
CONTINUOUS
 62
     7
 10
147.661307800301
 20
440.2200687531612
 30
0.0
 11
147.6524885879894
 21
440.2149533173688
 31
0.0
  0
LINE
  5
4E5
  8
0
  6
CONTINUOUS
 62
     7
 10
147.6524885879894
 20
440.2149533173688
 30
0.0
 11
147.6438811003373
 21
440.2094729945959
 31
0.0
  0
LINE
  5
4E6
  8
0
  6
CONTINUOUS
 62
     7
 10
147.6438811003373
 20
440.2094729945959
 30
0.0
 11
147.6355052199521
 21
440.2036444600603
 31
0.0
  0
LINE
  5
4E7
  8
0
  6
CONTINUOUS
 62
     7
 10
147.6355052199521
 20
440.2036444600603
 30
0.0
 11
147.627380829441
 21
440.1974843889797
 31
0.0
  0
LINE
  5
4E8
  8
0
  6
CONTINUOUS
 62
     7
 10
147.627380829441
 20
440.1974843889797
 30
0.0
 11
147.6195240130055
 21
440.1910082401446
 31
0.0
  0
LINE
  5
4E9
  8
0
  6
CONTINUOUS
 62
     7
 10
147.6195240130055
 20
440.1910082401446
 30
0.0
 11
147.6119274362034
 21
440.1842164791505
 31
0.0
  0
LINE
  5
4EA
  8
0
  6
CONTINUOUS
 62
     7
 10
147.6119274362034
 20
440.1842164791505
 30
0.0
 11
147.6046068454455
 21
440.1771278004629
 31
0.0
  0
LINE
  5
4EB
  8
0
  6
CONTINUOUS
 62
     7
 10
147.6046068454455
 20
440.1771278004629
 30
0.0
 11
147.597577987143
 21
440.169760898547
 31
0.0
  0
LINE
  5
4EC
  8
0
  6
CONTINUOUS
 62
     7
 10
147.597577987143
 20
440.169760898547
 30
0.0
 11
147.5906737740466
 21
440.1619205189443
 31
0.0
  0
LINE
  5
4ED
  8
0
  6
CONTINUOUS
 62
     7
 10
147.5906737740466
 20
440.1619205189443
 30
0.0
 11
147.5840834443093
 21
440.1538038271554
 31
0.0
  0
LINE
  5
4EE
  8
0
  6
CONTINUOUS
 62
     7
 10
147.5840834443093
 20
440.1538038271554
 30
0.0
 11
147.5778198397797
 21
440.1454321519013
 31
0.0
  0
LINE
  5
4EF
  8
0
  6
CONTINUOUS
 62
     7
 10
147.5778198397797
 20
440.1454321519013
 30
0.0
 11
147.5718958023061
 21
440.1368268219026
 31
0.0
  0
LINE
  5
4F0
  8
0
  6
CONTINUOUS
 62
     7
 10
147.5718958023061
 20
440.1368268219026
 30
0.0
 11
147.5661506101349
 21
440.1277243960176
 31
0.0
  0
LINE
  5
4F1
  8
0
  6
CONTINUOUS
 62
     7
 10
147.5661506101349
 20
440.1277243960176
 30
0.0
 11
147.5607703901329
 21
440.1183916842696
 31
0.0
  0
LINE
  5
4F2
  8
0
  6
CONTINUOUS
 62
     7
 10
147.5607703901329
 20
440.1183916842696
 30
0.0
 11
147.5557650777372
 21
440.1088524261947
 31
0.0
  0
LINE
  5
4F3
  8
0
  6
CONTINUOUS
 62
     7
 10
147.5557650777372
 20
440.1088524261947
 30
0.0
 11
147.5511446083853
 21
440.0991303613287
 31
0.0
  0
LINE
  5
4F4
  8
0
  6
CONTINUOUS
 62
     7
 10
147.5511446083853
 20
440.0991303613287
 30
0.0
 11
147.5468060711217
 21
440.0889734261365
 31
0.0
  0
LINE
  5
4F5
  8
0
  6
CONTINUOUS
 62
     7
 10
147.5468060711217
 20
440.0889734261365
 30
0.0
 11
147.5428753448882
 21
440.0786423455538
 31
0.0
  0
LINE
  5
4F6
  8
0
  6
CONTINUOUS
 62
     7
 10
147.5428753448882
 20
440.0786423455538
 30
0.0
 11
147.5393592939212
 21
440.0681627118112
 31
0.0
  0
LINE
  5
4F7
  8
0
  6
CONTINUOUS
 62
     7
 10
147.5393592939212
 20
440.0681627118112
 30
0.0
 11
147.5362647824572
 21
440.0575601171393
 31
0.0
  0
LINE
  5
4F8
  8
0
  6
CONTINUOUS
 62
     7
 10
147.5362647824572
 20
440.0575601171393
 30
0.0
 11
147.532826679019
 21
440.0433801377098
 31
0.0
  0
LINE
  5
4F9
  8
0
  6
CONTINUOUS
 62
     7
 10
147.532826679019
 20
440.0433801377098
 30
0.0
 11
147.5301271213511
 21
440.0290211349466
 31
0.0
  0
LINE
  5
4FA
  8
0
  6
CONTINUOUS
 62
     7
 10
147.5301271213511
 20
440.0290211349466
 30
0.0
 11
147.528173095105
 21
440.0145415939946
 31
0.0
  0
LINE
  5
4FB
  8
0
  6
CONTINUOUS
 62
     7
 10
147.528173095105
 20
440.0145415939946
 30
0.0
 11
147.526971585933
 21
439.9999999999989
 31
0.0
  0
LINE
  5
4FC
  8
0
  6
CONTINUOUS
 62
     7
 10
151.1850042493795
 20
433.8463293989441
 30
0.0
 11
151.1802261550188
 21
433.8376325147666
 31
0.0
  0
LINE
  5
4FD
  8
0
  6
CONTINUOUS
 62
     7
 10
151.1802261550188
 20
433.8376325147666
 30
0.0
 11
151.1758154963129
 21
433.8287337639518
 31
0.0
  0
LINE
  5
4FE
  8
0
  6
CONTINUOUS
 62
     7
 10
151.1758154963129
 20
433.8287337639518
 30
0.0
 11
151.1717830434073
 21
433.8196573210938
 31
0.0
  0
LINE
  5
4FF
  8
0
  6
CONTINUOUS
 62
     7
 10
151.1717830434073
 20
433.8196573210938
 30
0.0
 11
151.1681395664473
 21
433.8104273607869
 31
0.0
  0
LINE
  5
500
  8
0
  6
CONTINUOUS
 62
     7
 10
151.1681395664473
 20
433.8104273607869
 30
0.0
 11
151.1647982282531
 21
433.8007708577089
 31
0.0
  0
LINE
  5
501
  8
0
  6
CONTINUOUS
 62
     7
 10
151.1647982282531
 20
433.8007708577089
 30
0.0
 11
151.1618738578575
 21
433.790970111264
 31
0.0
  0
LINE
  5
502
  8
0
  6
CONTINUOUS
 62
     7
 10
151.1618738578575
 20
433.790970111264
 30
0.0
 11
151.1593724008031
 21
433.7810528578727
 31
0.0
  0
LINE
  5
503
  8
0
  6
CONTINUOUS
 62
     7
 10
151.1593724008031
 20
433.7810528578727
 30
0.0
 11
151.1572998026323
 21
433.7710468339556
 31
0.0
  0
LINE
  5
504
  8
0
  6
CONTINUOUS
 62
     7
 10
151.1572998026323
 20
433.7710468339556
 30
0.0
 11
151.155699228016
 21
433.761256052517
 31
0.0
  0
LINE
  5
505
  8
0
  6
CONTINUOUS
 62
     7
 10
151.155699228016
 20
433.761256052517
 30
0.0
 11
151.1545022296378
 21
433.7513993462235
 31
0.0
  0
LINE
  5
506
  8
0
  6
CONTINUOUS
 62
     7
 10
151.1545022296378
 20
433.7513993462235
 30
0.0
 11
151.153709104682
 21
433.7415017842886
 31
0.0
  0
LINE
  5
507
  8
0
  6
CONTINUOUS
 62
     7
 10
151.153709104682
 20
433.7415017842886
 30
0.0
 11
151.1533201503328
 21
433.7315884359256
 31
0.0
  0
LINE
  5
508
  8
0
  6
CONTINUOUS
 62
     7
 10
151.1533201503328
 20
433.7315884359256
 30
0.0
 11
151.1533406415247
 21
433.7213930561263
 31
0.0
  0
LINE
  5
509
  8
0
  6
CONTINUOUS
 62
     7
 10
151.1533406415247
 20
433.7213930561263
 30
0.0
 11
151.1537829964409
 21
433.7111985917704
 31
0.0
  0
LINE
  5
50A
  8
0
  6
CONTINUOUS
 62
     7
 10
151.1537829964409
 20
433.7111985917704
 30
0.0
 11
151.1546427152229
 21
433.7010305993099
 31
0.0
  0
LINE
  5
50B
  8
0
  6
CONTINUOUS
 62
     7
 10
151.1546427152229
 20
433.7010305993099
 30
0.0
 11
151.1559152980123
 21
433.6909146351967
 31
0.0
  0
LINE
  5
50C
  8
0
  6
CONTINUOUS
 62
     7
 10
151.1559152980123
 20
433.6909146351967
 30
0.0
 11
151.1575953992045
 21
433.6808723581532
 31
0.0
  0
LINE
  5
50D
  8
0
  6
CONTINUOUS
 62
     7
 10
151.1575953992045
 20
433.6808723581532
 30
0.0
 11
151.1596789483607
 21
433.6708976491636
 31
0.0
  0
LINE
  5
50E
  8
0
  6
CONTINUOUS
 62
     7
 10
151.1596789483607
 20
433.6708976491636
 30
0.0
 11
151.1621576288045
 21
433.6610134922529
 31
0.0
  0
LINE
  5
50F
  8
0
  6
CONTINUOUS
 62
     7
 10
151.1621576288045
 20
433.6610134922529
 30
0.0
 11
151.1650231238596
 21
433.6512428714453
 31
0.0
  0
LINE
  5
510
  8
0
  6
CONTINUOUS
 62
     7
 10
151.1650231238596
 20
433.6512428714453
 30
0.0
 11
151.1683609852227
 21
433.6413434577092
 31
0.0
  0
LINE
  5
511
  8
0
  6
CONTINUOUS
 62
     7
 10
151.1683609852227
 20
433.6413434577092
 30
0.0
 11
151.1720950816379
 21
433.6315777188431
 31
0.0
  0
LINE
  5
512
  8
0
  6
CONTINUOUS
 62
     7
 10
151.1720950816379
 20
433.6315777188431
 30
0.0
 11
151.1762133628154
 21
433.6219674405742
 31
0.0
  0
LINE
  5
513
  8
0
  6
CONTINUOUS
 62
     7
 10
151.1762133628154
 20
433.6219674405742
 30
0.0
 11
151.1807037784654
 21
433.6125344086297
 31
0.0
  0
LINE
  5
514
  8
0
  6
CONTINUOUS
 62
     7
 10
151.1807037784654
 20
433.6125344086297
 30
0.0
 11
151.1857141144323
 21
433.6030077133174
 31
0.0
  0
LINE
  5
515
  8
0
  6
CONTINUOUS
 62
     7
 10
151.1857141144323
 20
433.6030077133174
 30
0.0
 11
151.1911063698912
 21
433.5936819502436
 31
0.0
  0
LINE
  5
516
  8
0
  6
CONTINUOUS
 62
     7
 10
151.1911063698912
 20
433.5936819502436
 30
0.0
 11
151.1968649535195
 21
433.5845775935176
 31
0.0
  0
LINE
  5
517
  8
0
  6
CONTINUOUS
 62
     7
 10
151.1968649535195
 20
433.5845775935176
 30
0.0
 11
151.2029742739947
 21
433.5757151172485
 31
0.0
  0
LINE
  5
518
  8
0
  6
CONTINUOUS
 62
     7
 10
151.2029742739947
 20
433.5757151172485
 30
0.0
 11
151.2096011692639
 21
433.5668793661667
 31
0.0
  0
LINE
  5
519
  8
0
  6
CONTINUOUS
 62
     7
 10
151.2096011692639
 20
433.5668793661667
 30
0.0
 11
151.2165827843804
 21
433.5583097171019
 31
0.0
  0
LINE
  5
51A
  8
0
  6
CONTINUOUS
 62
     7
 10
151.2165827843804
 20
433.5583097171019
 30
0.0
 11
151.2239003879404
 21
433.5500249107722
 31
0.0
  0
LINE
  5
51B
  8
0
  6
CONTINUOUS
 62
     7
 10
151.2239003879404
 20
433.5500249107722
 30
0.0
 11
151.2315352485402
 21
433.5420436878962
 31
0.0
  0
LINE
  5
51C
  8
0
  6
CONTINUOUS
 62
     7
 10
151.2315352485402
 20
433.5420436878962
 30
0.0
 11
151.2420964192322
 21
433.5319762132631
 31
0.0
  0
LINE
  5
51D
  8
0
  6
CONTINUOUS
 62
     7
 10
151.2420964192322
 20
433.5319762132631
 30
0.0
 11
151.2531819015642
 21
433.522458826362
 31
0.0
  0
LINE
  5
51E
  8
0
  6
CONTINUOUS
 62
     7
 10
151.2531819015642
 20
433.522458826362
 30
0.0
 11
151.2647445387408
 21
433.5135268195174
 31
0.0
  0
LINE
  5
51F
  8
0
  6
CONTINUOUS
 62
     7
 10
151.2647445387408
 20
433.5135268195174
 30
0.0
 11
151.2767371739665
 21
433.5052154850536
 31
0.0
  0
LINE
  5
520
  8
0
  6
CONTINUOUS
 62
     7
 10
151.6180169512717
 20
446.4036706010559
 30
0.0
 11
151.6128742758205
 21
446.4121569942427
 31
0.0
  0
LINE
  5
521
  8
0
  6
CONTINUOUS
 62
     7
 10
151.6128742758205
 20
446.4121569942427
 30
0.0
 11
151.6073730609058
 21
446.4204261121368
 31
0.0
  0
LINE
  5
522
  8
0
  6
CONTINUOUS
 62
     7
 10
151.6073730609058
 20
446.4204261121368
 30
0.0
 11
151.6015288572677
 21
446.4284565402216
 31
0.0
  0
LINE
  5
523
  8
0
  6
CONTINUOUS
 62
     7
 10
151.6015288572677
 20
446.4284565402216
 30
0.0
 11
151.595357215646
 21
446.4362268639805
 31
0.0
  0
LINE
  5
524
  8
0
  6
CONTINUOUS
 62
     7
 10
151.595357215646
 20
446.4362268639805
 30
0.0
 11
151.5886651077658
 21
446.4439487992784
 31
0.0
  0
LINE
  5
525
  8
0
  6
CONTINUOUS
 62
     7
 10
151.5886651077658
 20
446.4439487992784
 30
0.0
 11
151.5816395975662
 21
446.4513817515535
 31
0.0
  0
LINE
  5
526
  8
0
  6
CONTINUOUS
 62
     7
 10
151.5816395975662
 20
446.4513817515535
 30
0.0
 11
151.5743017327208
 21
446.4585067036047
 31
0.0
  0
LINE
  5
527
  8
0
  6
CONTINUOUS
 62
     7
 10
151.5743017327208
 20
446.4585067036047
 30
0.0
 11
151.5666725609032
 21
446.465304638231
 31
0.0
  0
LINE
  5
528
  8
0
  6
CONTINUOUS
 62
     7
 10
151.5666725609032
 20
446.465304638231
 30
0.0
 11
151.5589937827626
 21
446.4715861672286
 31
0.0
  0
LINE
  5
529
  8
0
  6
CONTINUOUS
 62
     7
 10
151.5589937827626
 20
446.4715861672286
 30
0.0
 11
151.5510561239038
 21
446.4775511513791
 31
0.0
  0
LINE
  5
52A
  8
0
  6
CONTINUOUS
 62
     7
 10
151.5510561239038
 20
446.4775511513791
 30
0.0
 11
151.5428811463105
 21
446.4831867987068
 31
0.0
  0
LINE
  5
52B
  8
0
  6
CONTINUOUS
 62
     7
 10
151.5428811463105
 20
446.4831867987068
 30
0.0
 11
151.5344904119663
 21
446.4884803172355
 31
0.0
  0
LINE
  5
52C
  8
0
  6
CONTINUOUS
 62
     7
 10
151.5344904119663
 20
446.4884803172355
 30
0.0
 11
151.5256507084628
 21
446.4935602612425
 31
0.0
  0
LINE
  5
52D
  8
0
  6
CONTINUOUS
 62
     7
 10
151.5256507084628
 20
446.4935602612425
 30
0.0
 11
151.5166008658946
 21
446.4982744028255
 31
0.0
  0
LINE
  5
52E
  8
0
  6
CONTINUOUS
 62
     7
 10
151.5166008658946
 20
446.4982744028255
 30
0.0
 11
151.5073652667273
 21
446.5026138607504
 31
0.0
  0
LINE
  5
52F
  8
0
  6
CONTINUOUS
 62
     7
 10
151.5073652667273
 20
446.5026138607504
 30
0.0
 11
151.4979682934269
 21
446.506569753783
 31
0.0
  0
LINE
  5
530
  8
0
  6
CONTINUOUS
 62
     7
 10
151.4979682934269
 20
446.506569753783
 30
0.0
 11
151.4884313757992
 21
446.5101358819914
 31
0.0
  0
LINE
  5
531
  8
0
  6
CONTINUOUS
 62
     7
 10
151.4884313757992
 20
446.5101358819914
 30
0.0
 11
151.4787512498408
 21
446.5133188299868
 31
0.0
  0
LINE
  5
532
  8
0
  6
CONTINUOUS
 62
     7
 10
151.4787512498408
 20
446.5133188299868
 30
0.0
 11
151.4689519786392
 21
446.51611430821
 31
0.0
  0
LINE
  5
533
  8
0
  6
CONTINUOUS
 62
     7
 10
151.4689519786392
 20
446.51611430821
 30
0.0
 11
151.4590576252816
 21
446.5185180271016
 31
0.0
  0
LINE
  5
534
  8
0
  6
CONTINUOUS
 62
     7
 10
151.4590576252816
 20
446.5185180271016
 30
0.0
 11
151.448815550822
 21
446.5205770612349
 31
0.0
  0
LINE
  5
535
  8
0
  6
CONTINUOUS
 62
     7
 10
151.448815550822
 20
446.5205770612349
 30
0.0
 11
151.4384911246696
 21
446.5222261083123
 31
0.0
  0
LINE
  5
536
  8
0
  6
CONTINUOUS
 62
     7
 10
151.4384911246696
 20
446.5222261083123
 30
0.0
 11
151.4281092389625
 21
446.5234647113271
 31
0.0
  0
LINE
  5
537
  8
0
  6
CONTINUOUS
 62
     7
 10
151.4281092389625
 20
446.5234647113271
 30
0.0
 11
151.4176947858389
 21
446.524292413273
 31
0.0
  0
LINE
  5
538
  8
0
  6
CONTINUOUS
 62
     7
 10
151.4176947858389
 20
446.524292413273
 30
0.0
 11
151.4069392577009
 21
446.5247166827003
 31
0.0
  0
LINE
  5
539
  8
0
  6
CONTINUOUS
 62
     7
 10
151.4069392577009
 20
446.5247166827003
 30
0.0
 11
151.3961667822399
 21
446.524709734026
 31
0.0
  0
LINE
  5
53A
  8
0
  6
CONTINUOUS
 62
     7
 10
151.3961667822399
 20
446.524709734026
 30
0.0
 11
151.3854028862159
 21
446.524274832677
 31
0.0
  0
LINE
  5
53B
  8
0
  6
CONTINUOUS
 62
     7
 10
151.3854028862159
 20
446.524274832677
 30
0.0
 11
151.3746730963887
 21
446.5234152440802
 31
0.0
  0
LINE
  5
53C
  8
0
  6
CONTINUOUS
 62
     7
 10
151.3746730963887
 20
446.5234152440802
 30
0.0
 11
151.3637076638559
 21
446.5220940599697
 31
0.0
  0
LINE
  5
53D
  8
0
  6
CONTINUOUS
 62
     7
 10
151.3637076638559
 20
446.5220940599697
 30
0.0
 11
151.3527953225059
 21
446.5203326284519
 31
0.0
  0
LINE
  5
53E
  8
0
  6
CONTINUOUS
 62
     7
 10
151.3527953225059
 20
446.5203326284519
 30
0.0
 11
151.3419616679789
 21
446.5181378010389
 31
0.0
  0
LINE
  5
53F
  8
0
  6
CONTINUOUS
 62
     7
 10
151.3419616679789
 20
446.5181378010389
 30
0.0
 11
151.3312322959151
 21
446.5155164292432
 31
0.0
  0
LINE
  5
540
  8
0
  6
CONTINUOUS
 62
     7
 10
151.3312322959151
 20
446.5155164292432
 30
0.0
 11
151.3172330217849
 21
446.5114039244467
 31
0.0
  0
LINE
  5
541
  8
0
  6
CONTINUOUS
 62
     7
 10
151.3172330217849
 20
446.5114039244467
 30
0.0
 11
151.303447981785
 21
446.5065623085845
 31
0.0
  0
LINE
  5
542
  8
0
  6
CONTINUOUS
 62
     7
 10
151.303447981785
 20
446.5065623085845
 30
0.0
 11
151.2899313183624
 21
446.5010147744772
 31
0.0
  0
LINE
  5
543
  8
0
  6
CONTINUOUS
 62
     7
 10
151.2899313183624
 20
446.5010147744772
 30
0.0
 11
151.2767371739647
 21
446.4947845149453
 31
0.0
  0
ARC
  5
544
  8
0
  6
CONTINUOUS
 62
     7
 10
155.0265027619982
 20
440.0
 30
0.0
 40
11.00000000000001
 50
181.4203534672908
 51
178.5796465327089
  0
LINE
  5
545
  8
0
  6
CONTINUOUS
 62
     7
 10
144.0298825390693
 20
439.7273396386117
 30
0.0
 11
145.7300772496085
 21
439.7421770130691
 31
0.0
  0
LINE
  5
546
  8
0
  6
CONTINUOUS
 62
     7
 10
144.0298825390693
 20
440.2726603613883
 30
0.0
 11
145.7300772496085
 21
440.2578229869309
 31
0.0
  0
LINE
  5
547
  8
0
  6
CONTINUOUS
 62
   253
 10
106.7781926505338
 20
451.0
 30
0.0
 11
106.7781926505338
 21
440.2726603613883
 31
0.0
  0
LINE
  5
548
  8
0
  6
CONTINUOUS
 62
     7
 10
105.7781926505338
 20
430.0
 30
0.0
 11
105.7781926505338
 21
439.7360674126897
 31
0.0
  0
LINE
  5
549
  8
0
  6
CONTINUOUS
 62
     7
 10
105.7781926505338
 20
440.2639325873102
 30
0.0
 11
105.7781926505338
 21
450.0
 31
0.0
  0
LINE
  5
54A
  8
0
  6
CONTINUOUS
 62
     7
 10
106.7781926505338
 20
439.7273396386117
 30
0.0
 11
105.7781926505338
 21
439.7360674126897
 31
0.0
  0
LINE
  5
54B
  8
0
  6
CONTINUOUS
 62
   253
 10
106.7781926505338
 20
439.7273396386117
 30
0.0
 11
106.7781926505338
 21
429.0
 31
0.0
  0
LINE
  5
54C
  8
0
  6
CONTINUOUS
 62
     7
 10
106.7781926505338
 20
440.2726603613883
 30
0.0
 11
105.7781926505338
 21
440.2639325873102
 31
0.0
  0
LINE
  5
54D
  8
0
  6
CONTINUOUS
 62
     7
 10
106.7781926505338
 20
440.2726603613883
 30
0.0
 11
109.2781926505338
 21
440.2726603613883
 31
0.0
  0
LINE
  5
54E
  8
0
  6
CONTINUOUS
 62
     7
 10
109.2781926505338
 20
440.2726603613883
 30
0.0
 11
109.2781926505338
 21
440.2578229869309
 31
0.0
  0
LINE
  5
54F
  8
0
  6
CONTINUOUS
 62
     7
 10
109.2781926505338
 20
440.2578229869309
 30
0.0
 11
120.7781926505338
 21
440.2578229869309
 31
0.0
  0
LINE
  5
550
  8
0
  6
CONTINUOUS
 62
     7
 10
120.7781926505338
 20
440.2578229869309
 30
0.0
 11
124.2781926505338
 21
440.2530224714892
 31
0.0
  0
LINE
  5
551
  8
0
  6
CONTINUOUS
 62
     7
 10
124.2781926505338
 20
440.2530224714892
 30
0.0
 11
124.2781926505338
 21
440.2499999999999
 31
0.0
  0
LINE
  5
552
  8
0
  6
CONTINUOUS
 62
     7
 10
124.2781926505338
 20
440.2499999999999
 30
0.0
 11
105.7781926505338
 21
440.25
 31
0.0
  0
LINE
  5
553
  8
0
  6
CONTINUOUS
 62
     7
 10
105.7781926505338
 20
440.25
 30
0.0
 11
105.7781926505338
 21
440.2639325873102
 31
0.0
  0
LINE
  5
554
  8
0
  6
CONTINUOUS
 62
     7
 10
105.7781926505338
 20
439.75
 30
0.0
 11
105.7781926505338
 21
439.7360674126897
 31
0.0
  0
LINE
  5
555
  8
0
  6
CONTINUOUS
 62
     7
 10
124.2781926505338
 20
439.7499999999999
 30
0.0
 11
105.7781926505338
 21
439.75
 31
0.0
  0
LINE
  5
556
  8
0
  6
CONTINUOUS
 62
     7
 10
124.2781926505338
 20
439.7469775285107
 30
0.0
 11
124.2781926505338
 21
439.7499999999999
 31
0.0
  0
LINE
  5
557
  8
0
  6
CONTINUOUS
 62
     7
 10
120.7781926505338
 20
439.7421770130691
 30
0.0
 11
124.2781926505338
 21
439.7469775285107
 31
0.0
  0
LINE
  5
558
  8
0
  6
CONTINUOUS
 62
     7
 10
109.2781926505338
 20
439.7421770130691
 30
0.0
 11
120.7781926505338
 21
439.7421770130691
 31
0.0
  0
LINE
  5
559
  8
0
  6
CONTINUOUS
 62
     7
 10
109.2781926505338
 20
439.7273396386117
 30
0.0
 11
109.2781926505338
 21
439.7421770130691
 31
0.0
  0
LINE
  5
55A
  8
0
  6
CONTINUOUS
 62
     7
 10
106.7781926505338
 20
439.7273396386117
 30
0.0
 11
109.2781926505338
 21
439.7273396386117
 31
0.0
  0
LINE
  5
55B
  8
0
  6
CONTINUOUS
 62
     7
 10
109.2781926505338
 20
429.0
 30
0.0
 11
109.2781926505338
 21
439.7273396386117
 31
0.0
  0
LINE
  5
55C
  8
0
  6
CONTINUOUS
 62
     7
 10
109.2781926505338
 20
440.2726603613883
 30
0.0
 11
109.2781926505338
 21
451.0
 31
0.0
  0
LINE
  5
55D
  8
0
  6
CONTINUOUS
 62
     7
 10
124.2781926505338
 20
431.2499999999999
 30
0.0
 11
124.2781926505338
 21
439.7469775285107
 31
0.0
  0
LINE
  5
55E
  8
0
  6
CONTINUOUS
 62
     7
 10
120.7781926505338
 20
430.7
 30
0.0
 11
120.7781926505338
 21
439.7421770130691
 31
0.0
  0
LINE
  5
55F
  8
0
  6
CONTINUOUS
 62
     7
 10
124.2781926505338
 20
440.2530224714892
 30
0.0
 11
124.2781926505338
 21
448.75
 31
0.0
  0
LINE
  5
560
  8
0
  6
CONTINUOUS
 62
     7
 10
120.7781926505338
 20
440.2578229869309
 30
0.0
 11
120.7781926505338
 21
449.3
 31
0.0
  0
LINE
  5
561
  8
0
  6
CONTINUOUS
 62
     7
 10
124.2781926505338
 20
439.7499999999999
 30
0.0
 11
124.2781926505338
 21
440.2499999999999
 31
0.0
  0
LINE
  5
562
  8
0
  6
CONTINUOUS
 62
     7
 10
105.7781926505338
 20
440.25
 30
0.0
 11
105.7781926505338
 21
439.75
 31
0.0
  0
ARC
  5
563
  8
0
  6
CONTINUOUS
 62
     7
 10
106.7781926505338
 20
450.0
 30
0.0
 40
1.000000000000001
 50
90.0
 51
180.0
  0
ARC
  5
564
  8
0
  6
CONTINUOUS
 62
     7
 10
106.7781926505338
 20
430.0
 30
0.0
 40
1.000000000000001
 50
180.0
 51
270.0
  0
LINE
  5
565
  8
0
  6
CONTINUOUS
 62
     7
 10
106.7781926505338
 20
429.0
 30
0.0
 11
109.2781926505338
 21
429.0
 31
0.0
  0
LINE
  5
566
  8
0
  6
CONTINUOUS
 62
     7
 10
109.2781926505338
 20
451.0
 30
0.0
 11
106.7781926505338
 21
451.0
 31
0.0
  0
LINE
  5
567
  8
0
  6
CONTINUOUS
 62
     7
 10
120.7781926505338
 20
430.7
 30
0.0
 11
124.2781926505338
 21
431.2499999999999
 31
0.0
  0
LINE
  5
568
  8
0
  6
CONTINUOUS
 62
     7
 10
124.2781926505338
 20
448.75
 30
0.0
 11
120.7781926505338
 21
449.3
 31
0.0
  0
LINE
  5
569
  8
0
  6
CONTINUOUS
 62
     7
 10
109.2781926505338
 20
430.7
 30
0.0
 11
120.7781926505338
 21
430.7
 31
0.0
  0
LINE
  5
56A
  8
0
  6
CONTINUOUS
 62
     7
 10
120.7781926505338
 20
449.3
 30
0.0
 11
109.2781926505338
 21
449.3
 31
0.0
  0
TEXT
  5
56B
  8
0
  6
CONTINUOUS
 62
     7
 10
139.8635425784669
 20
418.1727272727272
 30
0.0
 40
3.0
  1
ＫＨＰＶ－１６
  0
ENDSEC
  0
EOF
