  0
SECTION
  2
HEADER
  9
$ACADVER
  1
AC1006
  9
$DWGCODEPAGE
  3
ansi_932
  9
$INSBASE
 10
0.0
 20
0.0
 30
0.0
  9
$EXTMIN
 10
66.97324025227272
 20
483.5068181818182
  9
$EXTMAX
 10
168.0267597477273
 20
518.0
  9
$LIMMIN
 10
0.0
 20
0.0
  9
$LIMMAX
 10
12.0
 20
9.0
  9
$ORTHOMODE
 70
     0
  9
$REGENMODE
 70
     1
  9
$FILLMODE
 70
     1
  9
$QTEXTMODE
 70
     0
  9
$MIRRTEXT
 70
     1
  9
$DRAGMODE
 70
     2
  9
$LTSCALE
 40
1.0
  9
$OSMODE
 70
    37
  9
$ATTMODE
 70
     1
  9
$TEXTSIZE
 40
0.2
  9
$TRACEWID
 40
0.05
  9
$TEXTSTYLE
  7
STANDARD
  9
$CLAYER
  8
0
  9
$CELTYPE
  6
BYLAYER
  9
$CECOLOR
 62
   256
  9
$DIMSCALE
 40
1.0
  9
$DIMASZ
 40
3.0
  9
$DIMEXO
 40
0.0625
  9
$DIMDLI
 40
0.38
  9
$DIMRND
 40
0.0
  9
$DIMDLE
 40
0.0
  9
$DIMEXE
 40
1.5
  9
$DIMTP
 40
0.0
  9
$DIMTM
 40
0.0
  9
$DIMTXT
 40
3.0
  9
$DIMCEN
 40
0.09
  9
$DIMTSZ
 40
0.0
  9
$DIMTOL
 70
     0
  9
$DIMLIM
 70
     0
  9
$DIMTIH
 70
     1
  9
$DIMTOH
 70
     1
  9
$DIMSE1
 70
     0
  9
$DIMSE2
 70
     0
  9
$DIMTAD
 70
     1
  9
$DIMZIN
 70
     0
  9
$DIMBLK
  1

  9
$DIMASO
 70
     1
  9
$DIMSHO
 70
     1
  9
$DIMPOST
  1

  9
$DIMAPOST
  1

  9
$DIMALT
 70
     0
  9
$DIMALTD
 70
     2
  9
$DIMALTF
 40
25.4
  9
$DIMLFAC
 40
1.0
  9
$DIMTOFL
 70
     0
  9
$DIMTVP
 40
0.0
  9
$DIMTIX
 70
     0
  9
$DIMSOXD
 70
     0
  9
$DIMSAH
 70
     0
  9
$DIMBLK1
  1

  9
$DIMBLK2
  1

  9
$LUNITS
 70
     2
  9
$LUPREC
 70
     4
  9
$SKETCHINC
 40
0.1
  9
$FILLETRAD
 40
0.5
  9
$AUNITS
 70
     0
  9
$AUPREC
 70
     0
  9
$MENU
  1
.
  9
$ELEVATION
 40
0.0
  9
$THICKNESS
 40
0.0
  9
$LIMCHECK
 70
     0
  9
$CHAMFERA
 40
0.0
  9
$CHAMFERB
 40
0.0
  9
$SKPOLY
 70
     0
  9
$TDCREATE
 40
2460741.74876809
  9
$TDUPDATE
 40
2460741.748768357
  9
$TDINDWG
 40
0.0000000116
  9
$TDUSRTIMER
 40
0.0000000116
  9
$USRTIMER
 70
     1
  9
$ANGBASE
 50
0.0
  9
$ANGDIR
 70
     0
  9
$PDMODE
 70
     0
  9
$PDSIZE
 40
0.0
  9
$PLINEWID
 40
0.0
  9
$COORDS
 70
     1
  9
$SPLFRAME
 70
     0
  9
$SPLINETYPE
 70
     6
  9
$SPLINESEGS
 70
     8
  9
$ATTDIA
 70
     0
  9
$ATTREQ
 70
     1
  9
$HANDLING
 70
     1
  9
$HANDSEED
  5
529
  9
$SURFTAB1
 70
     6
  9
$SURFTAB2
 70
     6
  9
$SURFTYPE
 70
     6
  9
$SURFU
 70
     6
  9
$SURFV
 70
     6
  9
$UCSNAME
  2

  9
$UCSORG
 10
0.0
 20
0.0
 30
0.0
  9
$UCSXDIR
 10
1.0
 20
0.0
 30
0.0
  9
$UCSYDIR
 10
0.0
 20
1.0
 30
0.0
  9
$USERI1
 70
     0
  9
$USERI2
 70
     0
  9
$USERI3
 70
     0
  9
$USERI4
 70
     0
  9
$USERI5
 70
     0
  9
$USERR1
 40
0.0
  9
$USERR2
 40
0.0
  9
$USERR3
 40
0.0
  9
$USERR4
 40
0.0
  9
$USERR5
 40
0.0
  9
$WORLDVIEW
 70
     1
  0
ENDSEC
  0
SECTION
  2
TABLES
  0
TABLE
  2
VPORT
 70
     1
  0
VPORT
  2
*ACTIVE
 70
     0
 10
0.0
 20
0.0
 11
1.0
 21
1.0
 12
117.5
 22
500.7534090909091
 13
0.0
 23
0.0
 14
0.5
 24
0.5
 15
0.5
 25
0.5
 16
0.0
 26
0.0
 36
1.0
 17
0.0
 27
0.0
 37
0.0
 40
34.49318181818177
 41
1.6
 42
50.0
 43
0.0
 44
0.0
 50
0.0
 51
0.0
 71
     0
 72
   100
 73
     1
 74
     3
 75
     0
 76
     0
 77
     0
 78
     0
  0
ENDTAB
  0
TABLE
  2
LTYPE
 70
     1
  0
LTYPE
  2
CONTINUOUS
 70
     0
  3
Solid line
 72
    65
 73
     0
 40
0.0
  0
ENDTAB
  0
TABLE
  2
LAYER
 70
     1
  0
LAYER
  2
0
 70
     0
 62
     7
  6
CONTINUOUS
  0
ENDTAB
  0
TABLE
  2
STYLE
 70
     2
  0
STYLE
  2
STANDARD
 70
     0
 40
0.0
 41
1.0
 50
0.0
 71
     0
 42
0.2
  3
txt
  4

  0
STYLE
  2
ＭＳ_ゴシック
 70
     0
 40
0.0
 41
1.0
 50
0.0
 71
     0
 42
0.2
  3
ＭＳ ゴシック.shx
  4

  0
ENDTAB
  0
TABLE
  2
VIEW
 70
     0
  0
ENDTAB
  0
TABLE
  2
UCS
 70
     0
  0
ENDTAB
  0
ENDSEC
  0
SECTION
  2
BLOCKS
  0
ENDSEC
  0
SECTION
  2
ENTITIES
  0
TEXT
  5
6F
  8
0
  6
CONTINUOUS
 62
     7
 10
139.8635425784669
 20
483.1795454545455
 30
0.0
 40
3.0
  1
ＫＨＰＶ－２２
  0
ARC
  5
70
  8
0
  6
CONTINUOUS
 62
     7
 10
79.97324025227273
 20
505.0
 30
0.0
 40
13.00000000000001
 50
1.201822586094181
 51
270.0
  0
ARC
  5
71
  8
0
  6
CONTINUOUS
 62
   253
 10
79.97324025227273
 20
505.0
 30
0.0
 40
12.00000000000001
 50
1.260311102683804
 51
358.7396888973162
  0
LINE
  5
72
  8
0
  6
CONTINUOUS
 62
     7
 10
92.97038047051612
 20
504.7273351006812
 30
0.0
 11
91.97033727257366
 21
504.7360623454549
 31
0.0
  0
ARC
  5
73
  8
0
  6
CONTINUOUS
 62
     7
 10
79.97324025227273
 20
505.0
 30
0.0
 40
13.00000000000001
 50
270.0
 51
358.7981774139058
  0
LINE
  5
74
  8
0
  6
CONTINUOUS
 62
     7
 10
92.97038047051612
 20
505.2726648993188
 30
0.0
 11
91.97033727257366
 21
505.2639376545451
 31
0.0
  0
LINE
  5
75
  8
0
  6
CONTINUOUS
 62
     7
 10
90.37324025227275
 20
505.2499999999998
 30
0.0
 11
90.37324025227275
 21
504.75
 31
0.0
  0
CIRCLE
  5
76
  8
0
  6
CONTINUOUS
 62
   253
 10
79.97324025227273
 20
505.0
 30
0.0
 40
10.3956556052975
  0
LINE
  5
77
  8
0
  6
CONTINUOUS
 62
     7
 10
90.37324025227275
 20
504.75
 30
0.0
 11
91.97033727257366
 21
504.7360623454549
 31
0.0
  0
LINE
  5
78
  8
0
  6
CONTINUOUS
 62
     7
 10
90.37324025227275
 20
505.2499999999998
 30
0.0
 11
91.97033727257366
 21
505.2639376545451
 31
0.0
  0
CIRCLE
  5
79
  8
0
  6
CONTINUOUS
 62
   253
 10
79.97324025227273
 20
505.0
 30
0.0
 40
9.895674643765409
  0
CIRCLE
  5
7A
  8
0
  6
CONTINUOUS
 62
   253
 10
79.97324025227273
 20
505.0
 30
0.0
 40
9.867687742577722
  0
CIRCLE
  5
7B
  8
0
  6
CONTINUOUS
 62
   253
 10
79.97324025227273
 20
505.0
 30
0.0
 40
9.567699165658471
  0
LINE
  5
7C
  8
0
  6
CONTINUOUS
 62
     7
 10
84.72300732614025
 20
513.2268378960541
 30
0.0
 11
84.73310067031588
 21
513.2199039097333
 31
0.0
  0
LINE
  5
7D
  8
0
  6
CONTINUOUS
 62
     7
 10
84.73310067031588
 20
513.2199039097333
 30
0.0
 11
84.74289739724723
 21
513.2125277183446
 31
0.0
  0
LINE
  5
7E
  8
0
  6
CONTINUOUS
 62
     7
 10
84.74289739724723
 20
513.2125277183446
 30
0.0
 11
84.75236968522555
 21
513.2047303154964
 31
0.0
  0
LINE
  5
7F
  8
0
  6
CONTINUOUS
 62
     7
 10
84.75236968522555
 20
513.2047303154964
 30
0.0
 11
84.76148971254212
 21
513.1965326947961
 31
0.0
  0
LINE
  5
80
  8
0
  6
CONTINUOUS
 62
     7
 10
84.76148971254212
 20
513.1965326947961
 30
0.0
 11
84.77022965748814
 21
513.187955849852
 31
0.0
  0
LINE
  5
81
  8
0
  6
CONTINUOUS
 62
     7
 10
84.77022965748814
 20
513.187955849852
 30
0.0
 11
84.77822734275826
 21
513.1793991663426
 31
0.0
  0
LINE
  5
82
  8
0
  6
CONTINUOUS
 62
     7
 10
84.77822734275826
 20
513.1793991663426
 30
0.0
 11
84.78586383796004
 21
513.1705047652779
 31
0.0
  0
LINE
  5
83
  8
0
  6
CONTINUOUS
 62
     7
 10
84.78586383796004
 20
513.1705047652779
 30
0.0
 11
84.79311699804995
 21
513.1612953568995
 31
0.0
  0
LINE
  5
84
  8
0
  6
CONTINUOUS
 62
     7
 10
84.79311699804995
 20
513.1612953568995
 30
0.0
 11
84.79996467798442
 21
513.1517936514488
 31
0.0
  0
LINE
  5
85
  8
0
  6
CONTINUOUS
 62
     7
 10
84.79996467798442
 20
513.1517936514488
 30
0.0
 11
84.80658912626005
 21
513.1416983831855
 31
0.0
  0
LINE
  5
86
  8
0
  6
CONTINUOUS
 62
     7
 10
84.80658912626005
 20
513.1416983831855
 30
0.0
 11
84.8127636078077
 21
513.131307682435
 31
0.0
  0
LINE
  5
87
  8
0
  6
CONTINUOUS
 62
     7
 10
84.8127636078077
 20
513.131307682435
 30
0.0
 11
84.8184666795971
 21
513.1206513321079
 31
0.0
  0
LINE
  5
88
  8
0
  6
CONTINUOUS
 62
     7
 10
84.8184666795971
 20
513.1206513321079
 30
0.0
 11
84.823676898598
 21
513.1097591151137
 31
0.0
  0
LINE
  5
89
  8
0
  6
CONTINUOUS
 62
     7
 10
84.823676898598
 20
513.1097591151137
 30
0.0
 11
84.82810687146872
 21
513.0993342878562
 31
0.0
  0
LINE
  5
8A
  8
0
  6
CONTINUOUS
 62
     7
 10
84.82810687146872
 20
513.0993342878562
 30
0.0
 11
84.8320873349373
 21
513.0887183033476
 31
0.0
  0
LINE
  5
8B
  8
0
  6
CONTINUOUS
 62
     7
 10
84.8320873349373
 20
513.0887183033476
 30
0.0
 11
84.83560398136278
 21
513.077940116911
 31
0.0
  0
LINE
  5
8C
  8
0
  6
CONTINUOUS
 62
     7
 10
84.83560398136278
 20
513.077940116911
 30
0.0
 11
84.83864250310415
 21
513.0670286838697
 31
0.0
  0
LINE
  5
8D
  8
0
  6
CONTINUOUS
 62
     7
 10
84.83864250310415
 20
513.0670286838697
 30
0.0
 11
84.84126954055702
 21
513.0556298090846
 31
0.0
  0
LINE
  5
8E
  8
0
  6
CONTINUOUS
 62
     7
 10
84.84126954055702
 20
513.0556298090846
 30
0.0
 11
84.84337207254752
 21
513.0441098907879
 31
0.0
  0
LINE
  5
8F
  8
0
  6
CONTINUOUS
 62
     7
 10
84.84337207254752
 20
513.0441098907879
 30
0.0
 11
84.8449397708608
 21
513.0325054714433
 31
0.0
  0
LINE
  5
90
  8
0
  6
CONTINUOUS
 62
     7
 10
84.8449397708608
 20
513.0325054714433
 30
0.0
 11
84.84596230728201
 21
513.020853093514
 31
0.0
  0
LINE
  5
91
  8
0
  6
CONTINUOUS
 62
     7
 10
84.84596230728201
 20
513.020853093514
 30
0.0
 11
84.84641296246201
 21
513.0102032258334
 31
0.0
  0
LINE
  5
92
  8
0
  6
CONTINUOUS
 62
     7
 10
84.84641296246201
 20
513.0102032258334
 30
0.0
 11
84.84640271549382
 21
512.999533751603
 31
0.0
  0
LINE
  5
93
  8
0
  6
CONTINUOUS
 62
     7
 10
84.84640271549382
 20
512.999533751603
 30
0.0
 11
84.84592921200003
 21
512.9888750282297
 31
0.0
  0
LINE
  5
94
  8
0
  6
CONTINUOUS
 62
     7
 10
84.84592921200003
 20
512.9888750282297
 30
0.0
 11
84.84499009760313
 21
512.9782574131203
 31
0.0
  0
LINE
  5
95
  8
0
  6
CONTINUOUS
 62
     7
 10
84.84499009760313
 20
512.9782574131203
 30
0.0
 11
84.84352771501253
 21
512.9673476510626
 31
0.0
  0
LINE
  5
96
  8
0
  6
CONTINUOUS
 62
     7
 10
84.84352771501253
 20
512.9673476510626
 30
0.0
 11
84.8415654046069
 21
512.956504805698
 31
0.0
  0
LINE
  5
97
  8
0
  6
CONTINUOUS
 62
     7
 10
84.8415654046069
 20
512.956504805698
 30
0.0
 11
84.8391077616801
 21
512.9457636069264
 31
0.0
  0
LINE
  5
98
  8
0
  6
CONTINUOUS
 62
     7
 10
84.8391077616801
 20
512.9457636069264
 30
0.0
 11
84.83615938152592
 21
512.935158784647
 31
0.0
  0
LINE
  5
99
  8
0
  6
CONTINUOUS
 62
     7
 10
84.83615938152592
 20
512.935158784647
 30
0.0
 11
84.8327923078941
 21
512.9249114624884
 31
0.0
  0
LINE
  5
9A
  8
0
  6
CONTINUOUS
 62
     7
 10
84.8327923078941
 20
512.9249114624884
 30
0.0
 11
84.82895423220583
 21
512.9148128897225
 31
0.0
  0
LINE
  5
9B
  8
0
  6
CONTINUOUS
 62
     7
 10
84.82895423220583
 20
512.9148128897225
 30
0.0
 11
84.82465780114782
 21
512.9048945339774
 31
0.0
  0
LINE
  5
9C
  8
0
  6
CONTINUOUS
 62
     7
 10
84.82465780114782
 20
512.9048945339774
 30
0.0
 11
84.81991566140674
 21
512.8951878628814
 31
0.0
  0
LINE
  5
9D
  8
0
  6
CONTINUOUS
 62
     7
 10
84.81991566140674
 20
512.8951878628814
 30
0.0
 11
84.81474045966748
 21
512.885724344063
 31
0.0
  0
LINE
  5
9E
  8
0
  6
CONTINUOUS
 62
     7
 10
84.38172775777527
 20
513.135724344063
 30
0.0
 11
84.38687027580801
 21
513.1442104884941
 31
0.0
  0
LINE
  5
9F
  8
0
  6
CONTINUOUS
 62
     7
 10
84.38687027580801
 20
513.1442104884941
 30
0.0
 11
84.39237131463737
 21
513.1524793693133
 31
0.0
  0
LINE
  5
A0
  8
0
  6
CONTINUOUS
 62
     7
 10
84.39237131463737
 20
513.1524793693133
 30
0.0
 11
84.39821532669683
 21
513.1605095718153
 31
0.0
  0
LINE
  5
A1
  8
0
  6
CONTINUOUS
 62
     7
 10
84.39821532669683
 20
513.1605095718153
 30
0.0
 11
84.40438676441978
 21
513.1682796812947
 31
0.0
  0
LINE
  5
A2
  8
0
  6
CONTINUOUS
 62
     7
 10
84.40438676441978
 20
513.1682796812947
 30
0.0
 11
84.41107864843642
 21
513.1760014025555
 31
0.0
  0
LINE
  5
A3
  8
0
  6
CONTINUOUS
 62
     7
 10
84.41107864843642
 20
513.1760014025555
 30
0.0
 11
84.41810392569501
 21
513.1834341503862
 31
0.0
  0
LINE
  5
A4
  8
0
  6
CONTINUOUS
 62
     7
 10
84.41810392569501
 20
513.1834341503862
 30
0.0
 11
84.42544155029823
 21
513.1905589066746
 31
0.0
  0
LINE
  5
A5
  8
0
  6
CONTINUOUS
 62
     7
 10
84.42544155029823
 20
513.1905589066746
 30
0.0
 11
84.4330704763487
 21
513.1973566533087
 31
0.0
  0
LINE
  5
A6
  8
0
  6
CONTINUOUS
 62
     7
 10
84.4330704763487
 20
513.1973566533087
 30
0.0
 11
84.44074901784036
 21
513.2036380109965
 31
0.0
  0
LINE
  5
A7
  8
0
  6
CONTINUOUS
 62
     7
 10
84.44074901784036
 20
513.2036380109965
 30
0.0
 11
84.44868643650126
 21
513.2096028292972
 31
0.0
  0
LINE
  5
A8
  8
0
  6
CONTINUOUS
 62
     7
 10
84.44868643650126
 20
513.2096028292972
 30
0.0
 11
84.45686117041068
 21
513.2152383162496
 31
0.0
  0
LINE
  5
A9
  8
0
  6
CONTINUOUS
 62
     7
 10
84.45686117041068
 20
513.2152383162496
 30
0.0
 11
84.46525165764793
 21
513.2205316798926
 31
0.0
  0
LINE
  5
AA
  8
0
  6
CONTINUOUS
 62
     7
 10
84.46525165764793
 20
513.2205316798926
 30
0.0
 11
84.47409110889939
 21
513.225611473712
 31
0.0
  0
LINE
  5
AB
  8
0
  6
CONTINUOUS
 62
     7
 10
84.47409110889939
 20
513.225611473712
 30
0.0
 11
84.48314069490812
 21
513.2303254721237
 31
0.0
  0
LINE
  5
AC
  8
0
  6
CONTINUOUS
 62
     7
 10
84.48314069490812
 20
513.2303254721237
 30
0.0
 11
84.49237603282182
 21
513.2346647958061
 31
0.0
  0
LINE
  5
AD
  8
0
  6
CONTINUOUS
 62
     7
 10
84.49237603282182
 20
513.2346647958061
 30
0.0
 11
84.50177273978827
 21
513.238620565438
 31
0.0
  0
LINE
  5
AE
  8
0
  6
CONTINUOUS
 62
     7
 10
84.50177273978827
 20
513.238620565438
 30
0.0
 11
84.51130929265467
 21
513.2421865507674
 31
0.0
  0
LINE
  5
AF
  8
0
  6
CONTINUOUS
 62
     7
 10
84.51130929265467
 20
513.2421865507674
 30
0.0
 11
84.5209890447469
 21
513.2453693793029
 31
0.0
  0
LINE
  5
B0
  8
0
  6
CONTINUOUS
 62
     7
 10
84.5209890447469
 20
513.2453693793029
 30
0.0
 11
84.53078793439867
 21
513.2481647651533
 31
0.0
  0
LINE
  5
B1
  8
0
  6
CONTINUOUS
 62
     7
 10
84.53078793439867
 20
513.2481647651533
 30
0.0
 11
84.54068189994373
 21
513.2505684224275
 31
0.0
  0
LINE
  5
B2
  8
0
  6
CONTINUOUS
 62
     7
 10
84.54068189994373
 20
513.2505684224275
 30
0.0
 11
84.55092354587656
 21
513.2526274247787
 31
0.0
  0
LINE
  5
B3
  8
0
  6
CONTINUOUS
 62
     7
 10
84.55092354587656
 20
513.2526274247787
 30
0.0
 11
84.56124753712317
 21
513.2542764821185
 31
0.0
  0
LINE
  5
B4
  8
0
  6
CONTINUOUS
 62
     7
 10
84.56124753712317
 20
513.2542764821185
 30
0.0
 11
84.57162898547448
 21
513.2555151417006
 31
0.0
  0
LINE
  5
B5
  8
0
  6
CONTINUOUS
 62
     7
 10
84.57162898547448
 20
513.2555151417006
 30
0.0
 11
84.58204300272133
 21
513.2563429507786
 31
0.0
  0
LINE
  5
B6
  8
0
  6
CONTINUOUS
 62
     7
 10
84.58204300272133
 20
513.2563429507786
 30
0.0
 11
84.59279863730423
 21
513.2567673986669
 31
0.0
  0
LINE
  5
B7
  8
0
  6
CONTINUOUS
 62
     7
 10
84.59279863730423
 20
513.2567673986669
 30
0.0
 11
84.60357122538575
 21
513.2567606462069
 31
0.0
  0
LINE
  5
B8
  8
0
  6
CONTINUOUS
 62
     7
 10
84.60357122538575
 20
513.2567606462069
 30
0.0
 11
84.6143352430857
 21
513.2563259624978
 31
0.0
  0
LINE
  5
B9
  8
0
  6
CONTINUOUS
 62
     7
 10
84.6143352430857
 20
513.2563259624978
 30
0.0
 11
84.62506516652381
 21
513.2554666166391
 31
0.0
  0
LINE
  5
BA
  8
0
  6
CONTINUOUS
 62
     7
 10
84.62506516652381
 20
513.2554666166391
 30
0.0
 11
84.63603070674024
 21
513.254145718082
 31
0.0
  0
LINE
  5
BB
  8
0
  6
CONTINUOUS
 62
     7
 10
84.63603070674024
 20
513.254145718082
 30
0.0
 11
84.64694317212188
 21
513.2523846089639
 31
0.0
  0
LINE
  5
BC
  8
0
  6
CONTINUOUS
 62
     7
 10
84.64694317212188
 20
513.2523846089639
 30
0.0
 11
84.6577769723649
 21
513.2501901418907
 31
0.0
  0
LINE
  5
BD
  8
0
  6
CONTINUOUS
 62
     7
 10
84.6577769723649
 20
513.2501901418907
 30
0.0
 11
84.66850651716553
 21
513.2475691694681
 31
0.0
  0
LINE
  5
BE
  8
0
  6
CONTINUOUS
 62
     7
 10
84.66850651716553
 20
513.2475691694681
 30
0.0
 11
84.68250718467566
 21
513.2434568948361
 31
0.0
  0
LINE
  5
BF
  8
0
  6
CONTINUOUS
 62
     7
 10
84.68250718467566
 20
513.2434568948361
 30
0.0
 11
84.69629363793946
 21
513.2386154635335
 31
0.0
  0
LINE
  5
C0
  8
0
  6
CONTINUOUS
 62
     7
 10
84.69629363793946
 20
513.2386154635335
 30
0.0
 11
84.70981173305998
 21
513.2330680668448
 31
0.0
  0
LINE
  5
C1
  8
0
  6
CONTINUOUS
 62
     7
 10
84.70981173305998
 20
513.2330680668448
 30
0.0
 11
84.72300732614025
 21
513.2268378960541
 31
0.0
  0
LINE
  5
C2
  8
0
  6
CONTINUOUS
 62
     7
 10
75.223473178407
 20
513.2268378960553
 30
0.0
 11
75.23452485879831
 21
513.23211199536
 31
0.0
  0
LINE
  5
C3
  8
0
  6
CONTINUOUS
 62
     7
 10
75.23452485879831
 20
513.23211199536
 30
0.0
 11
75.24581119138966
 21
513.2369081140622
 31
0.0
  0
LINE
  5
C4
  8
0
  6
CONTINUOUS
 62
     7
 10
75.24581119138966
 20
513.2369081140622
 30
0.0
 11
75.25730008432897
 21
513.2412126546593
 31
0.0
  0
LINE
  5
C5
  8
0
  6
CONTINUOUS
 62
     7
 10
75.25730008432897
 20
513.2412126546593
 30
0.0
 11
75.2689594457642
 21
513.2450120196486
 31
0.0
  0
LINE
  5
C6
  8
0
  6
CONTINUOUS
 62
     7
 10
75.2689594457642
 20
513.2450120196486
 30
0.0
 11
75.28075718384322
 21
513.2482926115274
 31
0.0
  0
LINE
  5
C7
  8
0
  6
CONTINUOUS
 62
     7
 10
75.28075718384322
 20
513.2482926115274
 30
0.0
 11
75.29216633176956
 21
513.2509404683881
 31
0.0
  0
LINE
  5
C8
  8
0
  6
CONTINUOUS
 62
     7
 10
75.29216633176956
 20
513.2509404683881
 30
0.0
 11
75.30368735664389
 21
513.2531066666963
 31
0.0
  0
LINE
  5
C9
  8
0
  6
CONTINUOUS
 62
     7
 10
75.30368735664389
 20
513.2531066666963
 30
0.0
 11
75.31528951829837
 21
513.2547833834027
 31
0.0
  0
LINE
  5
CA
  8
0
  6
CONTINUOUS
 62
     7
 10
75.31528951829837
 20
513.2547833834027
 30
0.0
 11
75.32694207656519
 21
513.2559627954575
 31
0.0
  0
LINE
  5
CB
  8
0
  6
CONTINUOUS
 62
     7
 10
75.32694207656519
 20
513.2559627954575
 30
0.0
 11
75.3389970594771
 21
513.2566521018186
 31
0.0
  0
LINE
  5
CC
  8
0
  6
CONTINUOUS
 62
     7
 10
75.3389970594771
 20
513.2566521018186
 30
0.0
 11
75.35108291106386
 21
513.2568040093189
 31
0.0
  0
LINE
  5
CD
  8
0
  6
CONTINUOUS
 62
     7
 10
75.35108291106386
 20
513.2568040093189
 30
0.0
 11
75.36316311705365
 21
513.2564148392045
 31
0.0
  0
LINE
  5
CE
  8
0
  6
CONTINUOUS
 62
     7
 10
75.36316311705365
 20
513.2564148392045
 30
0.0
 11
75.37520116317454
 21
513.2554809127215
 31
0.0
  0
LINE
  5
CF
  8
0
  6
CONTINUOUS
 62
     7
 10
75.37520116317454
 20
513.2554809127215
 30
0.0
 11
75.38644431484491
 21
513.254104968137
 31
0.0
  0
LINE
  5
D0
  8
0
  6
CONTINUOUS
 62
     7
 10
75.38644431484491
 20
513.254104968137
 30
0.0
 11
75.3976282588498
 21
513.2522441583652
 31
0.0
  0
LINE
  5
D1
  8
0
  6
CONTINUOUS
 62
     7
 10
75.3976282588498
 20
513.2522441583652
 30
0.0
 11
75.40872076532335
 21
513.2499005702875
 31
0.0
  0
LINE
  5
D2
  8
0
  6
CONTINUOUS
 62
     7
 10
75.40872076532335
 20
513.2499005702875
 30
0.0
 11
75.41968960439961
 21
513.2470762907848
 31
0.0
  0
LINE
  5
D3
  8
0
  6
CONTINUOUS
 62
     7
 10
75.41968960439961
 20
513.2470762907848
 30
0.0
 11
75.43087483826446
 21
513.2436519345632
 31
0.0
  0
LINE
  5
D4
  8
0
  6
CONTINUOUS
 62
     7
 10
75.43087483826446
 20
513.2436519345632
 30
0.0
 11
75.44190264615405
 21
513.2397128215309
 31
0.0
  0
LINE
  5
D5
  8
0
  6
CONTINUOUS
 62
     7
 10
75.44190264615405
 20
513.2397128215309
 30
0.0
 11
75.45273621725934
 21
513.2352682784234
 31
0.0
  0
LINE
  5
D6
  8
0
  6
CONTINUOUS
 62
     7
 10
75.45273621725934
 20
513.2352682784234
 30
0.0
 11
75.46333874077123
 21
513.2303276319757
 31
0.0
  0
LINE
  5
D7
  8
0
  6
CONTINUOUS
 62
     7
 10
75.46333874077123
 20
513.2303276319757
 30
0.0
 11
75.47278712431967
 21
513.2253929769697
 31
0.0
  0
LINE
  5
D8
  8
0
  6
CONTINUOUS
 62
     7
 10
75.47278712431967
 20
513.2253929769697
 30
0.0
 11
75.48202203656405
 21
513.2200493657198
 31
0.0
  0
LINE
  5
D9
  8
0
  6
CONTINUOUS
 62
     7
 10
75.48202203656405
 20
513.2200493657198
 30
0.0
 11
75.4910160100303
 21
513.2143099379787
 31
0.0
  0
LINE
  5
DA
  8
0
  6
CONTINUOUS
 62
     7
 10
75.4910160100303
 20
513.2143099379787
 30
0.0
 11
75.49974157724425
 21
513.2081878334992
 31
0.0
  0
LINE
  5
DB
  8
0
  6
CONTINUOUS
 62
     7
 10
75.49974157724425
 20
513.2081878334992
 30
0.0
 11
75.50845851704017
 21
513.2014664919968
 31
0.0
  0
LINE
  5
DC
  8
0
  6
CONTINUOUS
 62
     7
 10
75.50845851704017
 20
513.2014664919968
 30
0.0
 11
75.5168675413723
 21
513.1943456586532
 31
0.0
  0
LINE
  5
DD
  8
0
  6
CONTINUOUS
 62
     7
 10
75.5168675413723
 20
513.1943456586532
 30
0.0
 11
75.52494087091227
 21
513.1868466780593
 31
0.0
  0
LINE
  5
DE
  8
0
  6
CONTINUOUS
 62
     7
 10
75.52494087091227
 20
513.1868466780593
 30
0.0
 11
75.53265072633172
 21
513.1789908948061
 31
0.0
  0
LINE
  5
DF
  8
0
  6
CONTINUOUS
 62
     7
 10
75.53265072633172
 20
513.1789908948061
 30
0.0
 11
75.53984163082599
 21
513.1709512624252
 31
0.0
  0
LINE
  5
E0
  8
0
  6
CONTINUOUS
 62
     7
 10
75.53984163082599
 20
513.1709512624252
 30
0.0
 11
75.54666821353908
 21
513.1625781049945
 31
0.0
  0
LINE
  5
E1
  8
0
  6
CONTINUOUS
 62
     7
 10
75.54666821353908
 20
513.1625781049945
 30
0.0
 11
75.55310954604904
 21
513.1538981086802
 31
0.0
  0
LINE
  5
E2
  8
0
  6
CONTINUOUS
 62
     7
 10
75.55310954604904
 20
513.1538981086802
 30
0.0
 11
75.55914469993387
 21
513.1449379596481
 31
0.0
  0
LINE
  5
E3
  8
0
  6
CONTINUOUS
 62
     7
 10
75.55914469993387
 20
513.1449379596481
 30
0.0
 11
75.56475274677018
 21
513.135724344063
 31
0.0
  0
LINE
  5
E4
  8
0
  6
CONTINUOUS
 62
     7
 10
75.13174004487797
 20
512.885724344063
 30
0.0
 11
75.12696208723675
 21
512.8944209675343
 31
0.0
  0
LINE
  5
E5
  8
0
  6
CONTINUOUS
 62
     7
 10
75.12696208723675
 20
512.8944209675343
 30
0.0
 11
75.12255154580116
 21
512.9033194473174
 31
0.0
  0
LINE
  5
E6
  8
0
  6
CONTINUOUS
 62
     7
 10
75.12255154580116
 20
512.9033194473174
 30
0.0
 11
75.11851919246669
 21
512.9123956114719
 31
0.0
  0
LINE
  5
E7
  8
0
  6
CONTINUOUS
 62
     7
 10
75.11851919246669
 20
512.9123956114719
 30
0.0
 11
75.11487579912878
 21
512.9216252880575
 31
0.0
  0
LINE
  5
E8
  8
0
  6
CONTINUOUS
 62
     7
 10
75.11487579912878
 20
512.9216252880575
 30
0.0
 11
75.1115345343643
 21
512.9312814902455
 31
0.0
  0
LINE
  5
E9
  8
0
  6
CONTINUOUS
 62
     7
 10
75.1115345343643
 20
512.9312814902455
 30
0.0
 11
75.10861022455227
 21
512.9410819327354
 31
0.0
  0
LINE
  5
EA
  8
0
  6
CONTINUOUS
 62
     7
 10
75.10861022455227
 20
512.9410819327354
 30
0.0
 11
75.10610881691233
 21
512.9509988801894
 31
0.0
  0
LINE
  5
EB
  8
0
  6
CONTINUOUS
 62
     7
 10
75.10610881691233
 20
512.9509988801894
 30
0.0
 11
75.104036258664
 21
512.9610045972697
 31
0.0
  0
LINE
  5
EC
  8
0
  6
CONTINUOUS
 62
     7
 10
75.104036258664
 20
512.9610045972697
 30
0.0
 11
75.10243571408192
 21
512.9707950881095
 31
0.0
  0
LINE
  5
ED
  8
0
  6
CONTINUOUS
 62
     7
 10
75.10243571408192
 20
512.9707950881095
 30
0.0
 11
75.101238739235
 21
512.9806515034606
 31
0.0
  0
LINE
  5
EE
  8
0
  6
CONTINUOUS
 62
     7
 10
75.101238739235
 20
512.9806515034606
 30
0.0
 11
75.10044563132621
 21
512.9905487741715
 31
0.0
  0
LINE
  5
EF
  8
0
  6
CONTINUOUS
 62
     7
 10
75.10044563132621
 20
512.9905487741715
 30
0.0
 11
75.10005668755858
 21
513.0004618310905
 31
0.0
  0
LINE
  5
F0
  8
0
  6
CONTINUOUS
 62
     7
 10
75.10005668755858
 20
513.0004618310905
 30
0.0
 11
75.10007718269073
 21
513.0106569173396
 31
0.0
  0
LINE
  5
F1
  8
0
  6
CONTINUOUS
 62
     7
 10
75.10007718269073
 20
513.0106569173396
 30
0.0
 11
75.10051953331717
 21
513.0208510879227
 31
0.0
  0
LINE
  5
F2
  8
0
  6
CONTINUOUS
 62
     7
 10
75.10051953331717
 20
513.0208510879227
 30
0.0
 11
75.10137923772972
 21
513.0310187870099
 31
0.0
  0
LINE
  5
F3
  8
0
  6
CONTINUOUS
 62
     7
 10
75.10137923772972
 20
513.0310187870099
 30
0.0
 11
75.10265179422018
 21
513.0411344587707
 31
0.0
  0
LINE
  5
F4
  8
0
  6
CONTINUOUS
 62
     7
 10
75.10265179422018
 20
513.0411344587707
 30
0.0
 11
75.10433183676862
 21
513.0511763484822
 31
0.0
  0
LINE
  5
F5
  8
0
  6
CONTINUOUS
 62
     7
 10
75.10433183676862
 20
513.0511763484822
 30
0.0
 11
75.10641530244712
 21
513.0611506739641
 31
0.0
  0
LINE
  5
F6
  8
0
  6
CONTINUOUS
 62
     7
 10
75.10641530244712
 20
513.0611506739641
 30
0.0
 11
75.10889387211319
 21
513.0710344542566
 31
0.0
  0
LINE
  5
F7
  8
0
  6
CONTINUOUS
 62
     7
 10
75.10889387211319
 20
513.0710344542566
 30
0.0
 11
75.11175922662433
 21
513.0808047083999
 31
0.0
  0
LINE
  5
F8
  8
0
  6
CONTINUOUS
 62
     7
 10
75.11175922662433
 20
513.0808047083999
 30
0.0
 11
75.11509690124811
 21
513.0907037351299
 31
0.0
  0
LINE
  5
F9
  8
0
  6
CONTINUOUS
 62
     7
 10
75.11509690124811
 20
513.0907037351299
 30
0.0
 11
75.11883077132283
 21
513.1004691024879
 31
0.0
  0
LINE
  5
FA
  8
0
  6
CONTINUOUS
 62
     7
 10
75.11883077132283
 20
513.1004691024879
 30
0.0
 11
75.1229487848338
 21
513.1100790302792
 31
0.0
  0
LINE
  5
FB
  8
0
  6
CONTINUOUS
 62
     7
 10
75.1229487848338
 20
513.1100790302792
 30
0.0
 11
75.12743888976621
 21
513.1195117383094
 31
0.0
  0
LINE
  5
FC
  8
0
  6
CONTINUOUS
 62
     7
 10
75.12743888976621
 20
513.1195117383094
 30
0.0
 11
75.13244912440379
 21
513.129038615036
 31
0.0
  0
LINE
  5
FD
  8
0
  6
CONTINUOUS
 62
     7
 10
75.13244912440379
 20
513.129038615036
 30
0.0
 11
75.13784126624653
 21
513.1383645737492
 31
0.0
  0
LINE
  5
FE
  8
0
  6
CONTINUOUS
 62
     7
 10
75.13784126624653
 20
513.1383645737492
 30
0.0
 11
75.14359972223114
 21
513.1474691446696
 31
0.0
  0
LINE
  5
FF
  8
0
  6
CONTINUOUS
 62
     7
 10
75.14359972223114
 20
513.1474691446696
 30
0.0
 11
75.14970889929438
 21
513.1563318580183
 31
0.0
  0
LINE
  5
100
  8
0
  6
CONTINUOUS
 62
     7
 10
75.14970889929438
 20
513.1563318580183
 30
0.0
 11
75.15633560110886
 21
513.1651678451334
 31
0.0
  0
LINE
  5
101
  8
0
  6
CONTINUOUS
 62
     7
 10
75.15633560110886
 20
513.1651678451334
 30
0.0
 11
75.16331699903478
 21
513.1737377628128
 31
0.0
  0
LINE
  5
102
  8
0
  6
CONTINUOUS
 62
     7
 10
75.16331699903478
 20
513.1737377628128
 30
0.0
 11
75.17063436338951
 21
513.1820228755062
 31
0.0
  0
LINE
  5
103
  8
0
  6
CONTINUOUS
 62
     7
 10
75.17063436338951
 20
513.1820228755062
 30
0.0
 11
75.17826896449041
 21
513.1900044476632
 31
0.0
  0
LINE
  5
104
  8
0
  6
CONTINUOUS
 62
     7
 10
75.17826896449041
 20
513.1900044476632
 30
0.0
 11
75.18883063254411
 21
513.200073244081
 31
0.0
  0
LINE
  5
105
  8
0
  6
CONTINUOUS
 62
     7
 10
75.18883063254411
 20
513.200073244081
 30
0.0
 11
75.19991666167473
 21
513.2095919471843
 31
0.0
  0
LINE
  5
106
  8
0
  6
CONTINUOUS
 62
     7
 10
75.19991666167473
 20
513.2095919471843
 30
0.0
 11
75.21147989569234
 21
513.218525262625
 31
0.0
  0
LINE
  5
107
  8
0
  6
CONTINUOUS
 62
     7
 10
75.21147989569234
 20
513.218525262625
 30
0.0
 11
75.223473178407
 21
513.2268378960553
 31
0.0
  0
LINE
  5
108
  8
0
  6
CONTINUOUS
 62
     7
 10
70.4737061045395
 20
505.000000000001
 30
0.0
 11
70.47466444075516
 21
505.0122080856269
 31
0.0
  0
LINE
  5
109
  8
0
  6
CONTINUOUS
 62
     7
 10
70.47466444075516
 20
505.0122080856269
 30
0.0
 11
70.47615404641516
 21
505.0243803957175
 31
0.0
  0
LINE
  5
10A
  8
0
  6
CONTINUOUS
 62
     7
 10
70.47615404641516
 20
505.0243803957175
 30
0.0
 11
70.47817065137615
 21
505.0364823391629
 31
0.0
  0
LINE
  5
10B
  8
0
  6
CONTINUOUS
 62
     7
 10
70.47817065137615
 20
505.0364823391629
 30
0.0
 11
70.48070998549481
 21
505.0484793248523
 31
0.0
  0
LINE
  5
10C
  8
0
  6
CONTINUOUS
 62
     7
 10
70.48070998549481
 20
505.0484793248523
 30
0.0
 11
70.48376777862781
 21
505.0603367616754
 31
0.0
  0
LINE
  5
10D
  8
0
  6
CONTINUOUS
 62
     7
 10
70.48376777862781
 20
505.0603367616754
 30
0.0
 11
70.48717924128403
 21
505.0715413020453
 31
0.0
  0
LINE
  5
10E
  8
0
  6
CONTINUOUS
 62
     7
 10
70.48717924128403
 20
505.0715413020453
 30
0.0
 11
70.49106377095657
 21
505.0826019014184
 31
0.0
  0
LINE
  5
10F
  8
0
  6
CONTINUOUS
 62
     7
 10
70.49106377095657
 20
505.0826019014184
 30
0.0
 11
70.49541277252115
 21
505.0934880265032
 31
0.0
  0
LINE
  5
110
  8
0
  6
CONTINUOUS
 62
     7
 10
70.49541277252115
 20
505.0934880265032
 30
0.0
 11
70.5002176508535
 21
505.1041691440088
 31
0.0
  0
LINE
  5
111
  8
0
  6
CONTINUOUS
 62
     7
 10
70.5002176508535
 20
505.1041691440088
 30
0.0
 11
70.50564818548978
 21
505.1149537186332
 31
0.0
  0
LINE
  5
112
  8
0
  6
CONTINUOUS
 62
     7
 10
70.50564818548978
 20
505.1149537186332
 30
0.0
 11
70.51155955552892
 21
505.1254963268839
 31
0.0
  0
LINE
  5
113
  8
0
  6
CONTINUOUS
 62
     7
 10
70.51155955552892
 20
505.1254963268839
 30
0.0
 11
70.51793668972928
 21
505.1357635070968
 31
0.0
  0
LINE
  5
114
  8
0
  6
CONTINUOUS
 62
     7
 10
70.51793668972928
 20
505.1357635070968
 30
0.0
 11
70.52476451684926
 21
505.1457217976077
 31
0.0
  0
LINE
  5
115
  8
0
  6
CONTINUOUS
 62
     7
 10
70.52476451684926
 20
505.1457217976077
 30
0.0
 11
70.53157769564892
 21
505.1547706802807
 31
0.0
  0
LINE
  5
116
  8
0
  6
CONTINUOUS
 62
     7
 10
70.53157769564892
 20
505.1547706802807
 30
0.0
 11
70.53878117618524
 21
505.1635258550178
 31
0.0
  0
LINE
  5
117
  8
0
  6
CONTINUOUS
 62
     7
 10
70.53878117618524
 20
505.1635258550178
 30
0.0
 11
70.54635703623332
 21
505.1719604533765
 31
0.0
  0
LINE
  5
118
  8
0
  6
CONTINUOUS
 62
     7
 10
70.54635703623332
 20
505.1719604533765
 30
0.0
 11
70.5542873535682
 21
505.180047606915
 31
0.0
  0
LINE
  5
119
  8
0
  6
CONTINUOUS
 62
     7
 10
70.5542873535682
 20
505.180047606915
 30
0.0
 11
70.56284554998014
 21
505.1880221254788
 31
0.0
  0
LINE
  5
11A
  8
0
  6
CONTINUOUS
 62
     7
 10
70.56284554998014
 20
505.1880221254788
 30
0.0
 11
70.57177082587926
 21
505.1956029307431
 31
0.0
  0
LINE
  5
11B
  8
0
  6
CONTINUOUS
 62
     7
 10
70.57177082587926
 20
505.1956029307431
 30
0.0
 11
70.58103669867127
 21
505.2027628069799
 31
0.0
  0
LINE
  5
11C
  8
0
  6
CONTINUOUS
 62
     7
 10
70.58103669867127
 20
505.2027628069799
 30
0.0
 11
70.59061668576196
 21
505.2094745384616
 31
0.0
  0
LINE
  5
11D
  8
0
  6
CONTINUOUS
 62
     7
 10
70.59061668576196
 20
505.2094745384616
 30
0.0
 11
70.59961441413039
 21
505.2151897511363
 31
0.0
  0
LINE
  5
11E
  8
0
  6
CONTINUOUS
 62
     7
 10
70.59961441413039
 20
505.2151897511363
 30
0.0
 11
70.60885957334295
 21
505.2205156141167
 31
0.0
  0
LINE
  5
11F
  8
0
  6
CONTINUOUS
 62
     7
 10
70.60885957334295
 20
505.2205156141167
 30
0.0
 11
70.61832705030298
 21
505.2254349097489
 31
0.0
  0
LINE
  5
120
  8
0
  6
CONTINUOUS
 62
     7
 10
70.61832705030298
 20
505.2254349097489
 30
0.0
 11
70.62799173191385
 21
505.2299304203789
 31
0.0
  0
LINE
  5
121
  8
0
  6
CONTINUOUS
 62
     7
 10
70.62799173191385
 20
505.2299304203789
 30
0.0
 11
70.63817105430039
 21
505.2341188409343
 31
0.0
  0
LINE
  5
122
  8
0
  6
CONTINUOUS
 62
     7
 10
70.63817105430039
 20
505.2341188409343
 30
0.0
 11
70.64854238903813
 21
505.2378408529551
 31
0.0
  0
LINE
  5
123
  8
0
  6
CONTINUOUS
 62
     7
 10
70.64854238903813
 20
505.2378408529551
 30
0.0
 11
70.65907336150491
 21
505.2410830711329
 31
0.0
  0
LINE
  5
124
  8
0
  6
CONTINUOUS
 62
     7
 10
70.65907336150491
 20
505.2410830711329
 30
0.0
 11
70.66973159707852
 21
505.243832110159
 31
0.0
  0
LINE
  5
125
  8
0
  6
CONTINUOUS
 62
     7
 10
70.66973159707852
 20
505.243832110159
 30
0.0
 11
70.68028957520461
 21
505.2460397999366
 31
0.0
  0
LINE
  5
126
  8
0
  6
CONTINUOUS
 62
     7
 10
70.68028957520461
 20
505.2460397999366
 30
0.0
 11
70.69095423360598
 21
505.247765215272
 31
0.0
  0
LINE
  5
127
  8
0
  6
CONTINUOUS
 62
     7
 10
70.69095423360598
 20
505.247765215272
 30
0.0
 11
70.70169199717395
 21
505.2490035747027
 31
0.0
  0
LINE
  5
128
  8
0
  6
CONTINUOUS
 62
     7
 10
70.70169199717395
 20
505.2490035747027
 30
0.0
 11
70.71246929079986
 21
505.2497500967668
 31
0.0
  0
LINE
  5
129
  8
0
  6
CONTINUOUS
 62
     7
 10
70.71246929079986
 20
505.2497500967668
 30
0.0
 11
70.72325253937545
 21
505.2499999999998
 31
0.0
  0
LINE
  5
12A
  8
0
  6
CONTINUOUS
 62
     7
 10
70.72325253937545
 20
504.75
 30
0.0
 11
70.71333206370147
 21
504.7502104790402
 31
0.0
  0
LINE
  5
12B
  8
0
  6
CONTINUOUS
 62
     7
 10
70.71333206370147
 20
504.7502104790402
 30
0.0
 11
70.70342048343652
 21
504.7508400780039
 31
0.0
  0
LINE
  5
12C
  8
0
  6
CONTINUOUS
 62
     7
 10
70.70342048343652
 20
504.7508400780039
 30
0.0
 11
70.6935441180426
 21
504.7518860396566
 31
0.0
  0
LINE
  5
12D
  8
0
  6
CONTINUOUS
 62
     7
 10
70.6935441180426
 20
504.7518860396566
 30
0.0
 11
70.68372928698173
 21
504.7533456067629
 31
0.0
  0
LINE
  5
12E
  8
0
  6
CONTINUOUS
 62
     7
 10
70.68372928698173
 20
504.7533456067629
 30
0.0
 11
70.67369613820061
 21
504.75528008769
 31
0.0
  0
LINE
  5
12F
  8
0
  6
CONTINUOUS
 62
     7
 10
70.67369613820061
 20
504.75528008769
 30
0.0
 11
70.66374655113
 21
504.7576477823492
 31
0.0
  0
LINE
  5
130
  8
0
  6
CONTINUOUS
 62
     7
 10
70.66374655113
 20
504.7576477823492
 30
0.0
 11
70.65390751888683
 21
504.7604399735148
 31
0.0
  0
LINE
  5
131
  8
0
  6
CONTINUOUS
 62
     7
 10
70.65390751888683
 20
504.7604399735148
 30
0.0
 11
70.64420603458802
 21
504.7636479439611
 31
0.0
  0
LINE
  5
132
  8
0
  6
CONTINUOUS
 62
     7
 10
70.64420603458802
 20
504.7636479439611
 30
0.0
 11
70.63492694851429
 21
504.7671570771129
 31
0.0
  0
LINE
  5
133
  8
0
  6
CONTINUOUS
 62
     7
 10
70.63492694851429
 20
504.7671570771129
 30
0.0
 11
70.62579255500647
 21
504.7710486741634
 31
0.0
  0
LINE
  5
134
  8
0
  6
CONTINUOUS
 62
     7
 10
70.62579255500647
 20
504.7710486741634
 30
0.0
 11
70.61682471318827
 21
504.775310457922
 31
0.0
  0
LINE
  5
135
  8
0
  6
CONTINUOUS
 62
     7
 10
70.61682471318827
 20
504.775310457922
 30
0.0
 11
70.60804528218338
 21
504.779930151198
 31
0.0
  0
LINE
  5
136
  8
0
  6
CONTINUOUS
 62
     7
 10
70.60804528218338
 20
504.779930151198
 30
0.0
 11
70.59922632606407
 21
504.7850454436278
 31
0.0
  0
LINE
  5
137
  8
0
  6
CONTINUOUS
 62
     7
 10
70.59922632606407
 20
504.7850454436278
 30
0.0
 11
70.5906190906818
 21
504.7905256157991
 31
0.0
  0
LINE
  5
138
  8
0
  6
CONTINUOUS
 62
     7
 10
70.5906190906818
 20
504.7905256157991
 30
0.0
 11
70.58224345718062
 21
504.7963539912036
 31
0.0
  0
LINE
  5
139
  8
0
  6
CONTINUOUS
 62
     7
 10
70.58224345718062
 20
504.7963539912036
 30
0.0
 11
70.57411930670465
 21
504.8025138933325
 31
0.0
  0
LINE
  5
13A
  8
0
  6
CONTINUOUS
 62
     7
 10
70.57411930670465
 20
504.8025138933325
 30
0.0
 11
70.56626279638667
 21
504.8089897977147
 31
0.0
  0
LINE
  5
13B
  8
0
  6
CONTINUOUS
 62
     7
 10
70.56626279638667
 20
504.8089897977147
 30
0.0
 11
70.55866650997295
 21
504.8157812946612
 31
0.0
  0
LINE
  5
13C
  8
0
  6
CONTINUOUS
 62
     7
 10
70.55866650997295
 20
504.8157812946612
 30
0.0
 11
70.55134618998724
 21
504.8228696891033
 31
0.0
  0
LINE
  5
13D
  8
0
  6
CONTINUOUS
 62
     7
 10
70.55134618998724
 20
504.8228696891033
 30
0.0
 11
70.54431757895333
 21
504.8302362859723
 31
0.0
  0
LINE
  5
13E
  8
0
  6
CONTINUOUS
 62
     7
 10
70.54431757895333
 20
504.8302362859723
 30
0.0
 11
70.53741360764428
 21
504.838076310351
 31
0.0
  0
LINE
  5
13F
  8
0
  6
CONTINUOUS
 62
     7
 10
70.53741360764428
 20
504.838076310351
 30
0.0
 11
70.5308234864724
 21
504.8461926203692
 31
0.0
  0
LINE
  5
140
  8
0
  6
CONTINUOUS
 62
     7
 10
70.5308234864724
 20
504.8461926203692
 30
0.0
 11
70.52456005163205
 21
504.8545638885785
 31
0.0
  0
LINE
  5
141
  8
0
  6
CONTINUOUS
 62
     7
 10
70.52456005163205
 20
504.8545638885785
 30
0.0
 11
70.5186361393176
 21
504.8631687875308
 31
0.0
  0
LINE
  5
142
  8
0
  6
CONTINUOUS
 62
     7
 10
70.5186361393176
 20
504.8631687875308
 30
0.0
 11
70.5128907393723
 21
504.8722712163693
 31
0.0
  0
LINE
  5
143
  8
0
  6
CONTINUOUS
 62
     7
 10
70.5128907393723
 20
504.8722712163693
 30
0.0
 11
70.50751029313349
 21
504.8816039275424
 31
0.0
  0
LINE
  5
144
  8
0
  6
CONTINUOUS
 62
     7
 10
70.50751029313349
 20
504.8816039275424
 30
0.0
 11
70.50250473141818
 21
504.8911431821717
 31
0.0
  0
LINE
  5
145
  8
0
  6
CONTINUOUS
 62
     7
 10
70.50250473141818
 20
504.8911431821717
 30
0.0
 11
70.49788398504329
 21
504.9008652413792
 31
0.0
  0
LINE
  5
146
  8
0
  6
CONTINUOUS
 62
     7
 10
70.49788398504329
 20
504.9008652413792
 30
0.0
 11
70.49354514664134
 21
504.9110221270514
 31
0.0
  0
LINE
  5
147
  8
0
  6
CONTINUOUS
 62
     7
 10
70.49354514664134
 20
504.9110221270514
 30
0.0
 11
70.48961407918564
 21
504.9213531538489
 31
0.0
  0
LINE
  5
148
  8
0
  6
CONTINUOUS
 62
     7
 10
70.48961407918564
 20
504.9213531538489
 30
0.0
 11
70.48609764329734
 21
504.9318327336155
 31
0.0
  0
LINE
  5
149
  8
0
  6
CONTINUOUS
 62
     7
 10
70.48609764329734
 20
504.9318327336155
 30
0.0
 11
70.48300269959762
 21
504.9424352781951
 31
0.0
  0
LINE
  5
14A
  8
0
  6
CONTINUOUS
 62
     7
 10
70.48300269959762
 20
504.9424352781951
 30
0.0
 11
70.4795637001412
 21
504.9566163492449
 31
0.0
  0
LINE
  5
14B
  8
0
  6
CONTINUOUS
 62
     7
 10
70.4795637001412
 20
504.9566163492449
 30
0.0
 11
70.476863276008
 21
504.9709764836509
 31
0.0
  0
LINE
  5
14C
  8
0
  6
CONTINUOUS
 62
     7
 10
70.476863276008
 20
504.9709764836509
 30
0.0
 11
70.4749084149051
 21
504.9854571957802
 31
0.0
  0
LINE
  5
14D
  8
0
  6
CONTINUOUS
 62
     7
 10
70.4749084149051
 20
504.9854571957802
 30
0.0
 11
70.4737061045395
 21
505.000000000001
 31
0.0
  0
LINE
  5
14E
  8
0
  6
CONTINUOUS
 62
     7
 10
75.2234731784052
 20
496.7731621039458
 30
0.0
 11
75.21337983422958
 21
496.7800960902668
 31
0.0
  0
LINE
  5
14F
  8
0
  6
CONTINUOUS
 62
     7
 10
75.21337983422958
 20
496.7800960902668
 30
0.0
 11
75.20358310729823
 21
496.7874722816554
 31
0.0
  0
LINE
  5
150
  8
0
  6
CONTINUOUS
 62
     7
 10
75.20358310729823
 20
496.7874722816554
 30
0.0
 11
75.19411081931992
 21
496.7952696845036
 31
0.0
  0
LINE
  5
151
  8
0
  6
CONTINUOUS
 62
     7
 10
75.19411081931992
 20
496.7952696845036
 30
0.0
 11
75.18499079200335
 21
496.8034673052038
 31
0.0
  0
LINE
  5
152
  8
0
  6
CONTINUOUS
 62
     7
 10
75.18499079200335
 20
496.8034673052038
 30
0.0
 11
75.17625084705732
 21
496.812044150148
 31
0.0
  0
LINE
  5
153
  8
0
  6
CONTINUOUS
 62
     7
 10
75.17625084705732
 20
496.812044150148
 30
0.0
 11
75.16825316178719
 21
496.8206008336574
 31
0.0
  0
LINE
  5
154
  8
0
  6
CONTINUOUS
 62
     7
 10
75.16825316178719
 20
496.8206008336574
 30
0.0
 11
75.16061666658541
 21
496.8294952347221
 31
0.0
  0
LINE
  5
155
  8
0
  6
CONTINUOUS
 62
     7
 10
75.16061666658541
 20
496.8294952347221
 30
0.0
 11
75.15336350649551
 21
496.8387046431005
 31
0.0
  0
LINE
  5
156
  8
0
  6
CONTINUOUS
 62
     7
 10
75.15336350649551
 20
496.8387046431005
 30
0.0
 11
75.14651582656104
 21
496.8482063485512
 31
0.0
  0
LINE
  5
157
  8
0
  6
CONTINUOUS
 62
     7
 10
75.14651582656104
 20
496.8482063485512
 30
0.0
 11
75.13989137828541
 21
496.8583016168145
 31
0.0
  0
LINE
  5
158
  8
0
  6
CONTINUOUS
 62
     7
 10
75.13989137828541
 20
496.8583016168145
 30
0.0
 11
75.13371689673777
 21
496.8686923175649
 31
0.0
  0
LINE
  5
159
  8
0
  6
CONTINUOUS
 62
     7
 10
75.13371689673777
 20
496.8686923175649
 30
0.0
 11
75.12801382494837
 21
496.8793486678922
 31
0.0
  0
LINE
  5
15A
  8
0
  6
CONTINUOUS
 62
     7
 10
75.12801382494837
 20
496.8793486678922
 30
0.0
 11
75.12280360594745
 21
496.8902408848863
 31
0.0
  0
LINE
  5
15B
  8
0
  6
CONTINUOUS
 62
     7
 10
75.12280360594745
 20
496.8902408848863
 30
0.0
 11
75.11837363307674
 21
496.9006657121438
 31
0.0
  0
LINE
  5
15C
  8
0
  6
CONTINUOUS
 62
     7
 10
75.11837363307674
 20
496.9006657121438
 30
0.0
 11
75.11439316960816
 21
496.9112816966524
 31
0.0
  0
LINE
  5
15D
  8
0
  6
CONTINUOUS
 62
     7
 10
75.11439316960816
 20
496.9112816966524
 30
0.0
 11
75.11087652318268
 21
496.9220598830889
 31
0.0
  0
LINE
  5
15E
  8
0
  6
CONTINUOUS
 62
     7
 10
75.11087652318268
 20
496.9220598830889
 30
0.0
 11
75.10783800144131
 21
496.9329713161304
 31
0.0
  0
LINE
  5
15F
  8
0
  6
CONTINUOUS
 62
     7
 10
75.10783800144131
 20
496.9329713161304
 30
0.0
 11
75.10521096398844
 21
496.9443701909154
 31
0.0
  0
LINE
  5
160
  8
0
  6
CONTINUOUS
 62
     7
 10
75.10521096398844
 20
496.9443701909154
 30
0.0
 11
75.10310843199794
 21
496.955890109212
 31
0.0
  0
LINE
  5
161
  8
0
  6
CONTINUOUS
 62
     7
 10
75.10310843199794
 20
496.955890109212
 30
0.0
 11
75.10154073368466
 21
496.9674945285566
 31
0.0
  0
LINE
  5
162
  8
0
  6
CONTINUOUS
 62
     7
 10
75.10154073368466
 20
496.9674945285566
 30
0.0
 11
75.10051819726344
 21
496.979146906486
 31
0.0
  0
LINE
  5
163
  8
0
  6
CONTINUOUS
 62
     7
 10
75.10051819726344
 20
496.979146906486
 30
0.0
 11
75.10006754208345
 21
496.9897967741667
 31
0.0
  0
LINE
  5
164
  8
0
  6
CONTINUOUS
 62
     7
 10
75.10006754208345
 20
496.9897967741667
 30
0.0
 11
75.10007778905162
 21
497.000466248397
 31
0.0
  0
LINE
  5
165
  8
0
  6
CONTINUOUS
 62
     7
 10
75.10007778905162
 20
497.000466248397
 30
0.0
 11
75.10055129254543
 21
497.0111249717702
 31
0.0
  0
LINE
  5
166
  8
0
  6
CONTINUOUS
 62
     7
 10
75.10055129254543
 20
497.0111249717702
 30
0.0
 11
75.10149040694233
 21
497.0217425868797
 31
0.0
  0
LINE
  5
167
  8
0
  6
CONTINUOUS
 62
     7
 10
75.10149040694233
 20
497.0217425868797
 30
0.0
 11
75.10295278953295
 21
497.0326523489375
 31
0.0
  0
LINE
  5
168
  8
0
  6
CONTINUOUS
 62
     7
 10
75.10295278953295
 20
497.0326523489375
 30
0.0
 11
75.10491509993857
 21
497.0434951943019
 31
0.0
  0
LINE
  5
169
  8
0
  6
CONTINUOUS
 62
     7
 10
75.10491509993857
 20
497.0434951943019
 30
0.0
 11
75.10737274286535
 21
497.0542363930736
 31
0.0
  0
LINE
  5
16A
  8
0
  6
CONTINUOUS
 62
     7
 10
75.10737274286535
 20
497.0542363930736
 30
0.0
 11
75.11032112301955
 21
497.0648412153529
 31
0.0
  0
LINE
  5
16B
  8
0
  6
CONTINUOUS
 62
     7
 10
75.11032112301955
 20
497.0648412153529
 30
0.0
 11
75.11368819665135
 21
497.0750885375116
 31
0.0
  0
LINE
  5
16C
  8
0
  6
CONTINUOUS
 62
     7
 10
75.11368819665135
 20
497.0750885375116
 30
0.0
 11
75.11752627233963
 21
497.0851871102775
 31
0.0
  0
LINE
  5
16D
  8
0
  6
CONTINUOUS
 62
     7
 10
75.11752627233963
 20
497.0851871102775
 30
0.0
 11
75.12182270339764
 21
497.0951054660225
 31
0.0
  0
LINE
  5
16E
  8
0
  6
CONTINUOUS
 62
     7
 10
75.12182270339764
 20
497.0951054660225
 30
0.0
 11
75.12656484313872
 21
497.1048121371186
 31
0.0
  0
LINE
  5
16F
  8
0
  6
CONTINUOUS
 62
     7
 10
75.12656484313872
 20
497.1048121371186
 30
0.0
 11
75.13174004487797
 21
497.114275655937
 31
0.0
  0
LINE
  5
170
  8
0
  6
CONTINUOUS
 62
     7
 10
75.5647527467702
 20
496.864275655937
 30
0.0
 11
75.55961022873745
 21
496.8557895115058
 31
0.0
  0
LINE
  5
171
  8
0
  6
CONTINUOUS
 62
     7
 10
75.55961022873745
 20
496.8557895115058
 30
0.0
 11
75.55410918990808
 21
496.8475206306866
 31
0.0
  0
LINE
  5
172
  8
0
  6
CONTINUOUS
 62
     7
 10
75.55410918990808
 20
496.8475206306866
 30
0.0
 11
75.54826517784862
 21
496.8394904281848
 31
0.0
  0
LINE
  5
173
  8
0
  6
CONTINUOUS
 62
     7
 10
75.54826517784862
 20
496.8394904281848
 30
0.0
 11
75.54209374012568
 21
496.8317203187053
 31
0.0
  0
LINE
  5
174
  8
0
  6
CONTINUOUS
 62
     7
 10
75.54209374012568
 20
496.8317203187053
 30
0.0
 11
75.53540185610905
 21
496.8239985974445
 31
0.0
  0
LINE
  5
175
  8
0
  6
CONTINUOUS
 62
     7
 10
75.53540185610905
 20
496.8239985974445
 30
0.0
 11
75.52837657885044
 21
496.8165658496138
 31
0.0
  0
LINE
  5
176
  8
0
  6
CONTINUOUS
 62
     7
 10
75.52837657885044
 20
496.8165658496138
 30
0.0
 11
75.52103895424723
 21
496.8094410933253
 31
0.0
  0
LINE
  5
177
  8
0
  6
CONTINUOUS
 62
     7
 10
75.52103895424723
 20
496.8094410933253
 30
0.0
 11
75.51341002819676
 21
496.8026433466913
 31
0.0
  0
LINE
  5
178
  8
0
  6
CONTINUOUS
 62
     7
 10
75.51341002819676
 20
496.8026433466913
 30
0.0
 11
75.5057314867051
 21
496.7963619890035
 31
0.0
  0
LINE
  5
179
  8
0
  6
CONTINUOUS
 62
     7
 10
75.5057314867051
 20
496.7963619890035
 30
0.0
 11
75.49779406804421
 21
496.7903971707028
 31
0.0
  0
LINE
  5
17A
  8
0
  6
CONTINUOUS
 62
     7
 10
75.49779406804421
 20
496.7903971707028
 30
0.0
 11
75.48961933413479
 21
496.7847616837503
 31
0.0
  0
LINE
  5
17B
  8
0
  6
CONTINUOUS
 62
     7
 10
75.48961933413479
 20
496.7847616837503
 30
0.0
 11
75.48122884689754
 21
496.7794683201074
 31
0.0
  0
LINE
  5
17C
  8
0
  6
CONTINUOUS
 62
     7
 10
75.48122884689754
 20
496.7794683201074
 30
0.0
 11
75.47238939564608
 21
496.774388526288
 31
0.0
  0
LINE
  5
17D
  8
0
  6
CONTINUOUS
 62
     7
 10
75.47238939564608
 20
496.774388526288
 30
0.0
 11
75.46333980963736
 21
496.7696745278764
 31
0.0
  0
LINE
  5
17E
  8
0
  6
CONTINUOUS
 62
     7
 10
75.46333980963736
 20
496.7696745278764
 30
0.0
 11
75.45410447172365
 21
496.7653352041938
 31
0.0
  0
LINE
  5
17F
  8
0
  6
CONTINUOUS
 62
     7
 10
75.45410447172365
 20
496.7653352041938
 30
0.0
 11
75.4447077647572
 21
496.7613794345619
 31
0.0
  0
LINE
  5
180
  8
0
  6
CONTINUOUS
 62
     7
 10
75.4447077647572
 20
496.7613794345619
 30
0.0
 11
75.43517121189079
 21
496.7578134492325
 31
0.0
  0
LINE
  5
181
  8
0
  6
CONTINUOUS
 62
     7
 10
75.43517121189079
 20
496.7578134492325
 30
0.0
 11
75.42549145979856
 21
496.754630620697
 31
0.0
  0
LINE
  5
182
  8
0
  6
CONTINUOUS
 62
     7
 10
75.42549145979856
 20
496.754630620697
 30
0.0
 11
75.4156925701468
 21
496.7518352348467
 31
0.0
  0
LINE
  5
183
  8
0
  6
CONTINUOUS
 62
     7
 10
75.4156925701468
 20
496.7518352348467
 30
0.0
 11
75.40579860460174
 21
496.7494315775725
 31
0.0
  0
LINE
  5
184
  8
0
  6
CONTINUOUS
 62
     7
 10
75.40579860460174
 20
496.7494315775725
 30
0.0
 11
75.3955569586689
 21
496.7473725752213
 31
0.0
  0
LINE
  5
185
  8
0
  6
CONTINUOUS
 62
     7
 10
75.3955569586689
 20
496.7473725752213
 30
0.0
 11
75.38523296742228
 21
496.7457235178814
 31
0.0
  0
LINE
  5
186
  8
0
  6
CONTINUOUS
 62
     7
 10
75.38523296742228
 20
496.7457235178814
 30
0.0
 11
75.37485151907099
 21
496.7444848582994
 31
0.0
  0
LINE
  5
187
  8
0
  6
CONTINUOUS
 62
     7
 10
75.37485151907099
 20
496.7444848582994
 30
0.0
 11
75.36443750182413
 21
496.7436570492214
 31
0.0
  0
LINE
  5
188
  8
0
  6
CONTINUOUS
 62
     7
 10
75.36443750182413
 20
496.7436570492214
 30
0.0
 11
75.35368186724124
 21
496.7432326013331
 31
0.0
  0
LINE
  5
189
  8
0
  6
CONTINUOUS
 62
     7
 10
75.35368186724124
 20
496.7432326013331
 30
0.0
 11
75.34290927915971
 21
496.7432393537932
 31
0.0
  0
LINE
  5
18A
  8
0
  6
CONTINUOUS
 62
     7
 10
75.34290927915971
 20
496.7432393537932
 30
0.0
 11
75.33214526145977
 21
496.7436740375022
 31
0.0
  0
LINE
  5
18B
  8
0
  6
CONTINUOUS
 62
     7
 10
75.33214526145977
 20
496.7436740375022
 30
0.0
 11
75.32141533802165
 21
496.7445333833608
 31
0.0
  0
LINE
  5
18C
  8
0
  6
CONTINUOUS
 62
     7
 10
75.32141533802165
 20
496.7445333833608
 30
0.0
 11
75.3104497978052
 21
496.7458542819179
 31
0.0
  0
LINE
  5
18D
  8
0
  6
CONTINUOUS
 62
     7
 10
75.3104497978052
 20
496.7458542819179
 30
0.0
 11
75.29953733242358
 21
496.747615391036
 31
0.0
  0
LINE
  5
18E
  8
0
  6
CONTINUOUS
 62
     7
 10
75.29953733242358
 20
496.747615391036
 30
0.0
 11
75.28870353218056
 21
496.7498098581093
 31
0.0
  0
LINE
  5
18F
  8
0
  6
CONTINUOUS
 62
     7
 10
75.28870353218056
 20
496.7498098581093
 30
0.0
 11
75.27797398737994
 21
496.7524308305319
 31
0.0
  0
LINE
  5
190
  8
0
  6
CONTINUOUS
 62
     7
 10
75.27797398737994
 20
496.7524308305319
 30
0.0
 11
75.2639733198698
 21
496.7565431051639
 31
0.0
  0
LINE
  5
191
  8
0
  6
CONTINUOUS
 62
     7
 10
75.2639733198698
 20
496.7565431051639
 30
0.0
 11
75.250186866606
 21
496.7613845364664
 31
0.0
  0
LINE
  5
192
  8
0
  6
CONTINUOUS
 62
     7
 10
75.250186866606
 20
496.7613845364664
 30
0.0
 11
75.23666877148548
 21
496.7669319331552
 31
0.0
  0
LINE
  5
193
  8
0
  6
CONTINUOUS
 62
     7
 10
75.23666877148548
 20
496.7669319331552
 30
0.0
 11
75.2234731784052
 21
496.7731621039458
 31
0.0
  0
LINE
  5
194
  8
0
  6
CONTINUOUS
 62
     7
 10
84.72300732613846
 20
496.7731621039447
 30
0.0
 11
84.71195564574715
 21
496.76788800464
 31
0.0
  0
LINE
  5
195
  8
0
  6
CONTINUOUS
 62
     7
 10
84.71195564574715
 20
496.76788800464
 30
0.0
 11
84.7006693131558
 21
496.7630918859378
 31
0.0
  0
LINE
  5
196
  8
0
  6
CONTINUOUS
 62
     7
 10
84.7006693131558
 20
496.7630918859378
 30
0.0
 11
84.68918042021649
 21
496.7587873453407
 31
0.0
  0
LINE
  5
197
  8
0
  6
CONTINUOUS
 62
     7
 10
84.68918042021649
 20
496.7587873453407
 30
0.0
 11
84.67752105878128
 21
496.7549879803515
 31
0.0
  0
LINE
  5
198
  8
0
  6
CONTINUOUS
 62
     7
 10
84.67752105878128
 20
496.7549879803515
 30
0.0
 11
84.66572332070224
 21
496.7517073884726
 31
0.0
  0
LINE
  5
199
  8
0
  6
CONTINUOUS
 62
     7
 10
84.66572332070224
 20
496.7517073884726
 30
0.0
 11
84.6543141727759
 21
496.749059531612
 31
0.0
  0
LINE
  5
19A
  8
0
  6
CONTINUOUS
 62
     7
 10
84.6543141727759
 20
496.749059531612
 30
0.0
 11
84.64279314790157
 21
496.7468933333037
 31
0.0
  0
LINE
  5
19B
  8
0
  6
CONTINUOUS
 62
     7
 10
84.64279314790157
 20
496.7468933333037
 30
0.0
 11
84.63119098624709
 21
496.7452166165973
 31
0.0
  0
LINE
  5
19C
  8
0
  6
CONTINUOUS
 62
     7
 10
84.63119098624709
 20
496.7452166165973
 30
0.0
 11
84.61953842798027
 21
496.7440372045424
 31
0.0
  0
LINE
  5
19D
  8
0
  6
CONTINUOUS
 62
     7
 10
84.61953842798027
 20
496.7440372045424
 30
0.0
 11
84.60748344506838
 21
496.7433478981814
 31
0.0
  0
LINE
  5
19E
  8
0
  6
CONTINUOUS
 62
     7
 10
84.60748344506838
 20
496.7433478981814
 30
0.0
 11
84.5953975934816
 21
496.743195990681
 31
0.0
  0
LINE
  5
19F
  8
0
  6
CONTINUOUS
 62
     7
 10
84.5953975934816
 20
496.743195990681
 30
0.0
 11
84.58331738749182
 21
496.7435851607955
 31
0.0
  0
LINE
  5
1A0
  8
0
  6
CONTINUOUS
 62
     7
 10
84.58331738749182
 20
496.7435851607955
 30
0.0
 11
84.57127934137092
 21
496.7445190872785
 31
0.0
  0
LINE
  5
1A1
  8
0
  6
CONTINUOUS
 62
     7
 10
84.57127934137092
 20
496.7445190872785
 30
0.0
 11
84.56003618970055
 21
496.7458950318631
 31
0.0
  0
LINE
  5
1A2
  8
0
  6
CONTINUOUS
 62
     7
 10
84.56003618970055
 20
496.7458950318631
 30
0.0
 11
84.54885224569566
 21
496.7477558416348
 31
0.0
  0
LINE
  5
1A3
  8
0
  6
CONTINUOUS
 62
     7
 10
84.54885224569566
 20
496.7477558416348
 30
0.0
 11
84.5377597392221
 21
496.7500994297125
 31
0.0
  0
LINE
  5
1A4
  8
0
  6
CONTINUOUS
 62
     7
 10
84.5377597392221
 20
496.7500994297125
 30
0.0
 11
84.52679090014585
 21
496.7529237092152
 31
0.0
  0
LINE
  5
1A5
  8
0
  6
CONTINUOUS
 62
     7
 10
84.52679090014585
 20
496.7529237092152
 30
0.0
 11
84.515605666281
 21
496.7563480654368
 31
0.0
  0
LINE
  5
1A6
  8
0
  6
CONTINUOUS
 62
     7
 10
84.515605666281
 20
496.7563480654368
 30
0.0
 11
84.50457785839141
 21
496.7602871784691
 31
0.0
  0
LINE
  5
1A7
  8
0
  6
CONTINUOUS
 62
     7
 10
84.50457785839141
 20
496.7602871784691
 30
0.0
 11
84.49374428728612
 21
496.7647317215767
 31
0.0
  0
LINE
  5
1A8
  8
0
  6
CONTINUOUS
 62
     7
 10
84.49374428728612
 20
496.7647317215767
 30
0.0
 11
84.48314176377423
 21
496.7696723680243
 31
0.0
  0
LINE
  5
1A9
  8
0
  6
CONTINUOUS
 62
     7
 10
84.48314176377423
 20
496.7696723680243
 30
0.0
 11
84.4736933802258
 21
496.7746070230304
 31
0.0
  0
LINE
  5
1AA
  8
0
  6
CONTINUOUS
 62
     7
 10
84.4736933802258
 20
496.7746070230304
 30
0.0
 11
84.4644584679814
 21
496.7799506342803
 31
0.0
  0
LINE
  5
1AB
  8
0
  6
CONTINUOUS
 62
     7
 10
84.4644584679814
 20
496.7799506342803
 30
0.0
 11
84.45546449451517
 21
496.7856900620213
 31
0.0
  0
LINE
  5
1AC
  8
0
  6
CONTINUOUS
 62
     7
 10
84.45546449451517
 20
496.7856900620213
 30
0.0
 11
84.44673892730121
 21
496.7918121665008
 31
0.0
  0
LINE
  5
1AD
  8
0
  6
CONTINUOUS
 62
     7
 10
84.44673892730121
 20
496.7918121665008
 30
0.0
 11
84.43802198750528
 21
496.7985335080032
 31
0.0
  0
LINE
  5
1AE
  8
0
  6
CONTINUOUS
 62
     7
 10
84.43802198750528
 20
496.7985335080032
 30
0.0
 11
84.42961296317316
 21
496.8056543413468
 31
0.0
  0
LINE
  5
1AF
  8
0
  6
CONTINUOUS
 62
     7
 10
84.42961296317316
 20
496.8056543413468
 30
0.0
 11
84.42153963363319
 21
496.8131533219407
 31
0.0
  0
LINE
  5
1B0
  8
0
  6
CONTINUOUS
 62
     7
 10
84.42153963363319
 20
496.8131533219407
 30
0.0
 11
84.41382977821374
 21
496.8210091051939
 31
0.0
  0
LINE
  5
1B1
  8
0
  6
CONTINUOUS
 62
     7
 10
84.41382977821374
 20
496.8210091051939
 30
0.0
 11
84.40663887371947
 21
496.8290487375748
 31
0.0
  0
LINE
  5
1B2
  8
0
  6
CONTINUOUS
 62
     7
 10
84.40663887371947
 20
496.8290487375748
 30
0.0
 11
84.39981229100637
 21
496.8374218950054
 31
0.0
  0
LINE
  5
1B3
  8
0
  6
CONTINUOUS
 62
     7
 10
84.39981229100637
 20
496.8374218950054
 30
0.0
 11
84.39337095849642
 21
496.8461018913198
 31
0.0
  0
LINE
  5
1B4
  8
0
  6
CONTINUOUS
 62
     7
 10
84.39337095849642
 20
496.8461018913198
 30
0.0
 11
84.3873358046116
 21
496.8550620403519
 31
0.0
  0
LINE
  5
1B5
  8
0
  6
CONTINUOUS
 62
     7
 10
84.3873358046116
 20
496.8550620403519
 30
0.0
 11
84.38172775777527
 21
496.864275655937
 31
0.0
  0
LINE
  5
1B6
  8
0
  6
CONTINUOUS
 62
     7
 10
84.81474045966748
 20
497.114275655937
 30
0.0
 11
84.81951841730871
 21
497.1055790324656
 31
0.0
  0
LINE
  5
1B7
  8
0
  6
CONTINUOUS
 62
     7
 10
84.81951841730871
 20
497.1055790324656
 30
0.0
 11
84.8239289587443
 21
497.0966805526826
 31
0.0
  0
LINE
  5
1B8
  8
0
  6
CONTINUOUS
 62
     7
 10
84.8239289587443
 20
497.0966805526826
 30
0.0
 11
84.82796131207877
 21
497.0876043885282
 31
0.0
  0
LINE
  5
1B9
  8
0
  6
CONTINUOUS
 62
     7
 10
84.82796131207877
 20
497.0876043885282
 30
0.0
 11
84.83160470541667
 21
497.0783747119425
 31
0.0
  0
LINE
  5
1BA
  8
0
  6
CONTINUOUS
 62
     7
 10
84.83160470541667
 20
497.0783747119425
 30
0.0
 11
84.83494597018117
 21
497.0687185097545
 31
0.0
  0
LINE
  5
1BB
  8
0
  6
CONTINUOUS
 62
     7
 10
84.83494597018117
 20
497.0687185097545
 30
0.0
 11
84.83787027999318
 21
497.0589180672646
 31
0.0
  0
LINE
  5
1BC
  8
0
  6
CONTINUOUS
 62
     7
 10
84.83787027999318
 20
497.0589180672646
 30
0.0
 11
84.84037168763314
 21
497.0490011198106
 31
0.0
  0
LINE
  5
1BD
  8
0
  6
CONTINUOUS
 62
     7
 10
84.84037168763314
 20
497.0490011198106
 30
0.0
 11
84.84244424588145
 21
497.0389954027302
 31
0.0
  0
LINE
  5
1BE
  8
0
  6
CONTINUOUS
 62
     7
 10
84.84244424588145
 20
497.0389954027302
 30
0.0
 11
84.84404479046353
 21
497.0292049118905
 31
0.0
  0
LINE
  5
1BF
  8
0
  6
CONTINUOUS
 62
     7
 10
84.84404479046353
 20
497.0292049118905
 30
0.0
 11
84.84524176531045
 21
497.0193484965394
 31
0.0
  0
LINE
  5
1C0
  8
0
  6
CONTINUOUS
 62
     7
 10
84.84524176531045
 20
497.0193484965394
 30
0.0
 11
84.84603487321925
 21
497.0094512258284
 31
0.0
  0
LINE
  5
1C1
  8
0
  6
CONTINUOUS
 62
     7
 10
84.84603487321925
 20
497.0094512258284
 30
0.0
 11
84.84642381698688
 21
496.9995381689093
 31
0.0
  0
LINE
  5
1C2
  8
0
  6
CONTINUOUS
 62
     7
 10
84.84642381698688
 20
496.9995381689093
 30
0.0
 11
84.84640332185474
 21
496.9893430826604
 31
0.0
  0
LINE
  5
1C3
  8
0
  6
CONTINUOUS
 62
     7
 10
84.84640332185474
 20
496.9893430826604
 30
0.0
 11
84.8459609712283
 21
496.9791489120772
 31
0.0
  0
LINE
  5
1C4
  8
0
  6
CONTINUOUS
 62
     7
 10
84.8459609712283
 20
496.9791489120772
 30
0.0
 11
84.84510126681575
 21
496.9689812129902
 31
0.0
  0
LINE
  5
1C5
  8
0
  6
CONTINUOUS
 62
     7
 10
84.84510126681575
 20
496.9689812129902
 30
0.0
 11
84.84382871032528
 21
496.9588655412293
 31
0.0
  0
LINE
  5
1C6
  8
0
  6
CONTINUOUS
 62
     7
 10
84.84382871032528
 20
496.9588655412293
 30
0.0
 11
84.84214866777684
 21
496.9488236515178
 31
0.0
  0
LINE
  5
1C7
  8
0
  6
CONTINUOUS
 62
     7
 10
84.84214866777684
 20
496.9488236515178
 30
0.0
 11
84.84006520209834
 21
496.9388493260359
 31
0.0
  0
LINE
  5
1C8
  8
0
  6
CONTINUOUS
 62
     7
 10
84.84006520209834
 20
496.9388493260359
 30
0.0
 11
84.83758663243228
 21
496.9289655457434
 31
0.0
  0
LINE
  5
1C9
  8
0
  6
CONTINUOUS
 62
     7
 10
84.83758663243228
 20
496.9289655457434
 30
0.0
 11
84.83472127792113
 21
496.9191952916001
 31
0.0
  0
LINE
  5
1CA
  8
0
  6
CONTINUOUS
 62
     7
 10
84.83472127792113
 20
496.9191952916001
 30
0.0
 11
84.83138360329735
 21
496.9092962648701
 31
0.0
  0
LINE
  5
1CB
  8
0
  6
CONTINUOUS
 62
     7
 10
84.83138360329735
 20
496.9092962648701
 30
0.0
 11
84.82764973322263
 21
496.8995308975121
 31
0.0
  0
LINE
  5
1CC
  8
0
  6
CONTINUOUS
 62
     7
 10
84.82764973322263
 20
496.8995308975121
 30
0.0
 11
84.82353171971167
 21
496.8899209697208
 31
0.0
  0
LINE
  5
1CD
  8
0
  6
CONTINUOUS
 62
     7
 10
84.82353171971167
 20
496.8899209697208
 30
0.0
 11
84.81904161477924
 21
496.8804882616906
 31
0.0
  0
LINE
  5
1CE
  8
0
  6
CONTINUOUS
 62
     7
 10
84.81904161477924
 20
496.8804882616906
 30
0.0
 11
84.81403138014167
 21
496.8709613849639
 31
0.0
  0
LINE
  5
1CF
  8
0
  6
CONTINUOUS
 62
     7
 10
84.81403138014167
 20
496.8709613849639
 30
0.0
 11
84.80863923829894
 21
496.8616354262508
 31
0.0
  0
LINE
  5
1D0
  8
0
  6
CONTINUOUS
 62
     7
 10
84.80863923829894
 20
496.8616354262508
 30
0.0
 11
84.80288078231432
 21
496.8525308553304
 31
0.0
  0
LINE
  5
1D1
  8
0
  6
CONTINUOUS
 62
     7
 10
84.80288078231432
 20
496.8525308553304
 30
0.0
 11
84.79677160525108
 21
496.8436681419816
 31
0.0
  0
LINE
  5
1D2
  8
0
  6
CONTINUOUS
 62
     7
 10
84.79677160525108
 20
496.8436681419816
 30
0.0
 11
84.7901449034366
 21
496.8348321548665
 31
0.0
  0
LINE
  5
1D3
  8
0
  6
CONTINUOUS
 62
     7
 10
84.7901449034366
 20
496.8348321548665
 30
0.0
 11
84.78316350551069
 21
496.8262622371872
 31
0.0
  0
LINE
  5
1D4
  8
0
  6
CONTINUOUS
 62
     7
 10
84.78316350551069
 20
496.8262622371872
 30
0.0
 11
84.77584614115595
 21
496.8179771244938
 31
0.0
  0
LINE
  5
1D5
  8
0
  6
CONTINUOUS
 62
     7
 10
84.77584614115595
 20
496.8179771244938
 30
0.0
 11
84.76821154005505
 21
496.8099955523367
 31
0.0
  0
LINE
  5
1D6
  8
0
  6
CONTINUOUS
 62
     7
 10
84.76821154005505
 20
496.8099955523367
 30
0.0
 11
84.75764987200135
 21
496.799926755919
 31
0.0
  0
LINE
  5
1D7
  8
0
  6
CONTINUOUS
 62
     7
 10
84.75764987200135
 20
496.799926755919
 30
0.0
 11
84.74656384287073
 21
496.7904080528157
 31
0.0
  0
LINE
  5
1D8
  8
0
  6
CONTINUOUS
 62
     7
 10
84.74656384287073
 20
496.7904080528157
 30
0.0
 11
84.73500060885313
 21
496.781474737375
 31
0.0
  0
LINE
  5
1D9
  8
0
  6
CONTINUOUS
 62
     7
 10
84.73500060885313
 20
496.781474737375
 30
0.0
 11
84.72300732613846
 21
496.7731621039447
 31
0.0
  0
LINE
  5
1DA
  8
0
  6
CONTINUOUS
 62
     7
 10
89.47277440000596
 20
504.999999999999
 30
0.0
 11
89.4718160637903
 21
504.9877919143731
 31
0.0
  0
LINE
  5
1DB
  8
0
  6
CONTINUOUS
 62
     7
 10
89.4718160637903
 20
504.9877919143731
 30
0.0
 11
89.4703264581303
 21
504.9756196042825
 31
0.0
  0
LINE
  5
1DC
  8
0
  6
CONTINUOUS
 62
     7
 10
89.4703264581303
 20
504.9756196042825
 30
0.0
 11
89.4683098531693
 21
504.9635176608371
 31
0.0
  0
LINE
  5
1DD
  8
0
  6
CONTINUOUS
 62
     7
 10
89.4683098531693
 20
504.9635176608371
 30
0.0
 11
89.46577051905065
 21
504.9515206751477
 31
0.0
  0
LINE
  5
1DE
  8
0
  6
CONTINUOUS
 62
     7
 10
89.46577051905065
 20
504.9515206751477
 30
0.0
 11
89.46271272591765
 21
504.9396632383246
 31
0.0
  0
LINE
  5
1DF
  8
0
  6
CONTINUOUS
 62
     7
 10
89.46271272591765
 20
504.9396632383246
 30
0.0
 11
89.45930126326142
 21
504.9284586979546
 31
0.0
  0
LINE
  5
1E0
  8
0
  6
CONTINUOUS
 62
     7
 10
89.45930126326142
 20
504.9284586979546
 30
0.0
 11
89.45541673358889
 21
504.9173980985816
 31
0.0
  0
LINE
  5
1E1
  8
0
  6
CONTINUOUS
 62
     7
 10
89.45541673358889
 20
504.9173980985816
 30
0.0
 11
89.45106773202431
 21
504.9065119734968
 31
0.0
  0
LINE
  5
1E2
  8
0
  6
CONTINUOUS
 62
     7
 10
89.45106773202431
 20
504.9065119734968
 30
0.0
 11
89.44626285369196
 21
504.8958308559912
 31
0.0
  0
LINE
  5
1E3
  8
0
  6
CONTINUOUS
 62
     7
 10
89.44626285369196
 20
504.8958308559912
 30
0.0
 11
89.44083231905569
 21
504.8850462813668
 31
0.0
  0
LINE
  5
1E4
  8
0
  6
CONTINUOUS
 62
     7
 10
89.44083231905569
 20
504.8850462813668
 30
0.0
 11
89.43492094901654
 21
504.8745036731161
 31
0.0
  0
LINE
  5
1E5
  8
0
  6
CONTINUOUS
 62
     7
 10
89.43492094901654
 20
504.8745036731161
 30
0.0
 11
89.42854381481617
 21
504.8642364929032
 31
0.0
  0
LINE
  5
1E6
  8
0
  6
CONTINUOUS
 62
     7
 10
89.42854381481617
 20
504.8642364929032
 30
0.0
 11
89.4217159876962
 21
504.8542782023923
 31
0.0
  0
LINE
  5
1E7
  8
0
  6
CONTINUOUS
 62
     7
 10
89.4217159876962
 20
504.8542782023923
 30
0.0
 11
89.41490280889654
 21
504.8452293197193
 31
0.0
  0
LINE
  5
1E8
  8
0
  6
CONTINUOUS
 62
     7
 10
89.41490280889654
 20
504.8452293197193
 30
0.0
 11
89.40769932836022
 21
504.8364741449823
 31
0.0
  0
LINE
  5
1E9
  8
0
  6
CONTINUOUS
 62
     7
 10
89.40769932836022
 20
504.8364741449823
 30
0.0
 11
89.40012346831215
 21
504.8280395466235
 31
0.0
  0
LINE
  5
1EA
  8
0
  6
CONTINUOUS
 62
     7
 10
89.40012346831215
 20
504.8280395466235
 30
0.0
 11
89.39219315097726
 21
504.819952393085
 31
0.0
  0
LINE
  5
1EB
  8
0
  6
CONTINUOUS
 62
     7
 10
89.39219315097726
 20
504.819952393085
 30
0.0
 11
89.38363495456532
 21
504.8119778745212
 31
0.0
  0
LINE
  5
1EC
  8
0
  6
CONTINUOUS
 62
     7
 10
89.38363495456532
 20
504.8119778745212
 30
0.0
 11
89.3747096786662
 21
504.8043970692569
 31
0.0
  0
LINE
  5
1ED
  8
0
  6
CONTINUOUS
 62
     7
 10
89.3747096786662
 20
504.8043970692569
 30
0.0
 11
89.3654438058742
 21
504.7972371930201
 31
0.0
  0
LINE
  5
1EE
  8
0
  6
CONTINUOUS
 62
     7
 10
89.3654438058742
 20
504.7972371930201
 30
0.0
 11
89.3558638187835
 21
504.7905254615382
 31
0.0
  0
LINE
  5
1EF
  8
0
  6
CONTINUOUS
 62
     7
 10
89.3558638187835
 20
504.7905254615382
 30
0.0
 11
89.34686609041508
 21
504.7848102488637
 31
0.0
  0
LINE
  5
1F0
  8
0
  6
CONTINUOUS
 62
     7
 10
89.34686609041508
 20
504.7848102488637
 30
0.0
 11
89.33762093120251
 21
504.7794843858833
 31
0.0
  0
LINE
  5
1F1
  8
0
  6
CONTINUOUS
 62
     7
 10
89.33762093120251
 20
504.7794843858833
 30
0.0
 11
89.32815345424247
 21
504.7745650902511
 31
0.0
  0
LINE
  5
1F2
  8
0
  6
CONTINUOUS
 62
     7
 10
89.32815345424247
 20
504.7745650902511
 30
0.0
 11
89.31848877263161
 21
504.7700695796211
 31
0.0
  0
LINE
  5
1F3
  8
0
  6
CONTINUOUS
 62
     7
 10
89.31848877263161
 20
504.7700695796211
 30
0.0
 11
89.30830945024506
 21
504.7658811590657
 31
0.0
  0
LINE
  5
1F4
  8
0
  6
CONTINUOUS
 62
     7
 10
89.30830945024506
 20
504.7658811590657
 30
0.0
 11
89.29793811550732
 21
504.7621591470449
 31
0.0
  0
LINE
  5
1F5
  8
0
  6
CONTINUOUS
 62
     7
 10
89.29793811550732
 20
504.7621591470449
 30
0.0
 11
89.28740714304055
 21
504.7589169288671
 31
0.0
  0
LINE
  5
1F6
  8
0
  6
CONTINUOUS
 62
     7
 10
89.28740714304055
 20
504.7589169288671
 30
0.0
 11
89.27674890746692
 21
504.756167889841
 31
0.0
  0
LINE
  5
1F7
  8
0
  6
CONTINUOUS
 62
     7
 10
89.27674890746692
 20
504.756167889841
 30
0.0
 11
89.26619092934085
 21
504.7539602000633
 31
0.0
  0
LINE
  5
1F8
  8
0
  6
CONTINUOUS
 62
     7
 10
89.26619092934085
 20
504.7539602000633
 30
0.0
 11
89.25552627093948
 21
504.752234784728
 31
0.0
  0
LINE
  5
1F9
  8
0
  6
CONTINUOUS
 62
     7
 10
89.25552627093948
 20
504.752234784728
 30
0.0
 11
89.24478850737151
 21
504.7509964252973
 31
0.0
  0
LINE
  5
1FA
  8
0
  6
CONTINUOUS
 62
     7
 10
89.24478850737151
 20
504.7509964252973
 30
0.0
 11
89.2340112137456
 21
504.7502499032332
 31
0.0
  0
LINE
  5
1FB
  8
0
  6
CONTINUOUS
 62
     7
 10
89.2340112137456
 20
504.7502499032332
 30
0.0
 11
89.22322796517001
 21
504.75
 31
0.0
  0
LINE
  5
1FC
  8
0
  6
CONTINUOUS
 62
     7
 10
89.22322796517001
 20
505.2499999999998
 30
0.0
 11
89.23314844084398
 21
505.2497895209598
 31
0.0
  0
LINE
  5
1FD
  8
0
  6
CONTINUOUS
 62
     7
 10
89.23314844084398
 20
505.2497895209598
 30
0.0
 11
89.24306002110895
 21
505.2491599219959
 31
0.0
  0
LINE
  5
1FE
  8
0
  6
CONTINUOUS
 62
     7
 10
89.24306002110895
 20
505.2491599219959
 30
0.0
 11
89.25293638650287
 21
505.2481139603434
 31
0.0
  0
LINE
  5
1FF
  8
0
  6
CONTINUOUS
 62
     7
 10
89.25293638650287
 20
505.2481139603434
 30
0.0
 11
89.26275121756373
 21
505.2466543932372
 31
0.0
  0
LINE
  5
200
  8
0
  6
CONTINUOUS
 62
     7
 10
89.26275121756373
 20
505.2466543932372
 30
0.0
 11
89.27278436634485
 21
505.24471991231
 31
0.0
  0
LINE
  5
201
  8
0
  6
CONTINUOUS
 62
     7
 10
89.27278436634485
 20
505.24471991231
 30
0.0
 11
89.28273395341546
 21
505.2423522176508
 31
0.0
  0
LINE
  5
202
  8
0
  6
CONTINUOUS
 62
     7
 10
89.28273395341546
 20
505.2423522176508
 30
0.0
 11
89.29257298565864
 21
505.2395600264852
 31
0.0
  0
LINE
  5
203
  8
0
  6
CONTINUOUS
 62
     7
 10
89.29257298565864
 20
505.2395600264852
 30
0.0
 11
89.30227446995744
 21
505.2363520560389
 31
0.0
  0
LINE
  5
204
  8
0
  6
CONTINUOUS
 62
     7
 10
89.30227446995744
 20
505.2363520560389
 30
0.0
 11
89.31155355603117
 21
505.2328429228871
 31
0.0
  0
LINE
  5
205
  8
0
  6
CONTINUOUS
 62
     7
 10
89.31155355603117
 20
505.2328429228871
 30
0.0
 11
89.32068794953898
 21
505.2289513258364
 31
0.0
  0
LINE
  5
206
  8
0
  6
CONTINUOUS
 62
     7
 10
89.32068794953898
 20
505.2289513258364
 30
0.0
 11
89.3296557913572
 21
505.224689542078
 31
0.0
  0
LINE
  5
207
  8
0
  6
CONTINUOUS
 62
     7
 10
89.3296557913572
 20
505.224689542078
 30
0.0
 11
89.33843522236208
 21
505.220069848802
 31
0.0
  0
LINE
  5
208
  8
0
  6
CONTINUOUS
 62
     7
 10
89.33843522236208
 20
505.220069848802
 30
0.0
 11
89.34725417848139
 21
505.2149545563723
 31
0.0
  0
LINE
  5
209
  8
0
  6
CONTINUOUS
 62
     7
 10
89.34725417848139
 20
505.2149545563723
 30
0.0
 11
89.35586141386366
 21
505.2094743842009
 31
0.0
  0
LINE
  5
20A
  8
0
  6
CONTINUOUS
 62
     7
 10
89.35586141386366
 20
505.2094743842009
 30
0.0
 11
89.36423704736484
 21
505.2036460087964
 31
0.0
  0
LINE
  5
20B
  8
0
  6
CONTINUOUS
 62
     7
 10
89.36423704736484
 20
505.2036460087964
 30
0.0
 11
89.3723611978408
 21
505.1974861066675
 31
0.0
  0
LINE
  5
20C
  8
0
  6
CONTINUOUS
 62
     7
 10
89.3723611978408
 20
505.1974861066675
 30
0.0
 11
89.3802177081588
 21
505.1910102022853
 31
0.0
  0
LINE
  5
20D
  8
0
  6
CONTINUOUS
 62
     7
 10
89.3802177081588
 20
505.1910102022853
 30
0.0
 11
89.3878139945725
 21
505.1842187053388
 31
0.0
  0
LINE
  5
20E
  8
0
  6
CONTINUOUS
 62
     7
 10
89.3878139945725
 20
505.1842187053388
 30
0.0
 11
89.3951343145582
 21
505.1771303108967
 31
0.0
  0
LINE
  5
20F
  8
0
  6
CONTINUOUS
 62
     7
 10
89.3951343145582
 20
505.1771303108967
 30
0.0
 11
89.40216292559214
 21
505.1697637140277
 31
0.0
  0
LINE
  5
210
  8
0
  6
CONTINUOUS
 62
     7
 10
89.40216292559214
 20
505.1697637140277
 30
0.0
 11
89.40906689690117
 21
505.161923689649
 31
0.0
  0
LINE
  5
211
  8
0
  6
CONTINUOUS
 62
     7
 10
89.40906689690117
 20
505.161923689649
 30
0.0
 11
89.41565701807306
 21
505.1538073796308
 31
0.0
  0
LINE
  5
212
  8
0
  6
CONTINUOUS
 62
     7
 10
89.41565701807306
 20
505.1538073796308
 30
0.0
 11
89.42192045291341
 21
505.1454361114215
 31
0.0
  0
LINE
  5
213
  8
0
  6
CONTINUOUS
 62
     7
 10
89.42192045291341
 20
505.1454361114215
 30
0.0
 11
89.42784436522786
 21
505.1368312124692
 31
0.0
  0
LINE
  5
214
  8
0
  6
CONTINUOUS
 62
     7
 10
89.42784436522786
 20
505.1368312124692
 30
0.0
 11
89.43358976517317
 21
505.1277287836306
 31
0.0
  0
LINE
  5
215
  8
0
  6
CONTINUOUS
 62
     7
 10
89.43358976517317
 20
505.1277287836306
 30
0.0
 11
89.43897021141196
 21
505.1183960724575
 31
0.0
  0
LINE
  5
216
  8
0
  6
CONTINUOUS
 62
     7
 10
89.43897021141196
 20
505.1183960724575
 30
0.0
 11
89.44397577312728
 21
505.1088568178281
 31
0.0
  0
LINE
  5
217
  8
0
  6
CONTINUOUS
 62
     7
 10
89.44397577312728
 20
505.1088568178281
 30
0.0
 11
89.44859651950216
 21
505.0991347586208
 31
0.0
  0
LINE
  5
218
  8
0
  6
CONTINUOUS
 62
     7
 10
89.44859651950216
 20
505.0991347586208
 30
0.0
 11
89.45293535790412
 21
505.0889778729486
 31
0.0
  0
LINE
  5
219
  8
0
  6
CONTINUOUS
 62
     7
 10
89.45293535790412
 20
505.0889778729486
 30
0.0
 11
89.4568664253598
 21
505.0786468461511
 31
0.0
  0
LINE
  5
21A
  8
0
  6
CONTINUOUS
 62
     7
 10
89.4568664253598
 20
505.0786468461511
 30
0.0
 11
89.46038286124812
 21
505.0681672663845
 31
0.0
  0
LINE
  5
21B
  8
0
  6
CONTINUOUS
 62
     7
 10
89.46038286124812
 20
505.0681672663845
 30
0.0
 11
89.46347780494784
 21
505.057564721805
 31
0.0
  0
LINE
  5
21C
  8
0
  6
CONTINUOUS
 62
     7
 10
89.46347780494784
 20
505.057564721805
 30
0.0
 11
89.46691680440426
 21
505.0433836507551
 31
0.0
  0
LINE
  5
21D
  8
0
  6
CONTINUOUS
 62
     7
 10
89.46691680440426
 20
505.0433836507551
 30
0.0
 11
89.46961722853746
 21
505.0290235163491
 31
0.0
  0
LINE
  5
21E
  8
0
  6
CONTINUOUS
 62
     7
 10
89.46961722853746
 20
505.0290235163491
 30
0.0
 11
89.47157208964036
 21
505.0145428042196
 31
0.0
  0
LINE
  5
21F
  8
0
  6
CONTINUOUS
 62
     7
 10
89.47157208964036
 20
505.0145428042196
 30
0.0
 11
89.47277440000596
 21
504.999999999999
 31
0.0
  0
LINE
  5
220
  8
0
  6
CONTINUOUS
 62
     7
 10
79.54022755038051
 20
504.75
 30
0.0
 11
75.13174004487797
 21
497.114275655937
 31
0.0
  0
LINE
  5
221
  8
0
  6
CONTINUOUS
 62
     7
 10
89.22322796517001
 20
505.2499999999998
 30
0.0
 11
80.40625295416496
 21
505.2499999999998
 31
0.0
  0
LINE
  5
222
  8
0
  6
CONTINUOUS
 62
     7
 10
79.97324025227273
 20
505.4999999999999
 30
0.0
 11
75.56475274677018
 21
513.135724344063
 31
0.0
  0
LINE
  5
223
  8
0
  6
CONTINUOUS
 62
     7
 10
84.81474045966748
 20
497.114275655937
 30
0.0
 11
80.40625295416496
 21
504.75
 31
0.0
  0
LINE
  5
224
  8
0
  6
CONTINUOUS
 62
     7
 10
79.54022755038051
 20
505.2499999999998
 30
0.0
 11
70.72325253937545
 21
505.2499999999998
 31
0.0
  0
LINE
  5
225
  8
0
  6
CONTINUOUS
 62
     7
 10
70.72325253937545
 20
504.75
 30
0.0
 11
79.54022755038051
 21
504.75
 31
0.0
  0
LINE
  5
226
  8
0
  6
CONTINUOUS
 62
     7
 10
80.40625295416496
 20
504.75
 30
0.0
 11
89.22322796517001
 21
504.75
 31
0.0
  0
LINE
  5
227
  8
0
  6
CONTINUOUS
 62
     7
 10
75.13174004487797
 20
512.885724344063
 30
0.0
 11
79.54022755038051
 21
505.2499999999998
 31
0.0
  0
LINE
  5
228
  8
0
  6
CONTINUOUS
 62
     7
 10
84.38172775777527
 20
513.135724344063
 30
0.0
 11
79.97324025227273
 21
505.4999999999999
 31
0.0
  0
LINE
  5
229
  8
0
  6
CONTINUOUS
 62
     7
 10
80.40625295416496
 20
505.2499999999998
 30
0.0
 11
84.81474045966748
 21
512.885724344063
 31
0.0
  0
LINE
  5
22A
  8
0
  6
CONTINUOUS
 62
     7
 10
75.5647527467702
 20
496.864275655937
 30
0.0
 11
79.97324025227273
 21
504.4999999999999
 31
0.0
  0
LINE
  5
22B
  8
0
  6
CONTINUOUS
 62
     7
 10
79.97324025227273
 20
504.4999999999999
 30
0.0
 11
84.38172775777527
 21
496.864275655937
 31
0.0
  0
LINE
  5
22C
  8
0
  6
CONTINUOUS
 62
   253
 10
106.7781896386056
 20
518.0
 30
0.0
 11
106.7781896386056
 21
505.2726648993188
 31
0.0
  0
LINE
  5
22D
  8
0
  6
CONTINUOUS
 62
     7
 10
105.7781896386056
 20
493.0
 30
0.0
 11
105.7781896386056
 21
504.7360623454549
 31
0.0
  0
LINE
  5
22E
  8
0
  6
CONTINUOUS
 62
     7
 10
105.7781896386056
 20
505.2639376545451
 30
0.0
 11
105.7781896386056
 21
517.0
 31
0.0
  0
LINE
  5
22F
  8
0
  6
CONTINUOUS
 62
     7
 10
106.7781896386056
 20
504.7273351006812
 30
0.0
 11
105.7781896386056
 21
504.7360623454549
 31
0.0
  0
LINE
  5
230
  8
0
  6
CONTINUOUS
 62
   253
 10
106.7781896386056
 20
504.7273351006812
 30
0.0
 11
106.7781896386056
 21
492.0
 31
0.0
  0
LINE
  5
231
  8
0
  6
CONTINUOUS
 62
     7
 10
106.7781896386056
 20
505.2726648993188
 30
0.0
 11
105.7781896386056
 21
505.2639376545451
 31
0.0
  0
LINE
  5
232
  8
0
  6
CONTINUOUS
 62
     7
 10
106.7781896386056
 20
505.2726648993188
 30
0.0
 11
109.2781896386056
 21
505.2726648993188
 31
0.0
  0
LINE
  5
233
  8
0
  6
CONTINUOUS
 62
     7
 10
109.2781896386056
 20
505.2726648993188
 30
0.0
 11
109.2781896386056
 21
505.2569557675209
 31
0.0
  0
LINE
  5
234
  8
0
  6
CONTINUOUS
 62
     7
 10
109.2781896386056
 20
505.2569557675209
 30
0.0
 11
120.7781896386056
 21
505.2569557675209
 31
0.0
  0
LINE
  5
235
  8
0
  6
CONTINUOUS
 62
     7
 10
120.7781896386056
 20
505.2569557675209
 30
0.0
 11
124.2781896386056
 21
505.2530284129842
 31
0.0
  0
LINE
  5
236
  8
0
  6
CONTINUOUS
 62
     7
 10
124.2781896386056
 20
505.2530284129846
 30
0.0
 11
124.2781896386056
 21
505.2500000000001
 31
0.0
  0
LINE
  5
237
  8
0
  6
CONTINUOUS
 62
     7
 10
124.2781896386056
 20
505.2499999999998
 30
0.0
 11
105.7781896386056
 21
505.2499999999998
 31
0.0
  0
LINE
  5
238
  8
0
  6
CONTINUOUS
 62
     7
 10
105.7781896386056
 20
505.2499999999998
 30
0.0
 11
105.7781896386056
 21
505.2639376545451
 31
0.0
  0
LINE
  5
239
  8
0
  6
CONTINUOUS
 62
     7
 10
105.7781896386056
 20
504.75
 30
0.0
 11
105.7781896386056
 21
504.7360623454549
 31
0.0
  0
LINE
  5
23A
  8
0
  6
CONTINUOUS
 62
     7
 10
124.2781896386056
 20
504.75
 30
0.0
 11
105.7781896386056
 21
504.75
 31
0.0
  0
LINE
  5
23B
  8
0
  6
CONTINUOUS
 62
     7
 10
124.2781896386056
 20
504.7469715870155
 30
0.0
 11
124.2781896386056
 21
504.7499999999999
 31
0.0
  0
LINE
  5
23C
  8
0
  6
CONTINUOUS
 62
     7
 10
120.7781896386056
 20
504.7430442324792
 30
0.0
 11
124.2781896386056
 21
504.7469715870158
 31
0.0
  0
LINE
  5
23D
  8
0
  6
CONTINUOUS
 62
     7
 10
109.2781896386056
 20
504.7430442324792
 30
0.0
 11
120.7781896386056
 21
504.7430442324792
 31
0.0
  0
LINE
  5
23E
  8
0
  6
CONTINUOUS
 62
     7
 10
109.2781896386056
 20
504.7273351006812
 30
0.0
 11
109.2781896386056
 21
504.7430442324792
 31
0.0
  0
LINE
  5
23F
  8
0
  6
CONTINUOUS
 62
     7
 10
106.7781896386056
 20
504.7273351006812
 30
0.0
 11
109.2781896386056
 21
504.7273351006812
 31
0.0
  0
LINE
  5
240
  8
0
  6
CONTINUOUS
 62
     7
 10
109.2781896386056
 20
492.0
 30
0.0
 11
109.2781896386056
 21
504.7273351006812
 31
0.0
  0
LINE
  5
241
  8
0
  6
CONTINUOUS
 62
     7
 10
109.2781896386056
 20
505.2726648993188
 30
0.0
 11
109.2781896386056
 21
518.0
 31
0.0
  0
LINE
  5
242
  8
0
  6
CONTINUOUS
 62
     7
 10
120.7781896386056
 20
493.8
 30
0.0
 11
120.7781896386056
 21
504.7430442324792
 31
0.0
  0
LINE
  5
243
  8
0
  6
CONTINUOUS
 62
     7
 10
120.7781896386056
 20
505.2569557675209
 30
0.0
 11
120.7781896386056
 21
516.1999999999999
 31
0.0
  0
LINE
  5
244
  8
0
  6
CONTINUOUS
 62
     7
 10
124.2781896386056
 20
494.2499999999999
 30
0.0
 11
124.2781896386056
 21
504.7469715870155
 31
0.0
  0
LINE
  5
245
  8
0
  6
CONTINUOUS
 62
     7
 10
124.2781896386056
 20
505.2530284129846
 30
0.0
 11
124.2781896386056
 21
515.75
 31
0.0
  0
LINE
  5
246
  8
0
  6
CONTINUOUS
 62
     7
 10
124.2781896386056
 20
504.75
 30
0.0
 11
124.2781896386056
 21
505.2499999999998
 31
0.0
  0
LINE
  5
247
  8
0
  6
CONTINUOUS
 62
     7
 10
105.7781896386056
 20
505.2499999999998
 30
0.0
 11
105.7781896386056
 21
504.75
 31
0.0
  0
ARC
  5
248
  8
0
  6
CONTINUOUS
 62
     7
 10
106.7781896386056
 20
517.0
 30
0.0
 40
1.000000000000001
 50
90.0
 51
180.0
  0
ARC
  5
249
  8
0
  6
CONTINUOUS
 62
     7
 10
106.7781896386056
 20
493.0
 30
0.0
 40
1.000000000000001
 50
180.0
 51
270.0
  0
LINE
  5
24A
  8
0
  6
CONTINUOUS
 62
     7
 10
106.7781896386056
 20
492.0
 30
0.0
 11
109.2781896386056
 21
492.0
 31
0.0
  0
LINE
  5
24B
  8
0
  6
CONTINUOUS
 62
     7
 10
109.2781896386056
 20
518.0
 30
0.0
 11
106.7781896386056
 21
518.0
 31
0.0
  0
LINE
  5
24C
  8
0
  6
CONTINUOUS
 62
     7
 10
109.2781896386056
 20
493.8
 30
0.0
 11
120.7781896386056
 21
493.8
 31
0.0
  0
LINE
  5
24D
  8
0
  6
CONTINUOUS
 62
     7
 10
120.7781896386056
 20
516.1999999999999
 30
0.0
 11
109.2781896386056
 21
516.1999999999999
 31
0.0
  0
LINE
  5
24E
  8
0
  6
CONTINUOUS
 62
     7
 10
120.7781896386056
 20
493.8
 30
0.0
 11
124.2781896386056
 21
494.25
 31
0.0
  0
LINE
  5
24F
  8
0
  6
CONTINUOUS
 62
     7
 10
124.2781896386056
 20
515.75
 30
0.0
 11
120.7781896386056
 21
516.1999999999999
 31
0.0
  0
CIRCLE
  5
250
  8
0
  6
CONTINUOUS
 62
   253
 10
155.0267597477273
 20
505.0
 30
0.0
 40
10.39565560529748
  0
CIRCLE
  5
251
  8
0
  6
CONTINUOUS
 62
   253
 10
155.0267597477273
 20
505.0
 30
0.0
 40
9.895674643765409
  0
LINE
  5
252
  8
0
  6
CONTINUOUS
 62
     7
 10
144.6267597477272
 20
504.75
 30
0.0
 11
144.6267597477272
 21
505.2499999999998
 31
0.0
  0
LINE
  5
253
  8
0
  6
CONTINUOUS
 62
     7
 10
144.2797379918071
 20
505.2530284129846
 30
0.0
 11
144.6267597477272
 21
505.2499999999998
 31
0.0
  0
ARC
  5
254
  8
0
  6
CONTINUOUS
 62
     7
 10
155.0267597477273
 20
505.0
 30
0.0
 40
10.75
 50
181.3487255004847
 51
178.6512744995152
  0
LINE
  5
255
  8
0
  6
CONTINUOUS
 62
     7
 10
144.2797379918071
 20
504.7469715870155
 30
0.0
 11
144.6267597477272
 21
504.75
 31
0.0
  0
ARC
  5
256
  8
0
  6
CONTINUOUS
 62
     7
 10
155.0267597477273
 20
505.0
 30
0.0
 40
11.2
 50
181.3146225762677
 51
178.6853774237321
  0
LINE
  5
257
  8
0
  6
CONTINUOUS
 62
     7
 10
143.8297077368836
 20
504.7430442324792
 30
0.0
 11
144.2797379918071
 21
504.7469715870155
 31
0.0
  0
LINE
  5
258
  8
0
  6
CONTINUOUS
 62
     7
 10
143.8297077368836
 20
505.2569557675209
 30
0.0
 11
144.2797379918071
 21
505.2530284129846
 31
0.0
  0
CIRCLE
  5
259
  8
0
  6
CONTINUOUS
 62
   253
 10
155.0267597477273
 20
505.0
 30
0.0
 40
9.794730671357819
  0
ARC
  5
25A
  8
0
  6
CONTINUOUS
 62
   253
 10
248.3151314777122
 20
559.9218765882198
 30
0.0
 40
107.6831876766035
 50
205.5754738773718
 51
209.9659341483089
  0
LINE
  5
25B
  8
0
  6
CONTINUOUS
 62
   253
 10
151.1830221733361
 20
513.4350800726784
 30
0.0
 11
151.2308497772058
 21
513.4371385328844
 31
0.0
  0
LINE
  5
25C
  8
0
  6
CONTINUOUS
 62
   253
 10
151.2308497772058
 20
513.4371385328844
 30
0.0
 11
151.2929725090368
 21
513.4484676621705
 31
0.0
  0
LINE
  5
25D
  8
0
  6
CONTINUOUS
 62
   253
 10
151.2929725090368
 20
513.4484676621705
 30
0.0
 11
151.36691717602
 21
513.4686164320601
 31
0.0
  0
LINE
  5
25E
  8
0
  6
CONTINUOUS
 62
   253
 10
151.36691717602
 20
513.4686164320601
 30
0.0
 11
151.4497399375793
 21
513.4967826918537
 31
0.0
  0
LINE
  5
25F
  8
0
  6
CONTINUOUS
 62
   253
 10
151.4497399375793
 20
513.4967826918537
 30
0.0
 11
151.538143503781
 21
513.531845103369
 31
0.0
  0
LINE
  5
260
  8
0
  6
CONTINUOUS
 62
   253
 10
151.538143503781
 20
513.531845103369
 30
0.0
 11
151.6286084050561
 21
513.5724077829825
 31
0.0
  0
ARC
  5
261
  8
0
  6
CONTINUOUS
 62
   253
 10
244.2973894078612
 20
557.868587620989
 30
0.0
 40
102.7115111406061
 50
205.5480525148931
 51
209.6412046885661
  0
LINE
  5
262
  8
0
  6
CONTINUOUS
 62
     7
 10
155.0267597477273
 20
507.070859316762
 30
0.0
 11
155.0267597477273
 21
506.1357388930594
 31
0.0
  0
LINE
  5
263
  8
0
  6
CONTINUOUS
 62
     7
 10
150.6182722422247
 20
513.135724344063
 30
0.0
 11
155.0267597477273
 21
505.4999999999999
 31
0.0
  0
ARC
  5
264
  8
0
  6
CONTINUOUS
 62
   253
 10
155.2302091680646
 20
505.1174615775983
 30
0.0
 40
9.250000000000002
 50
115.9466289233629
 51
119.9066118964213
  0
LINE
  5
265
  8
0
  6
CONTINUOUS
 62
     7
 10
155.0267597477273
 20
506.1357388930594
 30
0.0
 11
155.0267597477273
 21
505.4999999999999
 31
0.0
  0
LINE
  5
266
  8
0
  6
CONTINUOUS
 62
     7
 10
155.0267597477273
 20
505.4999999999999
 30
0.0
 11
159.4352472532298
 21
513.135724344063
 31
0.0
  0
ARC
  5
267
  8
0
  6
CONTINUOUS
 62
   253
 10
62.30743091972152
 20
559.6222260403206
 30
0.0
 40
107.040544868148
 50
330.0208797658608
 51
334.4377122084584
  0
ARC
  5
268
  8
0
  6
CONTINUOUS
 62
   253
 10
154.8233103273899
 20
505.1174615775983
 30
0.0
 40
9.250000000000002
 50
60.09338810357871
 51
64.05337107663699
  0
ARC
  5
269
  8
0
  6
CONTINUOUS
 62
   253
 10
65.6513240201552
 20
557.923366398789
 30
0.0
 40
102.8296940967004
 50
330.361148456165
 51
334.4495943403755
  0
LINE
  5
26A
  8
0
  6
CONTINUOUS
 62
   253
 10
158.4249110903985
 20
513.5724077829824
 30
0.0
 11
158.5153759916736
 21
513.531845103369
 31
0.0
  0
LINE
  5
26B
  8
0
  6
CONTINUOUS
 62
   253
 10
158.5153759916736
 20
513.531845103369
 30
0.0
 11
158.6037795578754
 21
513.4967826918536
 31
0.0
  0
LINE
  5
26C
  8
0
  6
CONTINUOUS
 62
   253
 10
158.6037795578754
 20
513.4967826918536
 30
0.0
 11
158.6866023194347
 21
513.46861643206
 31
0.0
  0
LINE
  5
26D
  8
0
  6
CONTINUOUS
 62
   253
 10
158.6866023194347
 20
513.46861643206
 30
0.0
 11
158.7605469864178
 21
513.4484676621704
 31
0.0
  0
LINE
  5
26E
  8
0
  6
CONTINUOUS
 62
   253
 10
158.7605469864178
 20
513.4484676621704
 30
0.0
 11
158.8226697182488
 21
513.4371385328844
 31
0.0
  0
LINE
  5
26F
  8
0
  6
CONTINUOUS
 62
   253
 10
158.8226697182488
 20
513.4371385328844
 30
0.0
 11
158.8704973221185
 21
513.4350800726784
 31
0.0
  0
ARC
  5
270
  8
0
  6
CONTINUOUS
 62
   253
 10
245.5474573667067
 20
555.9397146150183
 30
0.0
 40
102.82969409676
 50
210.3611484561662
 51
214.4495943403745
  0
LINE
  5
271
  8
0
  6
CONTINUOUS
 62
   253
 10
160.7516069880539
 20
497.7709107198513
 30
0.0
 11
160.6712462264256
 21
497.7128471570029
 31
0.0
  0
LINE
  5
272
  8
0
  6
CONTINUOUS
 62
   253
 10
160.6712462264256
 20
497.7128471570029
 30
0.0
 11
160.5966795042345
 21
497.6538186286447
 31
0.0
  0
LINE
  5
273
  8
0
  6
CONTINUOUS
 62
   253
 10
160.5966795042345
 20
497.6538186286447
 30
0.0
 11
160.5308754269439
 21
497.5961751430195
 31
0.0
  0
LINE
  5
274
  8
0
  6
CONTINUOUS
 62
   253
 10
160.5308754269439
 20
497.5961751430195
 30
0.0
 11
160.4764537468729
 21
497.5422115678826
 31
0.0
  0
LINE
  5
275
  8
0
  6
CONTINUOUS
 62
   253
 10
160.4764537468729
 20
497.5422115678826
 30
0.0
 11
160.4355810671931
 21
497.4940762686074
 31
0.0
  0
LINE
  5
276
  8
0
  6
CONTINUOUS
 62
   253
 10
160.4355810671931
 20
497.4940762686074
 30
0.0
 11
160.4098845864271
 21
497.4536855787572
 31
0.0
  0
ARC
  5
277
  8
0
  6
CONTINUOUS
 62
   253
 10
248.6906595239009
 20
557.986181166734
 30
0.0
 40
107.0405448681448
 50
210.0208797658606
 51
214.4377122084586
  0
LINE
  5
278
  8
0
  6
CONTINUOUS
 62
     7
 10
156.8201765237067
 20
503.964570341619
 30
0.0
 11
156.0103384811827
 21
504.4321305534705
 31
0.0
  0
LINE
  5
279
  8
0
  6
CONTINUOUS
 62
     7
 10
155.4597724496195
 20
504.75
 30
0.0
 11
159.868259955122
 21
497.114275655937
 31
0.0
  0
LINE
  5
27A
  8
0
  6
CONTINUOUS
 62
     7
 10
156.0103384811827
 20
504.4321305534705
 30
0.0
 11
155.4597724496195
 21
504.75
 31
0.0
  0
ARC
  5
27B
  8
0
  6
CONTINUOUS
 62
   253
 10
155.2302091680646
 20
505.1174615775983
 30
0.0
 40
9.250000000000005
 50
300.0933881035788
 51
304.0533710766368
  0
ARC
  5
27C
  8
0
  6
CONTINUOUS
 62
   253
 10
154.0821887995569
 20
397.3915927929482
 30
0.0
 40
107.0405448681437
 50
90.02087976586073
 51
94.43771220845873
  0
LINE
  5
27D
  8
0
  6
CONTINUOUS
 62
     7
 10
154.0431810142718
 20
504.4321305534705
 30
0.0
 11
153.2333429717478
 21
503.964570341619
 31
0.0
  0
ARC
  5
27E
  8
0
  6
CONTINUOUS
 62
   253
 10
153.8814978563695
 20
401.136918986206
 30
0.0
 40
102.8296940967192
 50
90.36114845616447
 51
94.4495943403743
  0
LINE
  5
27F
  8
0
  6
CONTINUOUS
 62
   253
 10
145.9037611647294
 20
503.6566814971661
 30
0.0
 11
145.8936570250826
 21
503.7553077396279
 31
0.0
  0
LINE
  5
280
  8
0
  6
CONTINUOUS
 62
   253
 10
145.8936570250826
 20
503.7553077396279
 30
0.0
 11
145.879820181072
 21
503.8493986795016
 31
0.0
  0
LINE
  5
281
  8
0
  6
CONTINUOUS
 62
   253
 10
145.879820181072
 20
503.8493986795016
 30
0.0
 11
145.8628014968032
 21
503.9352084249203
 31
0.0
  0
LINE
  5
282
  8
0
  6
CONTINUOUS
 62
   253
 10
145.8628014968032
 20
503.9352084249203
 30
0.0
 11
145.843278509891
 21
504.0093207699468
 31
0.0
  0
LINE
  5
283
  8
0
  6
CONTINUOUS
 62
   253
 10
145.843278509891
 20
504.0093207699468
 30
0.0
 11
145.82202845774
 21
504.0687851985081
 31
0.0
  0
LINE
  5
284
  8
0
  6
CONTINUOUS
 62
   253
 10
145.82202845774
 20
504.0687851985081
 30
0.0
 11
145.7998973346363
 21
504.1112343485643
 31
0.0
  0
LINE
  5
285
  8
0
  6
CONTINUOUS
 62
     7
 10
154.593747045835
 20
504.75
 30
0.0
 11
145.77677203483
 21
504.75
 31
0.0
  0
LINE
  5
286
  8
0
  6
CONTINUOUS
 62
     7
 10
154.0431810142718
 20
504.4321305534705
 30
0.0
 11
154.593747045835
 21
504.75
 31
0.0
  0
ARC
  5
287
  8
0
  6
CONTINUOUS
 62
   253
 10
155.0267597477273
 20
504.7650768448035
 30
0.0
 40
9.250000000000004
 50
180.0933881035788
 51
184.053371076637
  0
LINE
  5
288
  8
0
  6
CONTINUOUS
 62
     7
 10
159.868259955122
 20
512.885724344063
 30
0.0
 11
155.4597724496195
 21
505.2499999999998
 31
0.0
  0
ARC
  5
289
  8
0
  6
CONTINUOUS
 62
   253
 10
155.2302091680646
 20
504.8825384224017
 30
0.0
 40
9.250000000000002
 50
55.94662892336301
 51
59.90661189642103
  0
ARC
  5
28A
  8
0
  6
CONTINUOUS
 62
   253
 10
249.2346859616524
 20
451.6708384982439
 30
0.0
 40
107.6831876766277
 50
145.5754738773724
 51
149.9659341483084
  0
LINE
  5
28B
  8
0
  6
CONTINUOUS
 62
     7
 10
156.0103384811827
 20
505.5678694465296
 30
0.0
 11
155.4597724496195
 21
505.2499999999998
 31
0.0
  0
ARC
  5
28C
  8
0
  6
CONTINUOUS
 62
   253
 10
245.4476145196887
 20
454.1236607130399
 30
0.0
 40
102.7115111405052
 50
145.5480525148909
 51
149.6412046885679
  0
LINE
  5
28D
  8
0
  6
CONTINUOUS
 62
     7
 10
156.8201765237067
 20
506.035429658381
 30
0.0
 11
156.0103384811827
 21
505.5678694465296
 31
0.0
  0
LINE
  5
28E
  8
0
  6
CONTINUOUS
 62
   253
 10
160.4098845864271
 20
512.5463144212428
 30
0.0
 11
160.4355810671931
 21
512.5059237313924
 31
0.0
  0
LINE
  5
28F
  8
0
  6
CONTINUOUS
 62
   253
 10
160.4355810671931
 20
512.5059237313924
 30
0.0
 11
160.4764537468731
 21
512.4577884321174
 31
0.0
  0
LINE
  5
290
  8
0
  6
CONTINUOUS
 62
   253
 10
160.4764537468731
 20
512.4577884321174
 30
0.0
 11
160.5308754269441
 21
512.4038248569802
 31
0.0
  0
LINE
  5
291
  8
0
  6
CONTINUOUS
 62
   253
 10
160.5308754269441
 20
512.4038248569802
 30
0.0
 11
160.5966795042346
 21
512.3461813713551
 31
0.0
  0
LINE
  5
292
  8
0
  6
CONTINUOUS
 62
   253
 10
160.5966795042346
 20
512.3461813713551
 30
0.0
 11
160.6712462264258
 21
512.2871528429971
 31
0.0
  0
LINE
  5
293
  8
0
  6
CONTINUOUS
 62
   253
 10
160.6712462264258
 20
512.2871528429971
 30
0.0
 11
160.751606988054
 21
512.2290892801486
 31
0.0
  0
ARC
  5
294
  8
0
  6
CONTINUOUS
 62
   253
 10
156.176984859645
 20
401.2550730921027
 30
0.0
 40
102.7115111405003
 50
85.54805251489114
 51
89.64120468856859
  0
ARC
  5
295
  8
0
  6
CONTINUOUS
 62
   253
 10
155.9463142316431
 20
396.7489619099461
 30
0.0
 40
107.6831876766945
 50
85.57547387737343
 51
89.96593414830687
  0
LINE
  5
296
  8
0
  6
CONTINUOUS
 62
   253
 10
164.2536221608183
 20
504.1112343485644
 30
0.0
 11
164.2314910377145
 21
504.0687851985082
 31
0.0
  0
LINE
  5
297
  8
0
  6
CONTINUOUS
 62
   253
 10
164.2314910377145
 20
504.0687851985082
 30
0.0
 11
164.2102409855635
 21
504.009320769947
 31
0.0
  0
LINE
  5
298
  8
0
  6
CONTINUOUS
 62
   253
 10
164.2102409855635
 20
504.009320769947
 30
0.0
 11
164.1907179986513
 21
503.9352084249203
 31
0.0
  0
LINE
  5
299
  8
0
  6
CONTINUOUS
 62
   253
 10
164.1907179986513
 20
503.9352084249203
 30
0.0
 11
164.1736993143825
 21
503.8493986795016
 31
0.0
  0
LINE
  5
29A
  8
0
  6
CONTINUOUS
 62
   253
 10
164.1736993143825
 20
503.8493986795016
 30
0.0
 11
164.1598624703719
 21
503.7553077396278
 31
0.0
  0
LINE
  5
29B
  8
0
  6
CONTINUOUS
 62
   253
 10
164.1598624703719
 20
503.7553077396278
 30
0.0
 11
164.1497583307251
 21
503.6566814971661
 31
0.0
  0
LINE
  5
29C
  8
0
  6
CONTINUOUS
 62
     7
 10
150.1852595403325
 20
497.114275655937
 30
0.0
 11
154.593747045835
 21
504.75
 31
0.0
  0
ARC
  5
29D
  8
0
  6
CONTINUOUS
 62
   253
 10
154.8233103273899
 20
505.1174615775983
 30
0.0
 40
9.25
 50
235.946628923363
 51
239.9066118964213
  0
ARC
  5
29E
  8
0
  6
CONTINUOUS
 62
   253
 10
60.81883353380207
 20
558.3291615017561
 30
0.0
 40
107.6831876766277
 50
325.5754738773724
 51
329.9659341483084
  0
LINE
  5
29F
  8
0
  6
CONTINUOUS
 62
   253
 10
149.6436349090274
 20
497.4536855787572
 30
0.0
 11
149.6179384282615
 21
497.4940762686074
 31
0.0
  0
LINE
  5
2A0
  8
0
  6
CONTINUOUS
 62
   253
 10
149.6179384282615
 20
497.4940762686074
 30
0.0
 11
149.5770657485815
 21
497.5422115678826
 31
0.0
  0
LINE
  5
2A1
  8
0
  6
CONTINUOUS
 62
   253
 10
149.5770657485815
 20
497.5422115678826
 30
0.0
 11
149.5226440685105
 21
497.5961751430195
 31
0.0
  0
LINE
  5
2A2
  8
0
  6
CONTINUOUS
 62
   253
 10
149.5226440685105
 20
497.5961751430195
 30
0.0
 11
149.4568399912201
 21
497.6538186286447
 31
0.0
  0
LINE
  5
2A3
  8
0
  6
CONTINUOUS
 62
   253
 10
149.4568399912201
 20
497.6538186286447
 30
0.0
 11
149.3822732690289
 21
497.7128471570029
 31
0.0
  0
LINE
  5
2A4
  8
0
  6
CONTINUOUS
 62
   253
 10
149.3822732690289
 20
497.7128471570029
 30
0.0
 11
149.3019125074006
 21
497.7709107198513
 31
0.0
  0
ARC
  5
2A5
  8
0
  6
CONTINUOUS
 62
   253
 10
64.60590497571702
 20
555.8763392869907
 30
0.0
 40
102.7115111405627
 50
325.5480525148922
 51
329.641204688567
  0
LINE
  5
2A6
  8
0
  6
CONTINUOUS
 62
     7
 10
164.2767474606245
 20
504.75
 30
0.0
 11
155.4597724496195
 21
504.75
 31
0.0
  0
ARC
  5
2A7
  8
0
  6
CONTINUOUS
 62
   253
 10
155.0267597477273
 20
504.7650768448035
 30
0.0
 40
9.250000000000002
 50
355.946628923363
 51
359.9066118964211
  0
LINE
  5
2A8
  8
0
  6
CONTINUOUS
 62
     7
 10
155.4597724496195
 20
505.2499999999998
 30
0.0
 11
164.2767474606245
 21
505.2499999999998
 31
0.0
  0
ARC
  5
2A9
  8
0
  6
CONTINUOUS
 62
   253
 10
155.9713306958976
 20
612.6084072070518
 30
0.0
 40
107.0405448681437
 50
270.0208797658607
 51
274.4377122084587
  0
ARC
  5
2AA
  8
0
  6
CONTINUOUS
 62
   253
 10
155.0267597477273
 20
505.2349231551963
 30
0.0
 40
9.25
 50
0.0933881035788661
 51
4.053371076636969
  0
ARC
  5
2AB
  8
0
  6
CONTINUOUS
 62
   253
 10
156.1720216390851
 20
608.8630810137926
 30
0.0
 40
102.8296940967177
 50
270.3611484561644
 51
274.4495943403742
  0
LINE
  5
2AC
  8
0
  6
CONTINUOUS
 62
   253
 10
164.1497583307251
 20
506.3433185028338
 30
0.0
 11
164.1598624703719
 21
506.2446922603719
 31
0.0
  0
LINE
  5
2AD
  8
0
  6
CONTINUOUS
 62
   253
 10
164.1598624703719
 20
506.2446922603719
 30
0.0
 11
164.1736993143825
 21
506.1506013204984
 31
0.0
  0
LINE
  5
2AE
  8
0
  6
CONTINUOUS
 62
   253
 10
164.1736993143825
 20
506.1506013204984
 30
0.0
 11
164.1907179986513
 21
506.0647915750795
 31
0.0
  0
LINE
  5
2AF
  8
0
  6
CONTINUOUS
 62
   253
 10
164.1907179986513
 20
506.0647915750795
 30
0.0
 11
164.2102409855635
 21
505.990679230053
 31
0.0
  0
LINE
  5
2B0
  8
0
  6
CONTINUOUS
 62
   253
 10
164.2102409855635
 20
505.990679230053
 30
0.0
 11
164.2314910377145
 21
505.9312148014918
 31
0.0
  0
LINE
  5
2B1
  8
0
  6
CONTINUOUS
 62
   253
 10
164.2314910377145
 20
505.9312148014918
 30
0.0
 11
164.2536221608183
 21
505.8887656514356
 31
0.0
  0
LINE
  5
2B2
  8
0
  6
CONTINUOUS
 62
     7
 10
155.0267597477273
 20
504.4999999999999
 30
0.0
 11
150.6182722422247
 21
496.864275655937
 31
0.0
  0
LINE
  5
2B3
  8
0
  6
CONTINUOUS
 62
     7
 10
155.0267597477273
 20
503.8642611069406
 30
0.0
 11
155.0267597477273
 21
504.4999999999999
 31
0.0
  0
ARC
  5
2B4
  8
0
  6
CONTINUOUS
 62
   253
 10
247.746088575713
 20
450.3777739596902
 30
0.0
 40
107.0405448681253
 50
150.0208797658603
 51
154.4377122084589
  0
ARC
  5
2B5
  8
0
  6
CONTINUOUS
 62
   253
 10
155.2302091680646
 20
504.8825384224017
 30
0.0
 40
9.250000000000004
 50
240.0933881035787
 51
244.053371076637
  0
LINE
  5
2B6
  8
0
  6
CONTINUOUS
 62
     7
 10
159.4352472532298
 20
496.864275655937
 30
0.0
 11
155.0267597477273
 21
504.4999999999999
 31
0.0
  0
ARC
  5
2B7
  8
0
  6
CONTINUOUS
 62
   253
 10
154.8233103273899
 20
504.8825384224017
 30
0.0
 40
9.250000000000005
 50
295.9466289233629
 51
299.9066118964213
  0
ARC
  5
2B8
  8
0
  6
CONTINUOUS
 62
   253
 10
61.73838801774225
 20
450.0781234117802
 30
0.0
 40
107.6831876766035
 50
25.57547387737179
 51
29.96593414830886
  0
LINE
  5
2B9
  8
0
  6
CONTINUOUS
 62
   253
 10
158.8704973221184
 20
496.5649199273216
 30
0.0
 11
158.8226697182487
 21
496.5628614671155
 31
0.0
  0
LINE
  5
2BA
  8
0
  6
CONTINUOUS
 62
   253
 10
158.8226697182487
 20
496.5628614671155
 30
0.0
 11
158.7605469864178
 21
496.5515323378295
 31
0.0
  0
LINE
  5
2BB
  8
0
  6
CONTINUOUS
 62
   253
 10
158.7605469864178
 20
496.5515323378295
 30
0.0
 11
158.6866023194346
 21
496.5313835679399
 31
0.0
  0
LINE
  5
2BC
  8
0
  6
CONTINUOUS
 62
   253
 10
158.6866023194346
 20
496.5313835679399
 30
0.0
 11
158.6037795578753
 21
496.5032173081462
 31
0.0
  0
LINE
  5
2BD
  8
0
  6
CONTINUOUS
 62
   253
 10
158.6037795578753
 20
496.5032173081462
 30
0.0
 11
158.5153759916735
 21
496.4681548966309
 31
0.0
  0
LINE
  5
2BE
  8
0
  6
CONTINUOUS
 62
   253
 10
158.5153759916735
 20
496.4681548966309
 30
0.0
 11
158.4249110903984
 21
496.4275922170175
 31
0.0
  0
ARC
  5
2BF
  8
0
  6
CONTINUOUS
 62
   253
 10
65.75613008760868
 20
452.1314123790186
 30
0.0
 40
102.711511140589
 50
25.5480525148929
 51
29.6412046885666
  0
LINE
  5
2C0
  8
0
  6
CONTINUOUS
 62
     7
 10
155.0267597477273
 20
503.8642611069406
 30
0.0
 11
155.0267597477273
 21
502.9291406832381
 31
0.0
  0
ARC
  5
2C1
  8
0
  6
CONTINUOUS
 62
   253
 10
244.4021954752993
 20
452.0766336012109
 30
0.0
 40
102.8296940967005
 50
150.3611484561649
 51
154.4495943403755
  0
LINE
  5
2C2
  8
0
  6
CONTINUOUS
 62
   253
 10
151.6286084050561
 20
496.4275922170175
 30
0.0
 11
151.538143503781
 21
496.4681548966309
 31
0.0
  0
LINE
  5
2C3
  8
0
  6
CONTINUOUS
 62
   253
 10
151.538143503781
 20
496.4681548966309
 30
0.0
 11
151.4497399375792
 21
496.5032173081463
 31
0.0
  0
LINE
  5
2C4
  8
0
  6
CONTINUOUS
 62
   253
 10
151.4497399375792
 20
496.5032173081463
 30
0.0
 11
151.3669171760199
 21
496.5313835679399
 31
0.0
  0
LINE
  5
2C5
  8
0
  6
CONTINUOUS
 62
   253
 10
151.3669171760199
 20
496.5313835679399
 30
0.0
 11
151.2929725090367
 21
496.5515323378295
 31
0.0
  0
LINE
  5
2C6
  8
0
  6
CONTINUOUS
 62
   253
 10
151.2929725090367
 20
496.5515323378295
 30
0.0
 11
151.2308497772058
 21
496.5628614671155
 31
0.0
  0
LINE
  5
2C7
  8
0
  6
CONTINUOUS
 62
   253
 10
151.2308497772058
 20
496.5628614671155
 30
0.0
 11
151.1830221733361
 21
496.5649199273216
 31
0.0
  0
ARC
  5
2C8
  8
0
  6
CONTINUOUS
 62
   253
 10
61.36285997154488
 20
452.0138188332607
 30
0.0
 40
107.040544868155
 50
30.02087976586069
 51
34.43771220845821
  0
LINE
  5
2C9
  8
0
  6
CONTINUOUS
 62
     7
 10
154.0431810142718
 20
505.5678694465296
 30
0.0
 11
153.2333429717478
 21
506.035429658381
 31
0.0
  0
ARC
  5
2CA
  8
0
  6
CONTINUOUS
 62
   253
 10
64.50606212879192
 20
454.0602853850094
 30
0.0
 40
102.829694096708
 50
30.36114845616532
 51
34.44959434037562
  0
LINE
  5
2CB
  8
0
  6
CONTINUOUS
 62
   253
 10
149.3019125074005
 20
512.2290892801487
 30
0.0
 11
149.3822732690288
 21
512.2871528429971
 31
0.0
  0
LINE
  5
2CC
  8
0
  6
CONTINUOUS
 62
   253
 10
149.3822732690288
 20
512.2871528429971
 30
0.0
 11
149.4568399912199
 21
512.3461813713553
 31
0.0
  0
LINE
  5
2CD
  8
0
  6
CONTINUOUS
 62
   253
 10
149.4568399912199
 20
512.3461813713553
 30
0.0
 11
149.5226440685104
 21
512.4038248569805
 31
0.0
  0
LINE
  5
2CE
  8
0
  6
CONTINUOUS
 62
   253
 10
149.5226440685104
 20
512.4038248569805
 30
0.0
 11
149.5770657485814
 21
512.4577884321174
 31
0.0
  0
LINE
  5
2CF
  8
0
  6
CONTINUOUS
 62
   253
 10
149.5770657485814
 20
512.4577884321174
 30
0.0
 11
149.6179384282614
 21
512.5059237313925
 31
0.0
  0
LINE
  5
2D0
  8
0
  6
CONTINUOUS
 62
   253
 10
149.6179384282614
 20
512.5059237313925
 30
0.0
 11
149.6436349090273
 21
512.5463144212428
 31
0.0
  0
LINE
  5
2D1
  8
0
  6
CONTINUOUS
 62
     7
 10
154.593747045835
 20
505.2499999999998
 30
0.0
 11
150.1852595403325
 21
512.885724344063
 31
0.0
  0
LINE
  5
2D2
  8
0
  6
CONTINUOUS
 62
     7
 10
154.593747045835
 20
505.2499999999998
 30
0.0
 11
154.0431810142718
 21
505.5678694465296
 31
0.0
  0
ARC
  5
2D3
  8
0
  6
CONTINUOUS
 62
   253
 10
154.8233103273899
 20
504.8825384224017
 30
0.0
 40
9.249999999999998
 50
120.0933881035788
 51
124.0533710766369
  0
ARC
  5
2D4
  8
0
  6
CONTINUOUS
 62
   253
 10
154.1072052638114
 20
613.251038090053
 30
0.0
 40
107.6831876766937
 50
265.5754738773736
 51
269.9659341483068
  0
LINE
  5
2D5
  8
0
  6
CONTINUOUS
 62
   253
 10
145.7998973346363
 20
505.8887656514357
 30
0.0
 11
145.82202845774
 21
505.9312148014919
 31
0.0
  0
LINE
  5
2D6
  8
0
  6
CONTINUOUS
 62
   253
 10
145.82202845774
 20
505.9312148014919
 30
0.0
 11
145.8432785098911
 21
505.9906792300531
 31
0.0
  0
LINE
  5
2D7
  8
0
  6
CONTINUOUS
 62
   253
 10
145.8432785098911
 20
505.9906792300531
 30
0.0
 11
145.8628014968032
 21
506.0647915750799
 31
0.0
  0
LINE
  5
2D8
  8
0
  6
CONTINUOUS
 62
   253
 10
145.8628014968032
 20
506.0647915750799
 30
0.0
 11
145.879820181072
 21
506.1506013204985
 31
0.0
  0
LINE
  5
2D9
  8
0
  6
CONTINUOUS
 62
   253
 10
145.879820181072
 20
506.1506013204985
 30
0.0
 11
145.8936570250826
 21
506.2446922603722
 31
0.0
  0
LINE
  5
2DA
  8
0
  6
CONTINUOUS
 62
   253
 10
145.8936570250826
 20
506.2446922603722
 30
0.0
 11
145.9037611647294
 21
506.3433185028339
 31
0.0
  0
ARC
  5
2DB
  8
0
  6
CONTINUOUS
 62
   253
 10
153.8765346358094
 20
608.7449269078963
 30
0.0
 40
102.7115111404994
 50
265.5480525148911
 51
269.6412046885685
  0
LINE
  5
2DC
  8
0
  6
CONTINUOUS
 62
     7
 10
145.77677203483
 20
505.2499999999998
 30
0.0
 11
154.593747045835
 21
505.2499999999998
 31
0.0
  0
ARC
  5
2DD
  8
0
  6
CONTINUOUS
 62
   253
 10
155.0267597477273
 20
505.2349231551963
 30
0.0
 40
9.25
 50
175.946628923363
 51
179.9066118964211
  0
LINE
  5
2DE
  8
0
  6
CONTINUOUS
 62
   253
 10
164.6873083691024
 20
504.3233927040441
 30
0.0
 11
164.5016928871814
 21
503.7250333136917
 31
0.0
  0
ARC
  5
2DF
  8
0
  6
CONTINUOUS
 62
   253
 10
155.0267597477273
 20
505.0
 30
0.0
 40
9.684213809023998
 50
355.9936498678506
 51
4.006350132149407
  0
LINE
  5
2E0
  8
0
  6
CONTINUOUS
 62
   253
 10
164.5016928871806
 20
506.2749666863148
 30
0.0
 11
164.6873083691024
 21
505.6766072959559
 31
0.0
  0
ARC
  5
2E1
  8
0
  6
CONTINUOUS
 62
   253
 10
155.0267597477273
 20
505.0
 30
0.0
 40
9.560329390158223
 50
7.663804323669675
 51
52.33619567630301
  0
LINE
  5
2E2
  8
0
  6
CONTINUOUS
 62
   253
 10
160.4429931650984
 20
513.0279768726277
 30
0.0
 11
160.8683798567849
 21
512.5680494547655
 31
0.0
  0
ARC
  5
2E3
  8
0
  6
CONTINUOUS
 62
   253
 10
155.0267597477273
 20
505.0
 30
0.0
 40
9.68421380902405
 50
55.99364986785054
 51
64.00635013214935
  0
LINE
  5
2E4
  8
0
  6
CONTINUOUS
 62
   253
 10
158.6600727781266
 20
513.8430161410829
 30
0.0
 11
159.2710749517312
 21
513.7045841685834
 31
0.0
  0
ARC
  5
2E5
  8
0
  6
CONTINUOUS
 62
   253
 10
155.0267597477273
 20
505.0
 30
0.0
 40
9.56032939015823
 50
67.66380432366958
 51
112.3361956763684
  0
LINE
  5
2E6
  8
0
  6
CONTINUOUS
 62
   253
 10
150.7824445437233
 20
513.7045841685834
 30
0.0
 11
151.3934467173221
 21
513.8430161410805
 31
0.0
  0
ARC
  5
2E7
  8
0
  6
CONTINUOUS
 62
   253
 10
155.0267597477273
 20
505.0
 30
0.0
 40
9.68421380902399
 50
115.9936498678506
 51
124.0063501321494
  0
LINE
  5
2E8
  8
0
  6
CONTINUOUS
 62
   253
 10
149.1851396386732
 20
512.5680494547682
 30
0.0
 11
149.610526330356
 21
513.0279768726277
 31
0.0
  0
ARC
  5
2E9
  8
0
  6
CONTINUOUS
 62
   253
 10
155.0267597477273
 20
505.0
 30
0.0
 40
9.560329390158214
 50
127.6638043236696
 51
172.336195676303
  0
LINE
  5
2EA
  8
0
  6
CONTINUOUS
 62
   253
 10
145.3662111263521
 20
505.6766072959559
 30
0.0
 11
145.5518266082745
 21
506.2749666863192
 31
0.0
  0
ARC
  5
2EB
  8
0
  6
CONTINUOUS
 62
   253
 10
155.0267597477273
 20
505.0
 30
0.0
 40
9.684213809023998
 50
175.9936498678505
 51
184.0063501321495
  0
LINE
  5
2EC
  8
0
  6
CONTINUOUS
 62
   253
 10
145.5518266082739
 20
503.7250333136853
 30
0.0
 11
145.3662111263521
 21
504.3233927040441
 31
0.0
  0
ARC
  5
2ED
  8
0
  6
CONTINUOUS
 62
   253
 10
155.0267597477273
 20
505.0
 30
0.0
 40
9.56032939015821
 50
187.6638043236698
 51
232.3361956763684
  0
LINE
  5
2EE
  8
0
  6
CONTINUOUS
 62
   253
 10
149.610526330356
 20
496.9720231273723
 30
0.0
 11
149.1851396386782
 21
497.4319505452278
 31
0.0
  0
ARC
  5
2EF
  8
0
  6
CONTINUOUS
 62
   253
 10
155.0267597477273
 20
505.0
 30
0.0
 40
9.684213809023987
 50
235.9936498678506
 51
244.0063501321494
  0
LINE
  5
2F0
  8
0
  6
CONTINUOUS
 62
   253
 10
151.3934467173279
 20
496.156983858917
 30
0.0
 11
150.7824445437233
 21
496.2954158314165
 31
0.0
  0
ARC
  5
2F1
  8
0
  6
CONTINUOUS
 62
   253
 10
155.0267597477273
 20
505.0
 30
0.0
 40
9.56032939015823
 50
247.6638043236696
 51
292.336195676303
  0
LINE
  5
2F2
  8
0
  6
CONTINUOUS
 62
   253
 10
159.2710749517312
 20
496.2954158314165
 30
0.0
 11
158.6600727781223
 21
496.1569838589153
 31
0.0
  0
ARC
  5
2F3
  8
0
  6
CONTINUOUS
 62
   253
 10
155.0267597477273
 20
505.0
 30
0.0
 40
9.68421380902419
 50
295.9936498678505
 51
304.0063501321494
  0
LINE
  5
2F4
  8
0
  6
CONTINUOUS
 62
   253
 10
160.8683798567812
 20
497.4319505452317
 30
0.0
 11
160.4429931650984
 21
496.9720231273723
 31
0.0
  0
ARC
  5
2F5
  8
0
  6
CONTINUOUS
 62
   253
 10
155.0267597477273
 20
505.0
 30
0.0
 40
9.560329390158214
 50
307.6638043236696
 51
352.3361956763684
  0
LINE
  5
2F6
  8
0
  6
CONTINUOUS
 62
   253
 10
145.5518266082745
 20
506.2749666863192
 30
0.0
 11
145.9037611647294
 21
506.3433185028339
 31
0.0
  0
LINE
  5
2F7
  8
0
  6
CONTINUOUS
 62
   253
 10
149.3019125074005
 20
512.2290892801486
 30
0.0
 11
149.1851396386732
 21
512.5680494547682
 31
0.0
  0
LINE
  5
2F8
  8
0
  6
CONTINUOUS
 62
   253
 10
149.1851396386783
 20
497.4319505452278
 30
0.0
 11
149.3019125074005
 21
497.7709107198513
 31
0.0
  0
LINE
  5
2F9
  8
0
  6
CONTINUOUS
 62
   253
 10
145.9037611647294
 20
503.6566814971661
 30
0.0
 11
145.551826608274
 21
503.7250333136853
 31
0.0
  0
LINE
  5
2FA
  8
0
  6
CONTINUOUS
 62
   253
 10
151.6286084050561
 20
496.4275922170175
 30
0.0
 11
151.3934467173279
 21
496.156983858917
 31
0.0
  0
LINE
  5
2FB
  8
0
  6
CONTINUOUS
 62
   253
 10
158.6600727781223
 20
496.1569838589153
 30
0.0
 11
158.4249110903984
 21
496.4275922170175
 31
0.0
  0
LINE
  5
2FC
  8
0
  6
CONTINUOUS
 62
   253
 10
164.5016928871814
 20
503.7250333136917
 30
0.0
 11
164.1497583307251
 21
503.6566814971661
 31
0.0
  0
LINE
  5
2FD
  8
0
  6
CONTINUOUS
 62
   253
 10
160.7516069880539
 20
497.7709107198513
 30
0.0
 11
160.8683798567812
 21
497.4319505452317
 31
0.0
  0
LINE
  5
2FE
  8
0
  6
CONTINUOUS
 62
   253
 10
151.3934467173221
 20
513.8430161410805
 30
0.0
 11
151.6286084050561
 21
513.5724077829825
 31
0.0
  0
LINE
  5
2FF
  8
0
  6
CONTINUOUS
 62
   253
 10
158.4249110903984
 20
513.5724077829825
 30
0.0
 11
158.6600727781266
 21
513.8430161410829
 31
0.0
  0
LINE
  5
300
  8
0
  6
CONTINUOUS
 62
   253
 10
160.8683798567849
 20
512.5680494547655
 30
0.0
 11
160.751606988054
 21
512.2290892801486
 31
0.0
  0
LINE
  5
301
  8
0
  6
CONTINUOUS
 62
   253
 10
164.1497583307251
 20
506.3433185028339
 30
0.0
 11
164.5016928871806
 21
506.2749666863148
 31
0.0
  0
LINE
  5
302
  8
0
  6
CONTINUOUS
 62
   253
 10
145.549974774481
 20
504.336263176512
 30
0.0
 11
145.6817205191098
 21
504.1255201531843
 31
0.0
  0
LINE
  5
303
  8
0
  6
CONTINUOUS
 62
   253
 10
145.5518266082809
 20
503.7250333136818
 30
0.0
 11
145.5902683798218
 21
503.8100846913267
 31
0.0
  0
LINE
  5
304
  8
0
  6
CONTINUOUS
 62
   253
 10
145.5902683798218
 20
503.8100846913267
 30
0.0
 11
145.6233504337501
 21
503.8914980137961
 31
0.0
  0
LINE
  5
305
  8
0
  6
CONTINUOUS
 62
   253
 10
145.6233504337501
 20
503.8914980137961
 30
0.0
 11
145.6498647480758
 21
503.9663003978455
 31
0.0
  0
LINE
  5
306
  8
0
  6
CONTINUOUS
 62
   253
 10
145.6498647480758
 20
503.9663003978455
 30
0.0
 11
145.6688431279334
 21
504.0317603647998
 31
0.0
  0
LINE
  5
307
  8
0
  6
CONTINUOUS
 62
   253
 10
145.6688431279334
 20
504.0317603647998
 30
0.0
 11
145.6795925601185
 21
504.0854875830394
 31
0.0
  0
LINE
  5
308
  8
0
  6
CONTINUOUS
 62
   253
 10
145.6795925601185
 20
504.0854875830394
 30
0.0
 11
145.6817205191099
 21
504.1255201531844
 31
0.0
  0
LINE
  5
309
  8
0
  6
CONTINUOUS
 62
   253
 10
145.549974774481
 20
504.336263176512
 30
0.0
 11
145.3662111263521
 21
504.3233927040441
 31
0.0
  0
LINE
  5
30A
  8
0
  6
CONTINUOUS
 62
   253
 10
149.7135543105364
 20
512.8752681212899
 30
0.0
 11
149.5969183709787
 21
512.6558014479369
 31
0.0
  0
LINE
  5
30B
  8
0
  6
CONTINUOUS
 62
   253
 10
149.1851396386737
 20
512.5680494547606
 30
0.0
 11
149.2780171781115
 21
512.5772835928622
 31
0.0
  0
LINE
  5
30C
  8
0
  6
CONTINUOUS
 62
   253
 10
149.2780171781115
 20
512.5772835928622
 30
0.0
 11
149.3650642105406
 21
512.5893403549856
 31
0.0
  0
LINE
  5
30D
  8
0
  6
CONTINUOUS
 62
   253
 10
149.3650642105406
 20
512.5893403549856
 30
0.0
 11
149.4431021325539
 21
512.6037794772402
 31
0.0
  0
LINE
  5
30E
  8
0
  6
CONTINUOUS
 62
   253
 10
149.4431021325539
 20
512.6037794772402
 30
0.0
 11
149.5092813167959
 21
512.620073701638
 31
0.0
  0
LINE
  5
30F
  8
0
  6
CONTINUOUS
 62
   253
 10
149.5092813167959
 20
512.620073701638
 30
0.0
 11
149.5611851687586
 21
512.6376280294093
 31
0.0
  0
LINE
  5
310
  8
0
  6
CONTINUOUS
 62
   253
 10
149.5611851687586
 20
512.6376280294093
 30
0.0
 11
149.5969183709787
 21
512.655801447937
 31
0.0
  0
LINE
  5
311
  8
0
  6
CONTINUOUS
 62
   253
 10
149.7135543105364
 20
512.8752681212899
 30
0.0
 11
149.6105263303561
 21
513.0279768726277
 31
0.0
  0
LINE
  5
312
  8
0
  6
CONTINUOUS
 62
   253
 10
164.6873083691024
 20
505.6766072959559
 30
0.0
 11
164.5035447209735
 21
505.6637368234881
 31
0.0
  0
LINE
  5
313
  8
0
  6
CONTINUOUS
 62
   253
 10
164.5035447209735
 20
505.6637368234881
 30
0.0
 11
164.3717989763447
 21
505.8744798468155
 31
0.0
  0
LINE
  5
314
  8
0
  6
CONTINUOUS
 62
   253
 10
164.5016928871806
 20
506.2749666863148
 30
0.0
 11
164.4632511156395
 21
506.1899153086699
 31
0.0
  0
LINE
  5
315
  8
0
  6
CONTINUOUS
 62
   253
 10
164.4632511156395
 20
506.1899153086699
 30
0.0
 11
164.4301690617108
 21
506.1085019862006
 31
0.0
  0
LINE
  5
316
  8
0
  6
CONTINUOUS
 62
   253
 10
164.4301690617108
 20
506.1085019862006
 30
0.0
 11
164.4036547473846
 21
506.0336996021516
 31
0.0
  0
LINE
  5
317
  8
0
  6
CONTINUOUS
 62
   253
 10
164.4036547473846
 20
506.0336996021516
 30
0.0
 11
164.3846763675261
 21
505.9682396351977
 31
0.0
  0
LINE
  5
318
  8
0
  6
CONTINUOUS
 62
   253
 10
164.3846763675261
 20
505.9682396351977
 30
0.0
 11
164.3739269353401
 21
505.9145124169586
 31
0.0
  0
LINE
  5
319
  8
0
  6
CONTINUOUS
 62
   253
 10
164.3739269353401
 20
505.9145124169586
 30
0.0
 11
164.3717989763475
 21
505.8744798468143
 31
0.0
  0
LINE
  5
31A
  8
0
  6
CONTINUOUS
 62
   253
 10
159.2710749517312
 20
513.7045841685834
 30
0.0
 11
159.1903392837826
 21
513.5390049447778
 31
0.0
  0
LINE
  5
31B
  8
0
  6
CONTINUOUS
 62
   253
 10
159.1903392837826
 20
513.5390049447778
 30
0.0
 11
158.9419575995961
 21
513.5302812947526
 31
0.0
  0
LINE
  5
31C
  8
0
  6
CONTINUOUS
 62
   253
 10
158.6600727781266
 20
513.843016141083
 30
0.0
 11
158.7145085460234
 21
513.7671989015396
 31
0.0
  0
LINE
  5
31D
  8
0
  6
CONTINUOUS
 62
   253
 10
158.7145085460234
 20
513.7671989015396
 30
0.0
 11
158.7684735245239
 21
513.6978423411935
 31
0.0
  0
LINE
  5
31E
  8
0
  6
CONTINUOUS
 62
   253
 10
158.7684735245239
 20
513.6978423411935
 30
0.0
 11
158.8199971322108
 21
513.6374790793983
 31
0.0
  0
LINE
  5
31F
  8
0
  6
CONTINUOUS
 62
   253
 10
158.8199971322108
 20
513.6374790793983
 30
0.0
 11
158.8671979365945
 21
513.5883133368413
 31
0.0
  0
LINE
  5
320
  8
0
  6
CONTINUOUS
 62
   253
 10
158.8671979365945
 20
513.5883133368413
 30
0.0
 11
158.9083523563712
 21
513.5521404463724
 31
0.0
  0
LINE
  5
321
  8
0
  6
CONTINUOUS
 62
   253
 10
158.9083523563712
 20
513.5521404463724
 30
0.0
 11
158.9419575995988
 21
513.5302812947544
 31
0.0
  0
LINE
  5
322
  8
0
  6
CONTINUOUS
 62
   253
 10
160.4429931650984
 20
496.9720231273723
 30
0.0
 11
160.3399651849182
 21
497.1247318787101
 31
0.0
  0
LINE
  5
323
  8
0
  6
CONTINUOUS
 62
   253
 10
160.3399651849182
 20
497.1247318787101
 30
0.0
 11
160.4566011244758
 21
497.3441985520629
 31
0.0
  0
LINE
  5
324
  8
0
  6
CONTINUOUS
 62
   253
 10
160.8683798567812
 20
497.4319505452317
 30
0.0
 11
160.7755023173434
 21
497.4227164071303
 31
0.0
  0
LINE
  5
325
  8
0
  6
CONTINUOUS
 62
   253
 10
160.7755023173434
 20
497.4227164071303
 30
0.0
 11
160.6884552849142
 21
497.4106596450073
 31
0.0
  0
LINE
  5
326
  8
0
  6
CONTINUOUS
 62
   253
 10
160.6884552849142
 20
497.4106596450073
 30
0.0
 11
160.6104173629009
 21
497.3962205227533
 31
0.0
  0
LINE
  5
327
  8
0
  6
CONTINUOUS
 62
   253
 10
160.6104173629009
 20
497.3962205227533
 30
0.0
 11
160.5442381786588
 21
497.3799262983564
 31
0.0
  0
LINE
  5
328
  8
0
  6
CONTINUOUS
 62
   253
 10
160.5442381786588
 20
497.3799262983564
 30
0.0
 11
160.492334326696
 21
497.3623719705863
 31
0.0
  0
LINE
  5
329
  8
0
  6
CONTINUOUS
 62
   253
 10
160.492334326696
 20
497.3623719705863
 30
0.0
 11
160.456601124476
 21
497.3441985520598
 31
0.0
  0
LINE
  5
32A
  8
0
  6
CONTINUOUS
 62
   253
 10
150.8631802116719
 20
496.4609950552221
 30
0.0
 11
151.1115618958584
 21
496.4697187052474
 31
0.0
  0
LINE
  5
32B
  8
0
  6
CONTINUOUS
 62
   253
 10
151.3934467173344
 20
496.1569838589213
 30
0.0
 11
151.3390109494375
 21
496.2328010984647
 31
0.0
  0
LINE
  5
32C
  8
0
  6
CONTINUOUS
 62
   253
 10
151.3390109494375
 20
496.2328010984647
 30
0.0
 11
151.2850459709367
 21
496.3021576588106
 31
0.0
  0
LINE
  5
32D
  8
0
  6
CONTINUOUS
 62
   253
 10
151.2850459709367
 20
496.3021576588106
 30
0.0
 11
151.2335223632491
 21
496.3625209206053
 31
0.0
  0
LINE
  5
32E
  8
0
  6
CONTINUOUS
 62
   253
 10
151.2335223632491
 20
496.3625209206053
 30
0.0
 11
151.1863215588646
 21
496.4116866631618
 31
0.0
  0
LINE
  5
32F
  8
0
  6
CONTINUOUS
 62
   253
 10
151.1863215588646
 20
496.4116866631618
 30
0.0
 11
151.145167139087
 21
496.4478595536301
 31
0.0
  0
LINE
  5
330
  8
0
  6
CONTINUOUS
 62
   253
 10
151.145167139087
 20
496.4478595536301
 30
0.0
 11
151.1115618958584
 21
496.4697187052473
 31
0.0
  0
LINE
  5
331
  8
0
  6
CONTINUOUS
 62
   253
 10
150.8631802116719
 20
496.4609950552221
 30
0.0
 11
150.7824445437233
 21
496.2954158314165
 31
0.0
  0
LINE
  5
332
  8
0
  6
CONTINUOUS
 62
   253
 10
158.9419575996035
 20
496.4697187052566
 30
0.0
 11
158.9083523563768
 21
496.4478595536352
 31
0.0
  0
LINE
  5
333
  8
0
  6
CONTINUOUS
 62
   253
 10
158.9083523563768
 20
496.4478595536352
 30
0.0
 11
158.8671979365999
 21
496.4116866631631
 31
0.0
  0
LINE
  5
334
  8
0
  6
CONTINUOUS
 62
   253
 10
158.8671979365999
 20
496.4116866631631
 30
0.0
 11
158.819997132215
 21
496.3625209206035
 31
0.0
  0
LINE
  5
335
  8
0
  6
CONTINUOUS
 62
   253
 10
158.819997132215
 20
496.3625209206035
 30
0.0
 11
158.7684735245259
 21
496.3021576588064
 31
0.0
  0
LINE
  5
336
  8
0
  6
CONTINUOUS
 62
   253
 10
158.7684735245259
 20
496.3021576588064
 30
0.0
 11
158.7145085460226
 21
496.232801098459
 31
0.0
  0
LINE
  5
337
  8
0
  6
CONTINUOUS
 62
   253
 10
158.7145085460226
 20
496.232801098459
 30
0.0
 11
158.6600727781223
 21
496.1569838589153
 31
0.0
  0
LINE
  5
338
  8
0
  6
CONTINUOUS
 62
   253
 10
158.9419575995909
 20
496.4697187052459
 30
0.0
 11
159.1903392837835
 21
496.4609950552219
 31
0.0
  0
LINE
  5
339
  8
0
  6
CONTINUOUS
 62
   253
 10
159.2710749517312
 20
496.2954158314165
 30
0.0
 11
159.1903392837826
 21
496.4609950552221
 31
0.0
  0
LINE
  5
33A
  8
0
  6
CONTINUOUS
 62
   253
 10
145.6817205191112
 20
505.8744798468209
 30
0.0
 11
145.549974774481
 21
505.6637368234881
 31
0.0
  0
LINE
  5
33B
  8
0
  6
CONTINUOUS
 62
   253
 10
145.549974774481
 20
505.6637368234881
 30
0.0
 11
145.3662111263521
 21
505.6766072959559
 31
0.0
  0
LINE
  5
33C
  8
0
  6
CONTINUOUS
 62
   253
 10
145.6817205191111
 20
505.8744798468209
 30
0.0
 11
145.6795925601201
 21
505.9145124169659
 31
0.0
  0
LINE
  5
33D
  8
0
  6
CONTINUOUS
 62
   253
 10
145.6795925601201
 20
505.9145124169659
 30
0.0
 11
145.6688431279356
 21
505.9682396352059
 31
0.0
  0
LINE
  5
33E
  8
0
  6
CONTINUOUS
 62
   253
 10
145.6688431279356
 20
505.9682396352059
 30
0.0
 11
145.6498647480788
 21
506.0336996021604
 31
0.0
  0
LINE
  5
33F
  8
0
  6
CONTINUOUS
 62
   253
 10
145.6498647480788
 20
506.0336996021604
 30
0.0
 11
145.623350433754
 21
506.1085019862102
 31
0.0
  0
LINE
  5
340
  8
0
  6
CONTINUOUS
 62
   253
 10
145.623350433754
 20
506.1085019862102
 30
0.0
 11
145.5902683798268
 21
506.1899153086798
 31
0.0
  0
LINE
  5
341
  8
0
  6
CONTINUOUS
 62
   253
 10
145.5902683798268
 20
506.1899153086798
 30
0.0
 11
145.551826608287
 21
506.2749666863251
 31
0.0
  0
LINE
  5
342
  8
0
  6
CONTINUOUS
 62
   253
 10
149.5969183709744
 20
497.3441985520602
 30
0.0
 11
149.7135543105366
 21
497.1247318787093
 31
0.0
  0
LINE
  5
343
  8
0
  6
CONTINUOUS
 62
   253
 10
149.7135543105369
 20
497.1247318787097
 30
0.0
 11
149.6105263303565
 21
496.972023127372
 31
0.0
  0
LINE
  5
344
  8
0
  6
CONTINUOUS
 62
   253
 10
149.5969183709745
 20
497.3441985520603
 30
0.0
 11
149.5611851687551
 21
497.3623719705868
 31
0.0
  0
LINE
  5
345
  8
0
  6
CONTINUOUS
 62
   253
 10
149.5611851687551
 20
497.3623719705868
 30
0.0
 11
149.5092813167936
 21
497.3799262983567
 31
0.0
  0
LINE
  5
346
  8
0
  6
CONTINUOUS
 62
   253
 10
149.5092813167936
 20
497.3799262983567
 30
0.0
 11
149.4431021325532
 21
497.396220522753
 31
0.0
  0
LINE
  5
347
  8
0
  6
CONTINUOUS
 62
   253
 10
149.4431021325532
 20
497.396220522753
 30
0.0
 11
149.3650642105418
 21
497.4106596450061
 31
0.0
  0
LINE
  5
348
  8
0
  6
CONTINUOUS
 62
   253
 10
149.3650642105418
 20
497.4106596450061
 30
0.0
 11
149.2780171781146
 21
497.4227164071281
 31
0.0
  0
LINE
  5
349
  8
0
  6
CONTINUOUS
 62
   253
 10
149.2780171781146
 20
497.4227164071281
 30
0.0
 11
149.1851396386786
 21
497.4319505452282
 31
0.0
  0
LINE
  5
34A
  8
0
  6
CONTINUOUS
 62
   253
 10
151.1115618958582
 20
513.5302812947576
 30
0.0
 11
150.8631802116719
 21
513.5390049447778
 31
0.0
  0
LINE
  5
34B
  8
0
  6
CONTINUOUS
 62
   253
 10
150.8631802116719
 20
513.5390049447778
 30
0.0
 11
150.7824445437233
 21
513.7045841685834
 31
0.0
  0
LINE
  5
34C
  8
0
  6
CONTINUOUS
 62
   253
 10
151.1115618958582
 20
513.5302812947577
 30
0.0
 11
151.1451671390855
 21
513.552140446375
 31
0.0
  0
LINE
  5
34D
  8
0
  6
CONTINUOUS
 62
   253
 10
151.1451671390855
 20
513.552140446375
 30
0.0
 11
151.1863215588613
 21
513.588313336843
 31
0.0
  0
LINE
  5
34E
  8
0
  6
CONTINUOUS
 62
   253
 10
151.1863215588613
 20
513.588313336843
 30
0.0
 11
151.2335223632437
 21
513.6374790793988
 31
0.0
  0
LINE
  5
34F
  8
0
  6
CONTINUOUS
 62
   253
 10
151.2335223632437
 20
513.6374790793988
 30
0.0
 11
151.285045970929
 21
513.6978423411925
 31
0.0
  0
LINE
  5
350
  8
0
  6
CONTINUOUS
 62
   253
 10
151.285045970929
 20
513.6978423411925
 30
0.0
 11
151.3390109494275
 21
513.7671989015377
 31
0.0
  0
LINE
  5
351
  8
0
  6
CONTINUOUS
 62
   253
 10
151.3390109494275
 20
513.7671989015377
 30
0.0
 11
151.3934467173222
 21
513.84301614108
 31
0.0
  0
LINE
  5
352
  8
0
  6
CONTINUOUS
 62
   253
 10
160.4566011244639
 20
512.6558014479388
 30
0.0
 11
160.4923343266865
 21
512.6376280294148
 31
0.0
  0
LINE
  5
353
  8
0
  6
CONTINUOUS
 62
   253
 10
160.4923343266865
 20
512.6376280294148
 30
0.0
 11
160.5442381786521
 21
512.6200737016461
 31
0.0
  0
LINE
  5
354
  8
0
  6
CONTINUOUS
 62
   253
 10
160.5442381786521
 20
512.6200737016461
 30
0.0
 11
160.6104173628971
 21
512.6037794772495
 31
0.0
  0
LINE
  5
355
  8
0
  6
CONTINUOUS
 62
   253
 10
160.6104173628971
 20
512.6037794772495
 30
0.0
 11
160.6884552849132
 21
512.5893403549948
 31
0.0
  0
LINE
  5
356
  8
0
  6
CONTINUOUS
 62
   253
 10
160.6884552849132
 20
512.5893403549948
 30
0.0
 11
160.7755023173449
 21
512.5772835928697
 31
0.0
  0
LINE
  5
357
  8
0
  6
CONTINUOUS
 62
   253
 10
160.7755023173449
 20
512.5772835928697
 30
0.0
 11
160.8683798567847
 21
512.5680494547655
 31
0.0
  0
LINE
  5
358
  8
0
  6
CONTINUOUS
 62
   253
 10
160.4566011244797
 20
512.6558014479332
 30
0.0
 11
160.3399651849182
 21
512.8752681212899
 31
0.0
  0
LINE
  5
359
  8
0
  6
CONTINUOUS
 62
   253
 10
160.4429931650985
 20
513.0279768726277
 30
0.0
 11
160.3399651849182
 21
512.8752681212899
 31
0.0
  0
LINE
  5
35A
  8
0
  6
CONTINUOUS
 62
   253
 10
164.3717989763477
 20
504.1255201531844
 30
0.0
 11
164.3739269353401
 21
504.0854875830399
 31
0.0
  0
LINE
  5
35B
  8
0
  6
CONTINUOUS
 62
   253
 10
164.3739269353401
 20
504.0854875830399
 30
0.0
 11
164.3846763675261
 21
504.0317603648016
 31
0.0
  0
LINE
  5
35C
  8
0
  6
CONTINUOUS
 62
   253
 10
164.3846763675261
 20
504.0317603648016
 30
0.0
 11
164.4036547473845
 21
503.9663003978491
 31
0.0
  0
LINE
  5
35D
  8
0
  6
CONTINUOUS
 62
   253
 10
164.4036547473845
 20
503.9663003978491
 30
0.0
 11
164.4301690617109
 21
503.8914980138016
 31
0.0
  0
LINE
  5
35E
  8
0
  6
CONTINUOUS
 62
   253
 10
164.4301690617109
 20
503.8914980138016
 30
0.0
 11
164.4632511156399
 21
503.8100846913342
 31
0.0
  0
LINE
  5
35F
  8
0
  6
CONTINUOUS
 62
   253
 10
164.4632511156399
 20
503.8100846913342
 30
0.0
 11
164.5016928871814
 21
503.7250333136917
 31
0.0
  0
LINE
  5
360
  8
0
  6
CONTINUOUS
 62
   253
 10
164.3717989763491
 20
504.125520153182
 30
0.0
 11
164.5035447209735
 21
504.336263176512
 31
0.0
  0
LINE
  5
361
  8
0
  6
CONTINUOUS
 62
   253
 10
164.6873083691024
 20
504.3233927040441
 30
0.0
 11
164.5035447209735
 21
504.336263176512
 31
0.0
  0
ARC
  5
362
  8
0
  6
CONTINUOUS
 62
     7
 10
155.0267597477273
 20
505.0
 30
0.0
 40
9.499999999999991
 50
175.9936498678506
 51
184.0063501321494
  0
ARC
  5
363
  8
0
  6
CONTINUOUS
 62
     7
 10
155.0267597477273
 20
505.0
 30
0.0
 40
9.499999999999996
 50
115.9936498678506
 51
124.0063501321494
  0
ARC
  5
364
  8
0
  6
CONTINUOUS
 62
     7
 10
155.0267597477273
 20
505.0
 30
0.0
 40
9.500000000000025
 50
55.99364986785055
 51
64.0063501321494
  0
ARC
  5
365
  8
0
  6
CONTINUOUS
 62
     7
 10
155.0267597477273
 20
505.0
 30
0.0
 40
9.499999999999991
 50
235.9936498678551
 51
244.0063501321494
  0
ARC
  5
366
  8
0
  6
CONTINUOUS
 62
     7
 10
155.0267597477273
 20
505.0
 30
0.0
 40
9.49999999999999
 50
295.9936498678553
 51
304.0063501321494
  0
ARC
  5
367
  8
0
  6
CONTINUOUS
 62
     7
 10
155.0267597477273
 20
505.0
 30
0.0
 40
9.500000000000009
 50
0.0
 51
4.006350132149407
  0
ARC
  5
368
  8
0
  6
CONTINUOUS
 62
     7
 10
155.0267597477273
 20
505.0
 30
0.0
 40
9.499999999999991
 50
355.9936498678506
 51
0.0
  0
LINE
  5
369
  8
0
  6
CONTINUOUS
 62
   253
 10
149.5969183709787
 20
512.6558014479369
 30
0.0
 11
149.6436349090274
 21
512.5463144212428
 31
0.0
  0
LINE
  5
36A
  8
0
  6
CONTINUOUS
 62
   253
 10
158.9419575995961
 20
513.5302812947526
 30
0.0
 11
158.8704973221184
 21
513.4350800726785
 31
0.0
  0
LINE
  5
36B
  8
0
  6
CONTINUOUS
 62
   253
 10
145.6817205191098
 20
504.1255201531843
 30
0.0
 11
145.7998973346363
 21
504.1112343485643
 31
0.0
  0
LINE
  5
36C
  8
0
  6
CONTINUOUS
 62
   253
 10
160.4566011244758
 20
497.3441985520629
 30
0.0
 11
160.4098845864271
 21
497.4536855787572
 31
0.0
  0
LINE
  5
36D
  8
0
  6
CONTINUOUS
 62
   253
 10
151.1115618958584
 20
496.4697187052474
 30
0.0
 11
151.1830221733361
 21
496.5649199273215
 31
0.0
  0
LINE
  5
36E
  8
0
  6
CONTINUOUS
 62
   253
 10
164.3717989763447
 20
505.8744798468155
 30
0.0
 11
164.2536221608183
 21
505.8887656514357
 31
0.0
  0
LINE
  5
36F
  8
0
  6
CONTINUOUS
 62
   253
 10
160.4098845864271
 20
512.5463144212428
 30
0.0
 11
160.4566011244797
 21
512.6558014479332
 31
0.0
  0
LINE
  5
370
  8
0
  6
CONTINUOUS
 62
   253
 10
145.7998973346363
 20
505.8887656514357
 30
0.0
 11
145.6817205191112
 21
505.8744798468209
 31
0.0
  0
LINE
  5
371
  8
0
  6
CONTINUOUS
 62
   253
 10
158.8704973221184
 20
496.5649199273215
 30
0.0
 11
158.9419575995909
 21
496.4697187052459
 31
0.0
  0
LINE
  5
372
  8
0
  6
CONTINUOUS
 62
   253
 10
151.1830221733361
 20
513.4350800726785
 30
0.0
 11
151.1115618958582
 21
513.5302812947576
 31
0.0
  0
LINE
  5
373
  8
0
  6
CONTINUOUS
 62
   253
 10
149.6436349090274
 20
497.4536855787572
 30
0.0
 11
149.5969183709744
 21
497.3441985520602
 31
0.0
  0
LINE
  5
374
  8
0
  6
CONTINUOUS
 62
   253
 10
164.2536221608183
 20
504.1112343485643
 30
0.0
 11
164.3717989763491
 21
504.125520153182
 31
0.0
  0
LINE
  5
375
  8
0
  6
CONTINUOUS
 62
     7
 10
159.7767597477273
 20
496.7727586640478
 30
0.0
 11
159.7765268215948
 21
496.7731621039458
 31
0.0
  0
LINE
  5
376
  8
0
  6
CONTINUOUS
 62
     7
 10
159.7765268215948
 20
496.7731621039458
 30
0.0
 11
159.7866201657704
 21
496.7800960902668
 31
0.0
  0
LINE
  5
377
  8
0
  6
CONTINUOUS
 62
     7
 10
159.7866201657704
 20
496.7800960902668
 30
0.0
 11
159.7964168927017
 21
496.7874722816554
 31
0.0
  0
LINE
  5
378
  8
0
  6
CONTINUOUS
 62
     7
 10
159.7964168927017
 20
496.7874722816554
 30
0.0
 11
159.8058891806801
 21
496.7952696845036
 31
0.0
  0
LINE
  5
379
  8
0
  6
CONTINUOUS
 62
     7
 10
159.8058891806801
 20
496.7952696845036
 30
0.0
 11
159.8150092079966
 21
496.8034673052038
 31
0.0
  0
LINE
  5
37A
  8
0
  6
CONTINUOUS
 62
     7
 10
159.8150092079966
 20
496.8034673052038
 30
0.0
 11
159.8237491529427
 21
496.812044150148
 31
0.0
  0
LINE
  5
37B
  8
0
  6
CONTINUOUS
 62
     7
 10
159.8237491529427
 20
496.812044150148
 30
0.0
 11
159.8317468382128
 21
496.8206008336574
 31
0.0
  0
LINE
  5
37C
  8
0
  6
CONTINUOUS
 62
     7
 10
159.8317468382128
 20
496.8206008336574
 30
0.0
 11
159.8393833334146
 21
496.8294952347221
 31
0.0
  0
LINE
  5
37D
  8
0
  6
CONTINUOUS
 62
     7
 10
159.8393833334146
 20
496.8294952347221
 30
0.0
 11
159.8466364935045
 21
496.8387046431005
 31
0.0
  0
LINE
  5
37E
  8
0
  6
CONTINUOUS
 62
     7
 10
159.8466364935045
 20
496.8387046431005
 30
0.0
 11
159.8534841734389
 21
496.8482063485512
 31
0.0
  0
LINE
  5
37F
  8
0
  6
CONTINUOUS
 62
     7
 10
159.8534841734389
 20
496.8482063485512
 30
0.0
 11
159.8601086217146
 21
496.8583016168145
 31
0.0
  0
LINE
  5
380
  8
0
  6
CONTINUOUS
 62
     7
 10
159.8601086217146
 20
496.8583016168145
 30
0.0
 11
159.8662831032622
 21
496.8686923175649
 31
0.0
  0
LINE
  5
381
  8
0
  6
CONTINUOUS
 62
     7
 10
159.8662831032622
 20
496.8686923175649
 30
0.0
 11
159.8719861750516
 21
496.8793486678922
 31
0.0
  0
LINE
  5
382
  8
0
  6
CONTINUOUS
 62
     7
 10
159.8719861750516
 20
496.8793486678922
 30
0.0
 11
159.8771963940525
 21
496.8902408848863
 31
0.0
  0
LINE
  5
383
  8
0
  6
CONTINUOUS
 62
     7
 10
159.8771963940525
 20
496.8902408848863
 30
0.0
 11
159.8816263669232
 21
496.9006657121438
 31
0.0
  0
LINE
  5
384
  8
0
  6
CONTINUOUS
 62
     7
 10
159.8816263669232
 20
496.9006657121438
 30
0.0
 11
159.8856068303918
 21
496.9112816966524
 31
0.0
  0
LINE
  5
385
  8
0
  6
CONTINUOUS
 62
     7
 10
159.8856068303918
 20
496.9112816966524
 30
0.0
 11
159.8891234768173
 21
496.9220598830889
 31
0.0
  0
LINE
  5
386
  8
0
  6
CONTINUOUS
 62
     7
 10
159.8891234768173
 20
496.9220598830889
 30
0.0
 11
159.8921619985587
 21
496.9329713161304
 31
0.0
  0
LINE
  5
387
  8
0
  6
CONTINUOUS
 62
     7
 10
159.8921619985587
 20
496.9329713161304
 30
0.0
 11
159.8947890360116
 21
496.9443701909154
 31
0.0
  0
LINE
  5
388
  8
0
  6
CONTINUOUS
 62
     7
 10
159.8947890360116
 20
496.9443701909154
 30
0.0
 11
159.896891568002
 21
496.955890109212
 31
0.0
  0
LINE
  5
389
  8
0
  6
CONTINUOUS
 62
     7
 10
159.896891568002
 20
496.955890109212
 30
0.0
 11
159.8984592663153
 21
496.9674945285566
 31
0.0
  0
LINE
  5
38A
  8
0
  6
CONTINUOUS
 62
     7
 10
159.8984592663153
 20
496.9674945285566
 30
0.0
 11
159.8994818027365
 21
496.979146906486
 31
0.0
  0
LINE
  5
38B
  8
0
  6
CONTINUOUS
 62
     7
 10
159.8994818027365
 20
496.979146906486
 30
0.0
 11
159.8999324579165
 21
496.9897967741667
 31
0.0
  0
LINE
  5
38C
  8
0
  6
CONTINUOUS
 62
     7
 10
159.8999324579165
 20
496.9897967741667
 30
0.0
 11
159.8999222109484
 21
497.000466248397
 31
0.0
  0
LINE
  5
38D
  8
0
  6
CONTINUOUS
 62
     7
 10
159.8999222109484
 20
497.000466248397
 30
0.0
 11
159.8994487074546
 21
497.0111249717702
 31
0.0
  0
LINE
  5
38E
  8
0
  6
CONTINUOUS
 62
     7
 10
159.8994487074546
 20
497.0111249717702
 30
0.0
 11
159.8985095930576
 21
497.0217425868797
 31
0.0
  0
LINE
  5
38F
  8
0
  6
CONTINUOUS
 62
     7
 10
159.8985095930576
 20
497.0217425868797
 30
0.0
 11
159.897047210467
 21
497.0326523489375
 31
0.0
  0
LINE
  5
390
  8
0
  6
CONTINUOUS
 62
     7
 10
159.897047210467
 20
497.0326523489375
 30
0.0
 11
159.8950849000614
 21
497.0434951943019
 31
0.0
  0
LINE
  5
391
  8
0
  6
CONTINUOUS
 62
     7
 10
159.8950849000614
 20
497.0434951943019
 30
0.0
 11
159.8926272571346
 21
497.0542363930736
 31
0.0
  0
LINE
  5
392
  8
0
  6
CONTINUOUS
 62
     7
 10
159.8926272571346
 20
497.0542363930736
 30
0.0
 11
159.8896788769804
 21
497.0648412153529
 31
0.0
  0
LINE
  5
393
  8
0
  6
CONTINUOUS
 62
     7
 10
159.8896788769804
 20
497.0648412153529
 30
0.0
 11
159.8863118033486
 21
497.0750885375116
 31
0.0
  0
LINE
  5
394
  8
0
  6
CONTINUOUS
 62
     7
 10
159.8863118033486
 20
497.0750885375116
 30
0.0
 11
159.8824737276604
 21
497.0851871102775
 31
0.0
  0
LINE
  5
395
  8
0
  6
CONTINUOUS
 62
     7
 10
159.8824737276604
 20
497.0851871102775
 30
0.0
 11
159.8781772966023
 21
497.0951054660225
 31
0.0
  0
LINE
  5
396
  8
0
  6
CONTINUOUS
 62
     7
 10
159.8781772966023
 20
497.0951054660225
 30
0.0
 11
159.8734351568613
 21
497.1048121371186
 31
0.0
  0
LINE
  5
397
  8
0
  6
CONTINUOUS
 62
     7
 10
159.8734351568613
 20
497.1048121371186
 30
0.0
 11
159.868259955122
 21
497.114275655937
 31
0.0
  0
LINE
  5
398
  8
0
  6
CONTINUOUS
 62
     7
 10
145.5267597477273
 20
505.0
 30
0.0
 11
145.527225599994
 21
504.999999999999
 31
0.0
  0
LINE
  5
399
  8
0
  6
CONTINUOUS
 62
     7
 10
145.527225599994
 20
504.999999999999
 30
0.0
 11
145.5281839362097
 21
504.9877919143731
 31
0.0
  0
LINE
  5
39A
  8
0
  6
CONTINUOUS
 62
     7
 10
145.5281839362097
 20
504.9877919143731
 30
0.0
 11
145.5296735418697
 21
504.9756196042825
 31
0.0
  0
LINE
  5
39B
  8
0
  6
CONTINUOUS
 62
     7
 10
145.5296735418697
 20
504.9756196042825
 30
0.0
 11
145.5316901468307
 21
504.9635176608371
 31
0.0
  0
LINE
  5
39C
  8
0
  6
CONTINUOUS
 62
     7
 10
145.5316901468307
 20
504.9635176608371
 30
0.0
 11
145.5342294809493
 21
504.9515206751477
 31
0.0
  0
LINE
  5
39D
  8
0
  6
CONTINUOUS
 62
     7
 10
145.5342294809493
 20
504.9515206751477
 30
0.0
 11
145.5372872740823
 21
504.9396632383246
 31
0.0
  0
LINE
  5
39E
  8
0
  6
CONTINUOUS
 62
     7
 10
145.5372872740823
 20
504.9396632383246
 30
0.0
 11
145.5406987367386
 21
504.9284586979546
 31
0.0
  0
LINE
  5
39F
  8
0
  6
CONTINUOUS
 62
     7
 10
145.5406987367386
 20
504.9284586979546
 30
0.0
 11
145.5445832664111
 21
504.9173980985816
 31
0.0
  0
LINE
  5
3A0
  8
0
  6
CONTINUOUS
 62
     7
 10
145.5445832664111
 20
504.9173980985816
 30
0.0
 11
145.5489322679757
 21
504.9065119734968
 31
0.0
  0
LINE
  5
3A1
  8
0
  6
CONTINUOUS
 62
     7
 10
145.5489322679757
 20
504.9065119734968
 30
0.0
 11
145.553737146308
 21
504.8958308559912
 31
0.0
  0
LINE
  5
3A2
  8
0
  6
CONTINUOUS
 62
     7
 10
145.553737146308
 20
504.8958308559912
 30
0.0
 11
145.5591676809443
 21
504.8850462813668
 31
0.0
  0
LINE
  5
3A3
  8
0
  6
CONTINUOUS
 62
     7
 10
145.5591676809443
 20
504.8850462813668
 30
0.0
 11
145.5650790509834
 21
504.8745036731161
 31
0.0
  0
LINE
  5
3A4
  8
0
  6
CONTINUOUS
 62
     7
 10
145.5650790509834
 20
504.8745036731161
 30
0.0
 11
145.5714561851838
 21
504.8642364929032
 31
0.0
  0
LINE
  5
3A5
  8
0
  6
CONTINUOUS
 62
     7
 10
145.5714561851838
 20
504.8642364929032
 30
0.0
 11
145.5782840123038
 21
504.8542782023923
 31
0.0
  0
LINE
  5
3A6
  8
0
  6
CONTINUOUS
 62
     7
 10
145.5782840123038
 20
504.8542782023923
 30
0.0
 11
145.5850971911035
 21
504.8452293197193
 31
0.0
  0
LINE
  5
3A7
  8
0
  6
CONTINUOUS
 62
     7
 10
145.5850971911035
 20
504.8452293197193
 30
0.0
 11
145.5923006716397
 21
504.8364741449823
 31
0.0
  0
LINE
  5
3A8
  8
0
  6
CONTINUOUS
 62
     7
 10
145.5923006716397
 20
504.8364741449823
 30
0.0
 11
145.5998765316878
 21
504.8280395466235
 31
0.0
  0
LINE
  5
3A9
  8
0
  6
CONTINUOUS
 62
     7
 10
145.5998765316878
 20
504.8280395466235
 30
0.0
 11
145.6078068490227
 21
504.819952393085
 31
0.0
  0
LINE
  5
3AA
  8
0
  6
CONTINUOUS
 62
     7
 10
145.6078068490227
 20
504.819952393085
 30
0.0
 11
145.6163650454347
 21
504.8119778745212
 31
0.0
  0
LINE
  5
3AB
  8
0
  6
CONTINUOUS
 62
     7
 10
145.6163650454347
 20
504.8119778745212
 30
0.0
 11
145.6252903213338
 21
504.8043970692569
 31
0.0
  0
LINE
  5
3AC
  8
0
  6
CONTINUOUS
 62
     7
 10
145.6252903213338
 20
504.8043970692569
 30
0.0
 11
145.6345561941258
 21
504.7972371930201
 31
0.0
  0
LINE
  5
3AD
  8
0
  6
CONTINUOUS
 62
     7
 10
145.6345561941258
 20
504.7972371930201
 30
0.0
 11
145.6441361812165
 21
504.7905254615382
 31
0.0
  0
LINE
  5
3AE
  8
0
  6
CONTINUOUS
 62
     7
 10
145.6441361812165
 20
504.7905254615382
 30
0.0
 11
145.6531339095849
 21
504.7848102488637
 31
0.0
  0
LINE
  5
3AF
  8
0
  6
CONTINUOUS
 62
     7
 10
145.6531339095849
 20
504.7848102488637
 30
0.0
 11
145.6623790687975
 21
504.7794843858833
 31
0.0
  0
LINE
  5
3B0
  8
0
  6
CONTINUOUS
 62
     7
 10
145.6623790687975
 20
504.7794843858833
 30
0.0
 11
145.6718465457575
 21
504.7745650902511
 31
0.0
  0
LINE
  5
3B1
  8
0
  6
CONTINUOUS
 62
     7
 10
145.6718465457575
 20
504.7745650902511
 30
0.0
 11
145.6815112273684
 21
504.7700695796211
 31
0.0
  0
LINE
  5
3B2
  8
0
  6
CONTINUOUS
 62
     7
 10
145.6815112273684
 20
504.7700695796211
 30
0.0
 11
145.6916905497549
 21
504.7658811590657
 31
0.0
  0
LINE
  5
3B3
  8
0
  6
CONTINUOUS
 62
     7
 10
145.6916905497549
 20
504.7658811590657
 30
0.0
 11
145.7020618844927
 21
504.7621591470449
 31
0.0
  0
LINE
  5
3B4
  8
0
  6
CONTINUOUS
 62
     7
 10
145.7020618844927
 20
504.7621591470449
 30
0.0
 11
145.7125928569594
 21
504.7589169288671
 31
0.0
  0
LINE
  5
3B5
  8
0
  6
CONTINUOUS
 62
     7
 10
145.7125928569594
 20
504.7589169288671
 30
0.0
 11
145.723251092533
 21
504.756167889841
 31
0.0
  0
LINE
  5
3B6
  8
0
  6
CONTINUOUS
 62
     7
 10
145.723251092533
 20
504.756167889841
 30
0.0
 11
145.7338090706591
 21
504.7539602000633
 31
0.0
  0
LINE
  5
3B7
  8
0
  6
CONTINUOUS
 62
     7
 10
145.7338090706591
 20
504.7539602000633
 30
0.0
 11
145.7444737290605
 21
504.752234784728
 31
0.0
  0
LINE
  5
3B8
  8
0
  6
CONTINUOUS
 62
     7
 10
145.7444737290605
 20
504.752234784728
 30
0.0
 11
145.7552114926285
 21
504.7509964252973
 31
0.0
  0
LINE
  5
3B9
  8
0
  6
CONTINUOUS
 62
     7
 10
145.7552114926285
 20
504.7509964252973
 30
0.0
 11
145.7659887862544
 21
504.7502499032332
 31
0.0
  0
LINE
  5
3BA
  8
0
  6
CONTINUOUS
 62
     7
 10
145.7659887862544
 20
504.7502499032332
 30
0.0
 11
145.77677203483
 21
504.75
 31
0.0
  0
LINE
  5
3BB
  8
0
  6
CONTINUOUS
 62
     7
 10
159.7767597477273
 20
513.2272413359522
 30
0.0
 11
159.776526821593
 21
513.2268378960553
 31
0.0
  0
LINE
  5
3BC
  8
0
  6
CONTINUOUS
 62
     7
 10
159.776526821593
 20
513.2268378960553
 30
0.0
 11
159.7654751412017
 21
513.23211199536
 31
0.0
  0
LINE
  5
3BD
  8
0
  6
CONTINUOUS
 62
     7
 10
159.7654751412017
 20
513.23211199536
 30
0.0
 11
159.7541888086103
 21
513.2369081140622
 31
0.0
  0
LINE
  5
3BE
  8
0
  6
CONTINUOUS
 62
     7
 10
159.7541888086103
 20
513.2369081140622
 30
0.0
 11
159.742699915671
 21
513.2412126546593
 31
0.0
  0
LINE
  5
3BF
  8
0
  6
CONTINUOUS
 62
     7
 10
159.742699915671
 20
513.2412126546593
 30
0.0
 11
159.7310405542358
 21
513.2450120196486
 31
0.0
  0
LINE
  5
3C0
  8
0
  6
CONTINUOUS
 62
     7
 10
159.7310405542358
 20
513.2450120196486
 30
0.0
 11
159.7192428161568
 21
513.2482926115274
 31
0.0
  0
LINE
  5
3C1
  8
0
  6
CONTINUOUS
 62
     7
 10
159.7192428161568
 20
513.2482926115274
 30
0.0
 11
159.7078336682304
 21
513.2509404683881
 31
0.0
  0
LINE
  5
3C2
  8
0
  6
CONTINUOUS
 62
     7
 10
159.7078336682304
 20
513.2509404683881
 30
0.0
 11
159.6963126433561
 21
513.2531066666963
 31
0.0
  0
LINE
  5
3C3
  8
0
  6
CONTINUOUS
 62
     7
 10
159.6963126433561
 20
513.2531066666963
 30
0.0
 11
159.6847104817016
 21
513.2547833834027
 31
0.0
  0
LINE
  5
3C4
  8
0
  6
CONTINUOUS
 62
     7
 10
159.6847104817016
 20
513.2547833834027
 30
0.0
 11
159.6730579234348
 21
513.2559627954575
 31
0.0
  0
LINE
  5
3C5
  8
0
  6
CONTINUOUS
 62
     7
 10
159.6730579234348
 20
513.2559627954575
 30
0.0
 11
159.6610029405229
 21
513.2566521018186
 31
0.0
  0
LINE
  5
3C6
  8
0
  6
CONTINUOUS
 62
     7
 10
159.6610029405229
 20
513.2566521018186
 30
0.0
 11
159.6489170889361
 21
513.2568040093189
 31
0.0
  0
LINE
  5
3C7
  8
0
  6
CONTINUOUS
 62
     7
 10
159.6489170889361
 20
513.2568040093189
 30
0.0
 11
159.6368368829463
 21
513.2564148392045
 31
0.0
  0
LINE
  5
3C8
  8
0
  6
CONTINUOUS
 62
     7
 10
159.6368368829463
 20
513.2564148392045
 30
0.0
 11
159.6247988368254
 21
513.2554809127215
 31
0.0
  0
LINE
  5
3C9
  8
0
  6
CONTINUOUS
 62
     7
 10
159.6247988368254
 20
513.2554809127215
 30
0.0
 11
159.6135556851551
 21
513.254104968137
 31
0.0
  0
LINE
  5
3CA
  8
0
  6
CONTINUOUS
 62
     7
 10
159.6135556851551
 20
513.254104968137
 30
0.0
 11
159.6023717411502
 21
513.2522441583652
 31
0.0
  0
LINE
  5
3CB
  8
0
  6
CONTINUOUS
 62
     7
 10
159.6023717411502
 20
513.2522441583652
 30
0.0
 11
159.5912792346766
 21
513.2499005702875
 31
0.0
  0
LINE
  5
3CC
  8
0
  6
CONTINUOUS
 62
     7
 10
159.5912792346766
 20
513.2499005702875
 30
0.0
 11
159.5803103956003
 21
513.2470762907848
 31
0.0
  0
LINE
  5
3CD
  8
0
  6
CONTINUOUS
 62
     7
 10
159.5803103956003
 20
513.2470762907848
 30
0.0
 11
159.5691251617355
 21
513.2436519345632
 31
0.0
  0
LINE
  5
3CE
  8
0
  6
CONTINUOUS
 62
     7
 10
159.5691251617355
 20
513.2436519345632
 30
0.0
 11
159.5580973538459
 21
513.2397128215309
 31
0.0
  0
LINE
  5
3CF
  8
0
  6
CONTINUOUS
 62
     7
 10
159.5580973538459
 20
513.2397128215309
 30
0.0
 11
159.5472637827406
 21
513.2352682784234
 31
0.0
  0
LINE
  5
3D0
  8
0
  6
CONTINUOUS
 62
     7
 10
159.5472637827406
 20
513.2352682784234
 30
0.0
 11
159.5366612592287
 21
513.2303276319757
 31
0.0
  0
LINE
  5
3D1
  8
0
  6
CONTINUOUS
 62
     7
 10
159.5366612592287
 20
513.2303276319757
 30
0.0
 11
159.5272128756803
 21
513.2253929769697
 31
0.0
  0
LINE
  5
3D2
  8
0
  6
CONTINUOUS
 62
     7
 10
159.5272128756803
 20
513.2253929769697
 30
0.0
 11
159.5179779634359
 21
513.2200493657198
 31
0.0
  0
LINE
  5
3D3
  8
0
  6
CONTINUOUS
 62
     7
 10
159.5179779634359
 20
513.2200493657198
 30
0.0
 11
159.5089839899697
 21
513.2143099379787
 31
0.0
  0
LINE
  5
3D4
  8
0
  6
CONTINUOUS
 62
     7
 10
159.5089839899697
 20
513.2143099379787
 30
0.0
 11
159.5002584227557
 21
513.2081878334992
 31
0.0
  0
LINE
  5
3D5
  8
0
  6
CONTINUOUS
 62
     7
 10
159.5002584227557
 20
513.2081878334992
 30
0.0
 11
159.4915414829598
 21
513.2014664919968
 31
0.0
  0
LINE
  5
3D6
  8
0
  6
CONTINUOUS
 62
     7
 10
159.4915414829598
 20
513.2014664919968
 30
0.0
 11
159.4831324586277
 21
513.1943456586532
 31
0.0
  0
LINE
  5
3D7
  8
0
  6
CONTINUOUS
 62
     7
 10
159.4831324586277
 20
513.1943456586532
 30
0.0
 11
159.4750591290877
 21
513.1868466780593
 31
0.0
  0
LINE
  5
3D8
  8
0
  6
CONTINUOUS
 62
     7
 10
159.4750591290877
 20
513.1868466780593
 30
0.0
 11
159.4673492736682
 21
513.1789908948061
 31
0.0
  0
LINE
  5
3D9
  8
0
  6
CONTINUOUS
 62
     7
 10
159.4673492736682
 20
513.1789908948061
 30
0.0
 11
159.460158369174
 21
513.1709512624252
 31
0.0
  0
LINE
  5
3DA
  8
0
  6
CONTINUOUS
 62
     7
 10
159.460158369174
 20
513.1709512624252
 30
0.0
 11
159.4533317864609
 21
513.1625781049945
 31
0.0
  0
LINE
  5
3DB
  8
0
  6
CONTINUOUS
 62
     7
 10
159.4533317864609
 20
513.1625781049945
 30
0.0
 11
159.4468904539509
 21
513.1538981086802
 31
0.0
  0
LINE
  5
3DC
  8
0
  6
CONTINUOUS
 62
     7
 10
159.4468904539509
 20
513.1538981086802
 30
0.0
 11
159.4408553000661
 21
513.1449379596481
 31
0.0
  0
LINE
  5
3DD
  8
0
  6
CONTINUOUS
 62
     7
 10
159.4408553000661
 20
513.1449379596481
 30
0.0
 11
159.4352472532298
 21
513.135724344063
 31
0.0
  0
LINE
  5
3DE
  8
0
  6
CONTINUOUS
 62
     7
 10
150.2767597477273
 20
513.2272413359522
 30
0.0
 11
150.2769926738597
 21
513.2268378960541
 31
0.0
  0
LINE
  5
3DF
  8
0
  6
CONTINUOUS
 62
     7
 10
150.2769926738597
 20
513.2268378960541
 30
0.0
 11
150.2668993296841
 21
513.2199039097333
 31
0.0
  0
LINE
  5
3E0
  8
0
  6
CONTINUOUS
 62
     7
 10
150.2668993296841
 20
513.2199039097333
 30
0.0
 11
150.2571026027528
 21
513.2125277183446
 31
0.0
  0
LINE
  5
3E1
  8
0
  6
CONTINUOUS
 62
     7
 10
150.2571026027528
 20
513.2125277183446
 30
0.0
 11
150.2476303147744
 21
513.2047303154964
 31
0.0
  0
LINE
  5
3E2
  8
0
  6
CONTINUOUS
 62
     7
 10
150.2476303147744
 20
513.2047303154964
 30
0.0
 11
150.2385102874579
 21
513.1965326947961
 31
0.0
  0
LINE
  5
3E3
  8
0
  6
CONTINUOUS
 62
     7
 10
150.2385102874579
 20
513.1965326947961
 30
0.0
 11
150.2297703425118
 21
513.187955849852
 31
0.0
  0
LINE
  5
3E4
  8
0
  6
CONTINUOUS
 62
     7
 10
150.2297703425118
 20
513.187955849852
 30
0.0
 11
150.2217726572417
 21
513.1793991663426
 31
0.0
  0
LINE
  5
3E5
  8
0
  6
CONTINUOUS
 62
     7
 10
150.2217726572417
 20
513.1793991663426
 30
0.0
 11
150.2141361620399
 21
513.1705047652779
 31
0.0
  0
LINE
  5
3E6
  8
0
  6
CONTINUOUS
 62
     7
 10
150.2141361620399
 20
513.1705047652779
 30
0.0
 11
150.20688300195
 21
513.1612953568995
 31
0.0
  0
LINE
  5
3E7
  8
0
  6
CONTINUOUS
 62
     7
 10
150.20688300195
 20
513.1612953568995
 30
0.0
 11
150.2000353220156
 21
513.1517936514488
 31
0.0
  0
LINE
  5
3E8
  8
0
  6
CONTINUOUS
 62
     7
 10
150.2000353220156
 20
513.1517936514488
 30
0.0
 11
150.1934108737399
 21
513.1416983831855
 31
0.0
  0
LINE
  5
3E9
  8
0
  6
CONTINUOUS
 62
     7
 10
150.1934108737399
 20
513.1416983831855
 30
0.0
 11
150.1872363921923
 21
513.131307682435
 31
0.0
  0
LINE
  5
3EA
  8
0
  6
CONTINUOUS
 62
     7
 10
150.1872363921923
 20
513.131307682435
 30
0.0
 11
150.1815333204029
 21
513.1206513321079
 31
0.0
  0
LINE
  5
3EB
  8
0
  6
CONTINUOUS
 62
     7
 10
150.1815333204029
 20
513.1206513321079
 30
0.0
 11
150.176323101402
 21
513.1097591151137
 31
0.0
  0
LINE
  5
3EC
  8
0
  6
CONTINUOUS
 62
     7
 10
150.176323101402
 20
513.1097591151137
 30
0.0
 11
150.1718931285313
 21
513.0993342878562
 31
0.0
  0
LINE
  5
3ED
  8
0
  6
CONTINUOUS
 62
     7
 10
150.1718931285313
 20
513.0993342878562
 30
0.0
 11
150.1679126650627
 21
513.0887183033476
 31
0.0
  0
LINE
  5
3EE
  8
0
  6
CONTINUOUS
 62
     7
 10
150.1679126650627
 20
513.0887183033476
 30
0.0
 11
150.1643960186372
 21
513.077940116911
 31
0.0
  0
LINE
  5
3EF
  8
0
  6
CONTINUOUS
 62
     7
 10
150.1643960186372
 20
513.077940116911
 30
0.0
 11
150.1613574968958
 21
513.0670286838697
 31
0.0
  0
LINE
  5
3F0
  8
0
  6
CONTINUOUS
 62
     7
 10
150.1613574968958
 20
513.0670286838697
 30
0.0
 11
150.1587304594429
 21
513.0556298090846
 31
0.0
  0
LINE
  5
3F1
  8
0
  6
CONTINUOUS
 62
     7
 10
150.1587304594429
 20
513.0556298090846
 30
0.0
 11
150.1566279274525
 21
513.0441098907879
 31
0.0
  0
LINE
  5
3F2
  8
0
  6
CONTINUOUS
 62
     7
 10
150.1566279274525
 20
513.0441098907879
 30
0.0
 11
150.1550602291392
 21
513.0325054714433
 31
0.0
  0
LINE
  5
3F3
  8
0
  6
CONTINUOUS
 62
     7
 10
150.1550602291392
 20
513.0325054714433
 30
0.0
 11
150.154037692718
 21
513.020853093514
 31
0.0
  0
LINE
  5
3F4
  8
0
  6
CONTINUOUS
 62
     7
 10
150.154037692718
 20
513.020853093514
 30
0.0
 11
150.153587037538
 21
513.0102032258334
 31
0.0
  0
LINE
  5
3F5
  8
0
  6
CONTINUOUS
 62
     7
 10
150.153587037538
 20
513.0102032258334
 30
0.0
 11
150.1535972845061
 21
512.999533751603
 31
0.0
  0
LINE
  5
3F6
  8
0
  6
CONTINUOUS
 62
     7
 10
150.1535972845061
 20
512.999533751603
 30
0.0
 11
150.1540707879999
 21
512.9888750282297
 31
0.0
  0
LINE
  5
3F7
  8
0
  6
CONTINUOUS
 62
     7
 10
150.1540707879999
 20
512.9888750282297
 30
0.0
 11
150.1550099023968
 21
512.9782574131203
 31
0.0
  0
LINE
  5
3F8
  8
0
  6
CONTINUOUS
 62
     7
 10
150.1550099023968
 20
512.9782574131203
 30
0.0
 11
150.1564722849875
 21
512.9673476510626
 31
0.0
  0
LINE
  5
3F9
  8
0
  6
CONTINUOUS
 62
     7
 10
150.1564722849875
 20
512.9673476510626
 30
0.0
 11
150.1584345953931
 21
512.956504805698
 31
0.0
  0
LINE
  5
3FA
  8
0
  6
CONTINUOUS
 62
     7
 10
150.1584345953931
 20
512.956504805698
 30
0.0
 11
150.1608922383199
 21
512.9457636069264
 31
0.0
  0
LINE
  5
3FB
  8
0
  6
CONTINUOUS
 62
     7
 10
150.1608922383199
 20
512.9457636069264
 30
0.0
 11
150.1638406184741
 21
512.935158784647
 31
0.0
  0
LINE
  5
3FC
  8
0
  6
CONTINUOUS
 62
     7
 10
150.1638406184741
 20
512.935158784647
 30
0.0
 11
150.1672076921059
 21
512.9249114624884
 31
0.0
  0
LINE
  5
3FD
  8
0
  6
CONTINUOUS
 62
     7
 10
150.1672076921059
 20
512.9249114624884
 30
0.0
 11
150.1710457677941
 21
512.9148128897225
 31
0.0
  0
LINE
  5
3FE
  8
0
  6
CONTINUOUS
 62
     7
 10
150.1710457677941
 20
512.9148128897225
 30
0.0
 11
150.1753421988521
 21
512.9048945339774
 31
0.0
  0
LINE
  5
3FF
  8
0
  6
CONTINUOUS
 62
     7
 10
150.1753421988521
 20
512.9048945339774
 30
0.0
 11
150.1800843385932
 21
512.8951878628814
 31
0.0
  0
LINE
  5
400
  8
0
  6
CONTINUOUS
 62
     7
 10
150.1800843385932
 20
512.8951878628814
 30
0.0
 11
150.1852595403325
 21
512.885724344063
 31
0.0
  0
LINE
  5
401
  8
0
  6
CONTINUOUS
 62
     7
 10
164.5267597477273
 20
505.0
 30
0.0
 11
164.5262938954605
 21
505.000000000001
 31
0.0
  0
LINE
  5
402
  8
0
  6
CONTINUOUS
 62
     7
 10
164.5262938954605
 20
505.000000000001
 30
0.0
 11
164.5253355592448
 21
505.0122080856269
 31
0.0
  0
LINE
  5
403
  8
0
  6
CONTINUOUS
 62
     7
 10
164.5253355592448
 20
505.0122080856269
 30
0.0
 11
164.5238459535848
 21
505.0243803957175
 31
0.0
  0
LINE
  5
404
  8
0
  6
CONTINUOUS
 62
     7
 10
164.5238459535848
 20
505.0243803957175
 30
0.0
 11
164.5218293486238
 21
505.0364823391629
 31
0.0
  0
LINE
  5
405
  8
0
  6
CONTINUOUS
 62
     7
 10
164.5218293486238
 20
505.0364823391629
 30
0.0
 11
164.5192900145052
 21
505.0484793248523
 31
0.0
  0
LINE
  5
406
  8
0
  6
CONTINUOUS
 62
     7
 10
164.5192900145052
 20
505.0484793248523
 30
0.0
 11
164.5162322213722
 21
505.0603367616754
 31
0.0
  0
LINE
  5
407
  8
0
  6
CONTINUOUS
 62
     7
 10
164.5162322213722
 20
505.0603367616754
 30
0.0
 11
164.5128207587159
 21
505.0715413020453
 31
0.0
  0
LINE
  5
408
  8
0
  6
CONTINUOUS
 62
     7
 10
164.5128207587159
 20
505.0715413020453
 30
0.0
 11
164.5089362290434
 21
505.0826019014184
 31
0.0
  0
LINE
  5
409
  8
0
  6
CONTINUOUS
 62
     7
 10
164.5089362290434
 20
505.0826019014184
 30
0.0
 11
164.5045872274788
 21
505.0934880265032
 31
0.0
  0
LINE
  5
40A
  8
0
  6
CONTINUOUS
 62
     7
 10
164.5045872274788
 20
505.0934880265032
 30
0.0
 11
164.4997823491465
 21
505.1041691440088
 31
0.0
  0
LINE
  5
40B
  8
0
  6
CONTINUOUS
 62
     7
 10
164.4997823491465
 20
505.1041691440088
 30
0.0
 11
164.4943518145102
 21
505.1149537186332
 31
0.0
  0
LINE
  5
40C
  8
0
  6
CONTINUOUS
 62
     7
 10
164.4943518145102
 20
505.1149537186332
 30
0.0
 11
164.4884404444711
 21
505.1254963268839
 31
0.0
  0
LINE
  5
40D
  8
0
  6
CONTINUOUS
 62
     7
 10
164.4884404444711
 20
505.1254963268839
 30
0.0
 11
164.4820633102707
 21
505.1357635070968
 31
0.0
  0
LINE
  5
40E
  8
0
  6
CONTINUOUS
 62
     7
 10
164.4820633102707
 20
505.1357635070968
 30
0.0
 11
164.4752354831507
 21
505.1457217976077
 31
0.0
  0
LINE
  5
40F
  8
0
  6
CONTINUOUS
 62
     7
 10
164.4752354831507
 20
505.1457217976077
 30
0.0
 11
164.4684223043511
 21
505.1547706802807
 31
0.0
  0
LINE
  5
410
  8
0
  6
CONTINUOUS
 62
     7
 10
164.4684223043511
 20
505.1547706802807
 30
0.0
 11
164.4612188238147
 21
505.1635258550178
 31
0.0
  0
LINE
  5
411
  8
0
  6
CONTINUOUS
 62
     7
 10
164.4612188238147
 20
505.1635258550178
 30
0.0
 11
164.4536429637667
 21
505.1719604533765
 31
0.0
  0
LINE
  5
412
  8
0
  6
CONTINUOUS
 62
     7
 10
164.4536429637667
 20
505.1719604533765
 30
0.0
 11
164.4457126464318
 21
505.180047606915
 31
0.0
  0
LINE
  5
413
  8
0
  6
CONTINUOUS
 62
     7
 10
164.4457126464318
 20
505.180047606915
 30
0.0
 11
164.4371544500198
 21
505.1880221254788
 31
0.0
  0
LINE
  5
414
  8
0
  6
CONTINUOUS
 62
     7
 10
164.4371544500198
 20
505.1880221254788
 30
0.0
 11
164.4282291741207
 21
505.1956029307431
 31
0.0
  0
LINE
  5
415
  8
0
  6
CONTINUOUS
 62
     7
 10
164.4282291741207
 20
505.1956029307431
 30
0.0
 11
164.4189633013287
 21
505.2027628069799
 31
0.0
  0
LINE
  5
416
  8
0
  6
CONTINUOUS
 62
     7
 10
164.4189633013287
 20
505.2027628069799
 30
0.0
 11
164.409383314238
 21
505.2094745384616
 31
0.0
  0
LINE
  5
417
  8
0
  6
CONTINUOUS
 62
     7
 10
164.409383314238
 20
505.2094745384616
 30
0.0
 11
164.4003855858696
 21
505.2151897511363
 31
0.0
  0
LINE
  5
418
  8
0
  6
CONTINUOUS
 62
     7
 10
164.4003855858696
 20
505.2151897511363
 30
0.0
 11
164.391140426657
 21
505.2205156141167
 31
0.0
  0
LINE
  5
419
  8
0
  6
CONTINUOUS
 62
     7
 10
164.391140426657
 20
505.2205156141167
 30
0.0
 11
164.381672949697
 21
505.2254349097489
 31
0.0
  0
LINE
  5
41A
  8
0
  6
CONTINUOUS
 62
     7
 10
164.381672949697
 20
505.2254349097489
 30
0.0
 11
164.3720082680861
 21
505.2299304203789
 31
0.0
  0
LINE
  5
41B
  8
0
  6
CONTINUOUS
 62
     7
 10
164.3720082680861
 20
505.2299304203789
 30
0.0
 11
164.3618289456996
 21
505.2341188409343
 31
0.0
  0
LINE
  5
41C
  8
0
  6
CONTINUOUS
 62
     7
 10
164.3618289456996
 20
505.2341188409343
 30
0.0
 11
164.3514576109618
 21
505.2378408529551
 31
0.0
  0
LINE
  5
41D
  8
0
  6
CONTINUOUS
 62
     7
 10
164.3514576109618
 20
505.2378408529551
 30
0.0
 11
164.3409266384951
 21
505.2410830711329
 31
0.0
  0
LINE
  5
41E
  8
0
  6
CONTINUOUS
 62
     7
 10
164.3409266384951
 20
505.2410830711329
 30
0.0
 11
164.3302684029214
 21
505.243832110159
 31
0.0
  0
LINE
  5
41F
  8
0
  6
CONTINUOUS
 62
     7
 10
164.3302684029214
 20
505.243832110159
 30
0.0
 11
164.3197104247954
 21
505.2460397999366
 31
0.0
  0
LINE
  5
420
  8
0
  6
CONTINUOUS
 62
     7
 10
164.3197104247954
 20
505.2460397999366
 30
0.0
 11
164.309045766394
 21
505.247765215272
 31
0.0
  0
LINE
  5
421
  8
0
  6
CONTINUOUS
 62
     7
 10
164.309045766394
 20
505.247765215272
 30
0.0
 11
164.298308002826
 21
505.2490035747027
 31
0.0
  0
LINE
  5
422
  8
0
  6
CONTINUOUS
 62
     7
 10
164.298308002826
 20
505.2490035747027
 30
0.0
 11
164.2875307092001
 21
505.2497500967668
 31
0.0
  0
LINE
  5
423
  8
0
  6
CONTINUOUS
 62
     7
 10
164.2875307092001
 20
505.2497500967668
 30
0.0
 11
164.2767474606245
 21
505.2499999999998
 31
0.0
  0
LINE
  5
424
  8
0
  6
CONTINUOUS
 62
     7
 10
150.2767597477273
 20
496.7727586640478
 30
0.0
 11
150.2769926738615
 21
496.7731621039447
 31
0.0
  0
LINE
  5
425
  8
0
  6
CONTINUOUS
 62
     7
 10
150.2769926738615
 20
496.7731621039447
 30
0.0
 11
150.2880443542528
 21
496.76788800464
 31
0.0
  0
LINE
  5
426
  8
0
  6
CONTINUOUS
 62
     7
 10
150.2880443542528
 20
496.76788800464
 30
0.0
 11
150.2993306868442
 21
496.7630918859378
 31
0.0
  0
LINE
  5
427
  8
0
  6
CONTINUOUS
 62
     7
 10
150.2993306868442
 20
496.7630918859378
 30
0.0
 11
150.3108195797835
 21
496.7587873453407
 31
0.0
  0
LINE
  5
428
  8
0
  6
CONTINUOUS
 62
     7
 10
150.3108195797835
 20
496.7587873453407
 30
0.0
 11
150.3224789412187
 21
496.7549879803515
 31
0.0
  0
LINE
  5
429
  8
0
  6
CONTINUOUS
 62
     7
 10
150.3224789412187
 20
496.7549879803515
 30
0.0
 11
150.3342766792977
 21
496.7517073884726
 31
0.0
  0
LINE
  5
42A
  8
0
  6
CONTINUOUS
 62
     7
 10
150.3342766792977
 20
496.7517073884726
 30
0.0
 11
150.3456858272241
 21
496.749059531612
 31
0.0
  0
LINE
  5
42B
  8
0
  6
CONTINUOUS
 62
     7
 10
150.3456858272241
 20
496.749059531612
 30
0.0
 11
150.3572068520984
 21
496.7468933333037
 31
0.0
  0
LINE
  5
42C
  8
0
  6
CONTINUOUS
 62
     7
 10
150.3572068520984
 20
496.7468933333037
 30
0.0
 11
150.3688090137529
 21
496.7452166165973
 31
0.0
  0
LINE
  5
42D
  8
0
  6
CONTINUOUS
 62
     7
 10
150.3688090137529
 20
496.7452166165973
 30
0.0
 11
150.3804615720197
 21
496.7440372045424
 31
0.0
  0
LINE
  5
42E
  8
0
  6
CONTINUOUS
 62
     7
 10
150.3804615720197
 20
496.7440372045424
 30
0.0
 11
150.3925165549316
 21
496.7433478981814
 31
0.0
  0
LINE
  5
42F
  8
0
  6
CONTINUOUS
 62
     7
 10
150.3925165549316
 20
496.7433478981814
 30
0.0
 11
150.4046024065184
 21
496.743195990681
 31
0.0
  0
LINE
  5
430
  8
0
  6
CONTINUOUS
 62
     7
 10
150.4046024065184
 20
496.743195990681
 30
0.0
 11
150.4166826125081
 21
496.7435851607955
 31
0.0
  0
LINE
  5
431
  8
0
  6
CONTINUOUS
 62
     7
 10
150.4166826125081
 20
496.7435851607955
 30
0.0
 11
150.4287206586291
 21
496.7445190872785
 31
0.0
  0
LINE
  5
432
  8
0
  6
CONTINUOUS
 62
     7
 10
150.4287206586291
 20
496.7445190872785
 30
0.0
 11
150.4399638102994
 21
496.7458950318631
 31
0.0
  0
LINE
  5
433
  8
0
  6
CONTINUOUS
 62
     7
 10
150.4399638102994
 20
496.7458950318631
 30
0.0
 11
150.4511477543043
 21
496.7477558416348
 31
0.0
  0
LINE
  5
434
  8
0
  6
CONTINUOUS
 62
     7
 10
150.4511477543043
 20
496.7477558416348
 30
0.0
 11
150.4622402607779
 21
496.7500994297125
 31
0.0
  0
LINE
  5
435
  8
0
  6
CONTINUOUS
 62
     7
 10
150.4622402607779
 20
496.7500994297125
 30
0.0
 11
150.4732090998542
 21
496.7529237092152
 31
0.0
  0
LINE
  5
436
  8
0
  6
CONTINUOUS
 62
     7
 10
150.4732090998542
 20
496.7529237092152
 30
0.0
 11
150.484394333719
 21
496.7563480654368
 31
0.0
  0
LINE
  5
437
  8
0
  6
CONTINUOUS
 62
     7
 10
150.484394333719
 20
496.7563480654368
 30
0.0
 11
150.4954221416086
 21
496.7602871784691
 31
0.0
  0
LINE
  5
438
  8
0
  6
CONTINUOUS
 62
     7
 10
150.4954221416086
 20
496.7602871784691
 30
0.0
 11
150.5062557127139
 21
496.7647317215767
 31
0.0
  0
LINE
  5
439
  8
0
  6
CONTINUOUS
 62
     7
 10
150.5062557127139
 20
496.7647317215767
 30
0.0
 11
150.5168582362258
 21
496.7696723680243
 31
0.0
  0
LINE
  5
43A
  8
0
  6
CONTINUOUS
 62
     7
 10
150.5168582362258
 20
496.7696723680243
 30
0.0
 11
150.5263066197742
 21
496.7746070230304
 31
0.0
  0
LINE
  5
43B
  8
0
  6
CONTINUOUS
 62
     7
 10
150.5263066197742
 20
496.7746070230304
 30
0.0
 11
150.5355415320186
 21
496.7799506342803
 31
0.0
  0
LINE
  5
43C
  8
0
  6
CONTINUOUS
 62
     7
 10
150.5355415320186
 20
496.7799506342803
 30
0.0
 11
150.5445355054848
 21
496.7856900620213
 31
0.0
  0
LINE
  5
43D
  8
0
  6
CONTINUOUS
 62
     7
 10
150.5445355054848
 20
496.7856900620213
 30
0.0
 11
150.5532610726987
 21
496.7918121665008
 31
0.0
  0
LINE
  5
43E
  8
0
  6
CONTINUOUS
 62
     7
 10
150.5532610726987
 20
496.7918121665008
 30
0.0
 11
150.5619780124947
 21
496.7985335080032
 31
0.0
  0
LINE
  5
43F
  8
0
  6
CONTINUOUS
 62
     7
 10
150.5619780124947
 20
496.7985335080032
 30
0.0
 11
150.5703870368268
 21
496.8056543413468
 31
0.0
  0
LINE
  5
440
  8
0
  6
CONTINUOUS
 62
     7
 10
150.5703870368268
 20
496.8056543413468
 30
0.0
 11
150.5784603663668
 21
496.8131533219407
 31
0.0
  0
LINE
  5
441
  8
0
  6
CONTINUOUS
 62
     7
 10
150.5784603663668
 20
496.8131533219407
 30
0.0
 11
150.5861702217862
 21
496.8210091051939
 31
0.0
  0
LINE
  5
442
  8
0
  6
CONTINUOUS
 62
     7
 10
150.5861702217862
 20
496.8210091051939
 30
0.0
 11
150.5933611262805
 21
496.8290487375748
 31
0.0
  0
LINE
  5
443
  8
0
  6
CONTINUOUS
 62
     7
 10
150.5933611262805
 20
496.8290487375748
 30
0.0
 11
150.6001877089936
 21
496.8374218950054
 31
0.0
  0
LINE
  5
444
  8
0
  6
CONTINUOUS
 62
     7
 10
150.6001877089936
 20
496.8374218950054
 30
0.0
 11
150.6066290415036
 21
496.8461018913198
 31
0.0
  0
LINE
  5
445
  8
0
  6
CONTINUOUS
 62
     7
 10
150.6066290415036
 20
496.8461018913198
 30
0.0
 11
150.6126641953884
 21
496.8550620403519
 31
0.0
  0
LINE
  5
446
  8
0
  6
CONTINUOUS
 62
     7
 10
150.6126641953884
 20
496.8550620403519
 30
0.0
 11
150.6182722422247
 21
496.864275655937
 31
0.0
  0
LINE
  5
447
  8
0
  6
CONTINUOUS
 62
     7
 10
150.6182722422247
 20
513.135724344063
 30
0.0
 11
150.613129724192
 21
513.1442104884941
 31
0.0
  0
LINE
  5
448
  8
0
  6
CONTINUOUS
 62
     7
 10
150.613129724192
 20
513.1442104884941
 30
0.0
 11
150.6076286853626
 21
513.1524793693133
 31
0.0
  0
LINE
  5
449
  8
0
  6
CONTINUOUS
 62
     7
 10
150.6076286853626
 20
513.1524793693133
 30
0.0
 11
150.6017846733031
 21
513.1605095718153
 31
0.0
  0
LINE
  5
44A
  8
0
  6
CONTINUOUS
 62
     7
 10
150.6017846733031
 20
513.1605095718153
 30
0.0
 11
150.5956132355802
 21
513.1682796812947
 31
0.0
  0
LINE
  5
44B
  8
0
  6
CONTINUOUS
 62
     7
 10
150.5956132355802
 20
513.1682796812947
 30
0.0
 11
150.5889213515636
 21
513.1760014025555
 31
0.0
  0
LINE
  5
44C
  8
0
  6
CONTINUOUS
 62
     7
 10
150.5889213515636
 20
513.1760014025555
 30
0.0
 11
150.581896074305
 21
513.1834341503862
 31
0.0
  0
LINE
  5
44D
  8
0
  6
CONTINUOUS
 62
     7
 10
150.581896074305
 20
513.1834341503862
 30
0.0
 11
150.5745584497018
 21
513.1905589066746
 31
0.0
  0
LINE
  5
44E
  8
0
  6
CONTINUOUS
 62
     7
 10
150.5745584497018
 20
513.1905589066746
 30
0.0
 11
150.5669295236513
 21
513.1973566533087
 31
0.0
  0
LINE
  5
44F
  8
0
  6
CONTINUOUS
 62
     7
 10
150.5669295236513
 20
513.1973566533087
 30
0.0
 11
150.5592509821596
 21
513.2036380109965
 31
0.0
  0
LINE
  5
450
  8
0
  6
CONTINUOUS
 62
     7
 10
150.5592509821596
 20
513.2036380109965
 30
0.0
 11
150.5513135634987
 21
513.2096028292972
 31
0.0
  0
LINE
  5
451
  8
0
  6
CONTINUOUS
 62
     7
 10
150.5513135634987
 20
513.2096028292972
 30
0.0
 11
150.5431388295893
 21
513.2152383162496
 31
0.0
  0
LINE
  5
452
  8
0
  6
CONTINUOUS
 62
     7
 10
150.5431388295893
 20
513.2152383162496
 30
0.0
 11
150.5347483423521
 21
513.2205316798926
 31
0.0
  0
LINE
  5
453
  8
0
  6
CONTINUOUS
 62
     7
 10
150.5347483423521
 20
513.2205316798926
 30
0.0
 11
150.5259088911006
 21
513.225611473712
 31
0.0
  0
LINE
  5
454
  8
0
  6
CONTINUOUS
 62
     7
 10
150.5259088911006
 20
513.225611473712
 30
0.0
 11
150.5168593050919
 21
513.2303254721237
 31
0.0
  0
LINE
  5
455
  8
0
  6
CONTINUOUS
 62
     7
 10
150.5168593050919
 20
513.2303254721237
 30
0.0
 11
150.5076239671782
 21
513.2346647958061
 31
0.0
  0
LINE
  5
456
  8
0
  6
CONTINUOUS
 62
     7
 10
150.5076239671782
 20
513.2346647958061
 30
0.0
 11
150.4982272602117
 21
513.238620565438
 31
0.0
  0
LINE
  5
457
  8
0
  6
CONTINUOUS
 62
     7
 10
150.4982272602117
 20
513.238620565438
 30
0.0
 11
150.4886907073453
 21
513.2421865507674
 31
0.0
  0
LINE
  5
458
  8
0
  6
CONTINUOUS
 62
     7
 10
150.4886907073453
 20
513.2421865507674
 30
0.0
 11
150.4790109552531
 21
513.2453693793029
 31
0.0
  0
LINE
  5
459
  8
0
  6
CONTINUOUS
 62
     7
 10
150.4790109552531
 20
513.2453693793029
 30
0.0
 11
150.4692120656013
 21
513.2481647651533
 31
0.0
  0
LINE
  5
45A
  8
0
  6
CONTINUOUS
 62
     7
 10
150.4692120656013
 20
513.2481647651533
 30
0.0
 11
150.4593181000562
 21
513.2505684224275
 31
0.0
  0
LINE
  5
45B
  8
0
  6
CONTINUOUS
 62
     7
 10
150.4593181000562
 20
513.2505684224275
 30
0.0
 11
150.4490764541234
 21
513.2526274247787
 31
0.0
  0
LINE
  5
45C
  8
0
  6
CONTINUOUS
 62
     7
 10
150.4490764541234
 20
513.2526274247787
 30
0.0
 11
150.4387524628768
 21
513.2542764821185
 31
0.0
  0
LINE
  5
45D
  8
0
  6
CONTINUOUS
 62
     7
 10
150.4387524628768
 20
513.2542764821185
 30
0.0
 11
150.4283710145255
 21
513.2555151417006
 31
0.0
  0
LINE
  5
45E
  8
0
  6
CONTINUOUS
 62
     7
 10
150.4283710145255
 20
513.2555151417006
 30
0.0
 11
150.4179569972787
 21
513.2563429507786
 31
0.0
  0
LINE
  5
45F
  8
0
  6
CONTINUOUS
 62
     7
 10
150.4179569972787
 20
513.2563429507786
 30
0.0
 11
150.4072013626958
 21
513.2567673986669
 31
0.0
  0
LINE
  5
460
  8
0
  6
CONTINUOUS
 62
     7
 10
150.4072013626958
 20
513.2567673986669
 30
0.0
 11
150.3964287746142
 21
513.2567606462069
 31
0.0
  0
LINE
  5
461
  8
0
  6
CONTINUOUS
 62
     7
 10
150.3964287746142
 20
513.2567606462069
 30
0.0
 11
150.3856647569143
 21
513.2563259624978
 31
0.0
  0
LINE
  5
462
  8
0
  6
CONTINUOUS
 62
     7
 10
150.3856647569143
 20
513.2563259624978
 30
0.0
 11
150.3749348334762
 21
513.2554666166391
 31
0.0
  0
LINE
  5
463
  8
0
  6
CONTINUOUS
 62
     7
 10
150.3749348334762
 20
513.2554666166391
 30
0.0
 11
150.3639692932597
 21
513.254145718082
 31
0.0
  0
LINE
  5
464
  8
0
  6
CONTINUOUS
 62
     7
 10
150.3639692932597
 20
513.254145718082
 30
0.0
 11
150.3530568278781
 21
513.2523846089639
 31
0.0
  0
LINE
  5
465
  8
0
  6
CONTINUOUS
 62
     7
 10
150.3530568278781
 20
513.2523846089639
 30
0.0
 11
150.3422230276351
 21
513.2501901418907
 31
0.0
  0
LINE
  5
466
  8
0
  6
CONTINUOUS
 62
     7
 10
150.3422230276351
 20
513.2501901418907
 30
0.0
 11
150.3314934828344
 21
513.2475691694681
 31
0.0
  0
LINE
  5
467
  8
0
  6
CONTINUOUS
 62
     7
 10
150.3314934828344
 20
513.2475691694681
 30
0.0
 11
150.3174928153243
 21
513.2434568948361
 31
0.0
  0
LINE
  5
468
  8
0
  6
CONTINUOUS
 62
     7
 10
150.3174928153243
 20
513.2434568948361
 30
0.0
 11
150.3037063620605
 21
513.2386154635335
 31
0.0
  0
LINE
  5
469
  8
0
  6
CONTINUOUS
 62
     7
 10
150.3037063620605
 20
513.2386154635335
 30
0.0
 11
150.29018826694
 21
513.2330680668448
 31
0.0
  0
LINE
  5
46A
  8
0
  6
CONTINUOUS
 62
     7
 10
150.29018826694
 20
513.2330680668448
 30
0.0
 11
150.2769926738597
 21
513.2268378960541
 31
0.0
  0
LINE
  5
46B
  8
0
  6
CONTINUOUS
 62
     7
 10
150.1852595403325
 20
497.114275655937
 30
0.0
 11
150.1804815826913
 21
497.1055790324656
 31
0.0
  0
LINE
  5
46C
  8
0
  6
CONTINUOUS
 62
     7
 10
150.1804815826913
 20
497.1055790324656
 30
0.0
 11
150.1760710412557
 21
497.0966805526826
 31
0.0
  0
LINE
  5
46D
  8
0
  6
CONTINUOUS
 62
     7
 10
150.1760710412557
 20
497.0966805526826
 30
0.0
 11
150.1720386879212
 21
497.0876043885282
 31
0.0
  0
LINE
  5
46E
  8
0
  6
CONTINUOUS
 62
     7
 10
150.1720386879212
 20
497.0876043885282
 30
0.0
 11
150.1683952945833
 21
497.0783747119425
 31
0.0
  0
LINE
  5
46F
  8
0
  6
CONTINUOUS
 62
     7
 10
150.1683952945833
 20
497.0783747119425
 30
0.0
 11
150.1650540298188
 21
497.0687185097545
 31
0.0
  0
LINE
  5
470
  8
0
  6
CONTINUOUS
 62
     7
 10
150.1650540298188
 20
497.0687185097545
 30
0.0
 11
150.1621297200068
 21
497.0589180672646
 31
0.0
  0
LINE
  5
471
  8
0
  6
CONTINUOUS
 62
     7
 10
150.1621297200068
 20
497.0589180672646
 30
0.0
 11
150.1596283123668
 21
497.0490011198106
 31
0.0
  0
LINE
  5
472
  8
0
  6
CONTINUOUS
 62
     7
 10
150.1596283123668
 20
497.0490011198106
 30
0.0
 11
150.1575557541185
 21
497.0389954027302
 31
0.0
  0
LINE
  5
473
  8
0
  6
CONTINUOUS
 62
     7
 10
150.1575557541185
 20
497.0389954027302
 30
0.0
 11
150.1559552095364
 21
497.0292049118905
 31
0.0
  0
LINE
  5
474
  8
0
  6
CONTINUOUS
 62
     7
 10
150.1559552095364
 20
497.0292049118905
 30
0.0
 11
150.1547582346895
 21
497.0193484965394
 31
0.0
  0
LINE
  5
475
  8
0
  6
CONTINUOUS
 62
     7
 10
150.1547582346895
 20
497.0193484965394
 30
0.0
 11
150.1539651267807
 21
497.0094512258284
 31
0.0
  0
LINE
  5
476
  8
0
  6
CONTINUOUS
 62
     7
 10
150.1539651267807
 20
497.0094512258284
 30
0.0
 11
150.1535761830131
 21
496.9995381689093
 31
0.0
  0
LINE
  5
477
  8
0
  6
CONTINUOUS
 62
     7
 10
150.1535761830131
 20
496.9995381689093
 30
0.0
 11
150.1535966781452
 21
496.9893430826604
 31
0.0
  0
LINE
  5
478
  8
0
  6
CONTINUOUS
 62
     7
 10
150.1535966781452
 20
496.9893430826604
 30
0.0
 11
150.1540390287717
 21
496.9791489120772
 31
0.0
  0
LINE
  5
479
  8
0
  6
CONTINUOUS
 62
     7
 10
150.1540390287717
 20
496.9791489120772
 30
0.0
 11
150.1548987331842
 21
496.9689812129902
 31
0.0
  0
LINE
  5
47A
  8
0
  6
CONTINUOUS
 62
     7
 10
150.1548987331842
 20
496.9689812129902
 30
0.0
 11
150.1561712896747
 21
496.9588655412293
 31
0.0
  0
LINE
  5
47B
  8
0
  6
CONTINUOUS
 62
     7
 10
150.1561712896747
 20
496.9588655412293
 30
0.0
 11
150.1578513322231
 21
496.9488236515178
 31
0.0
  0
LINE
  5
47C
  8
0
  6
CONTINUOUS
 62
     7
 10
150.1578513322231
 20
496.9488236515178
 30
0.0
 11
150.1599347979017
 21
496.9388493260359
 31
0.0
  0
LINE
  5
47D
  8
0
  6
CONTINUOUS
 62
     7
 10
150.1599347979017
 20
496.9388493260359
 30
0.0
 11
150.1624133675677
 21
496.9289655457434
 31
0.0
  0
LINE
  5
47E
  8
0
  6
CONTINUOUS
 62
     7
 10
150.1624133675677
 20
496.9289655457434
 30
0.0
 11
150.1652787220789
 21
496.9191952916001
 31
0.0
  0
LINE
  5
47F
  8
0
  6
CONTINUOUS
 62
     7
 10
150.1652787220789
 20
496.9191952916001
 30
0.0
 11
150.1686163967026
 21
496.9092962648701
 31
0.0
  0
LINE
  5
480
  8
0
  6
CONTINUOUS
 62
     7
 10
150.1686163967026
 20
496.9092962648701
 30
0.0
 11
150.1723502667774
 21
496.8995308975121
 31
0.0
  0
LINE
  5
481
  8
0
  6
CONTINUOUS
 62
     7
 10
150.1723502667774
 20
496.8995308975121
 30
0.0
 11
150.1764682802883
 21
496.8899209697208
 31
0.0
  0
LINE
  5
482
  8
0
  6
CONTINUOUS
 62
     7
 10
150.1764682802883
 20
496.8899209697208
 30
0.0
 11
150.1809583852207
 21
496.8804882616906
 31
0.0
  0
LINE
  5
483
  8
0
  6
CONTINUOUS
 62
     7
 10
150.1809583852207
 20
496.8804882616906
 30
0.0
 11
150.1859686198583
 21
496.8709613849639
 31
0.0
  0
LINE
  5
484
  8
0
  6
CONTINUOUS
 62
     7
 10
150.1859686198583
 20
496.8709613849639
 30
0.0
 11
150.191360761701
 21
496.8616354262508
 31
0.0
  0
LINE
  5
485
  8
0
  6
CONTINUOUS
 62
     7
 10
150.191360761701
 20
496.8616354262508
 30
0.0
 11
150.1971192176857
 21
496.8525308553304
 31
0.0
  0
LINE
  5
486
  8
0
  6
CONTINUOUS
 62
     7
 10
150.1971192176857
 20
496.8525308553304
 30
0.0
 11
150.2032283947489
 21
496.8436681419816
 31
0.0
  0
LINE
  5
487
  8
0
  6
CONTINUOUS
 62
     7
 10
150.2032283947489
 20
496.8436681419816
 30
0.0
 11
150.2098550965634
 21
496.8348321548665
 31
0.0
  0
LINE
  5
488
  8
0
  6
CONTINUOUS
 62
     7
 10
150.2098550965634
 20
496.8348321548665
 30
0.0
 11
150.2168364944893
 21
496.8262622371872
 31
0.0
  0
LINE
  5
489
  8
0
  6
CONTINUOUS
 62
     7
 10
150.2168364944893
 20
496.8262622371872
 30
0.0
 11
150.224153858844
 21
496.8179771244938
 31
0.0
  0
LINE
  5
48A
  8
0
  6
CONTINUOUS
 62
     7
 10
150.224153858844
 20
496.8179771244938
 30
0.0
 11
150.2317884599449
 21
496.8099955523367
 31
0.0
  0
LINE
  5
48B
  8
0
  6
CONTINUOUS
 62
     7
 10
150.2317884599449
 20
496.8099955523367
 30
0.0
 11
150.2423501279986
 21
496.799926755919
 31
0.0
  0
LINE
  5
48C
  8
0
  6
CONTINUOUS
 62
     7
 10
150.2423501279986
 20
496.799926755919
 30
0.0
 11
150.2534361571292
 21
496.7904080528157
 31
0.0
  0
LINE
  5
48D
  8
0
  6
CONTINUOUS
 62
     7
 10
150.2534361571292
 20
496.7904080528157
 30
0.0
 11
150.2649993911468
 21
496.781474737375
 31
0.0
  0
LINE
  5
48E
  8
0
  6
CONTINUOUS
 62
     7
 10
150.2649993911468
 20
496.781474737375
 30
0.0
 11
150.2769926738615
 21
496.7731621039447
 31
0.0
  0
LINE
  5
48F
  8
0
  6
CONTINUOUS
 62
     7
 10
145.77677203483
 20
505.2499999999998
 30
0.0
 11
145.766851559156
 21
505.2497895209598
 31
0.0
  0
LINE
  5
490
  8
0
  6
CONTINUOUS
 62
     7
 10
145.766851559156
 20
505.2497895209598
 30
0.0
 11
145.756939978891
 21
505.2491599219959
 31
0.0
  0
LINE
  5
491
  8
0
  6
CONTINUOUS
 62
     7
 10
145.756939978891
 20
505.2491599219959
 30
0.0
 11
145.7470636134971
 21
505.2481139603434
 31
0.0
  0
LINE
  5
492
  8
0
  6
CONTINUOUS
 62
     7
 10
145.7470636134971
 20
505.2481139603434
 30
0.0
 11
145.7372487824363
 21
505.2466543932372
 31
0.0
  0
LINE
  5
493
  8
0
  6
CONTINUOUS
 62
     7
 10
145.7372487824363
 20
505.2466543932372
 30
0.0
 11
145.7272156336551
 21
505.24471991231
 31
0.0
  0
LINE
  5
494
  8
0
  6
CONTINUOUS
 62
     7
 10
145.7272156336551
 20
505.24471991231
 30
0.0
 11
145.7172660465845
 21
505.2423522176508
 31
0.0
  0
LINE
  5
495
  8
0
  6
CONTINUOUS
 62
     7
 10
145.7172660465845
 20
505.2423522176508
 30
0.0
 11
145.7074270143414
 21
505.2395600264852
 31
0.0
  0
LINE
  5
496
  8
0
  6
CONTINUOUS
 62
     7
 10
145.7074270143414
 20
505.2395600264852
 30
0.0
 11
145.6977255300426
 21
505.2363520560389
 31
0.0
  0
LINE
  5
497
  8
0
  6
CONTINUOUS
 62
     7
 10
145.6977255300426
 20
505.2363520560389
 30
0.0
 11
145.6884464439688
 21
505.2328429228871
 31
0.0
  0
LINE
  5
498
  8
0
  6
CONTINUOUS
 62
     7
 10
145.6884464439688
 20
505.2328429228871
 30
0.0
 11
145.679312050461
 21
505.2289513258364
 31
0.0
  0
LINE
  5
499
  8
0
  6
CONTINUOUS
 62
     7
 10
145.679312050461
 20
505.2289513258364
 30
0.0
 11
145.6703442086428
 21
505.224689542078
 31
0.0
  0
LINE
  5
49A
  8
0
  6
CONTINUOUS
 62
     7
 10
145.6703442086428
 20
505.224689542078
 30
0.0
 11
145.6615647776379
 21
505.220069848802
 31
0.0
  0
LINE
  5
49B
  8
0
  6
CONTINUOUS
 62
     7
 10
145.6615647776379
 20
505.220069848802
 30
0.0
 11
145.6527458215186
 21
505.2149545563723
 31
0.0
  0
LINE
  5
49C
  8
0
  6
CONTINUOUS
 62
     7
 10
145.6527458215186
 20
505.2149545563723
 30
0.0
 11
145.6441385861363
 21
505.2094743842009
 31
0.0
  0
LINE
  5
49D
  8
0
  6
CONTINUOUS
 62
     7
 10
145.6441385861363
 20
505.2094743842009
 30
0.0
 11
145.6357629526352
 21
505.2036460087964
 31
0.0
  0
LINE
  5
49E
  8
0
  6
CONTINUOUS
 62
     7
 10
145.6357629526352
 20
505.2036460087964
 30
0.0
 11
145.6276388021592
 21
505.1974861066675
 31
0.0
  0
LINE
  5
49F
  8
0
  6
CONTINUOUS
 62
     7
 10
145.6276388021592
 20
505.1974861066675
 30
0.0
 11
145.6197822918412
 21
505.1910102022853
 31
0.0
  0
LINE
  5
4A0
  8
0
  6
CONTINUOUS
 62
     7
 10
145.6197822918412
 20
505.1910102022853
 30
0.0
 11
145.6121860054275
 21
505.1842187053388
 31
0.0
  0
LINE
  5
4A1
  8
0
  6
CONTINUOUS
 62
     7
 10
145.6121860054275
 20
505.1842187053388
 30
0.0
 11
145.6048656854418
 21
505.1771303108967
 31
0.0
  0
LINE
  5
4A2
  8
0
  6
CONTINUOUS
 62
     7
 10
145.6048656854418
 20
505.1771303108967
 30
0.0
 11
145.5978370744078
 21
505.1697637140277
 31
0.0
  0
LINE
  5
4A3
  8
0
  6
CONTINUOUS
 62
     7
 10
145.5978370744078
 20
505.1697637140277
 30
0.0
 11
145.5909331030988
 21
505.161923689649
 31
0.0
  0
LINE
  5
4A4
  8
0
  6
CONTINUOUS
 62
     7
 10
145.5909331030988
 20
505.161923689649
 30
0.0
 11
145.5843429819269
 21
505.1538073796308
 31
0.0
  0
LINE
  5
4A5
  8
0
  6
CONTINUOUS
 62
     7
 10
145.5843429819269
 20
505.1538073796308
 30
0.0
 11
145.5780795470866
 21
505.1454361114215
 31
0.0
  0
LINE
  5
4A6
  8
0
  6
CONTINUOUS
 62
     7
 10
145.5780795470866
 20
505.1454361114215
 30
0.0
 11
145.5721556347721
 21
505.1368312124692
 31
0.0
  0
LINE
  5
4A7
  8
0
  6
CONTINUOUS
 62
     7
 10
145.5721556347721
 20
505.1368312124692
 30
0.0
 11
145.5664102348268
 21
505.1277287836306
 31
0.0
  0
LINE
  5
4A8
  8
0
  6
CONTINUOUS
 62
     7
 10
145.5664102348268
 20
505.1277287836306
 30
0.0
 11
145.561029788588
 21
505.1183960724575
 31
0.0
  0
LINE
  5
4A9
  8
0
  6
CONTINUOUS
 62
     7
 10
145.561029788588
 20
505.1183960724575
 30
0.0
 11
145.5560242268727
 21
505.1088568178281
 31
0.0
  0
LINE
  5
4AA
  8
0
  6
CONTINUOUS
 62
     7
 10
145.5560242268727
 20
505.1088568178281
 30
0.0
 11
145.5514034804978
 21
505.0991347586208
 31
0.0
  0
LINE
  5
4AB
  8
0
  6
CONTINUOUS
 62
     7
 10
145.5514034804978
 20
505.0991347586208
 30
0.0
 11
145.5470646420959
 21
505.0889778729486
 31
0.0
  0
LINE
  5
4AC
  8
0
  6
CONTINUOUS
 62
     7
 10
145.5470646420959
 20
505.0889778729486
 30
0.0
 11
145.5431335746402
 21
505.0786468461511
 31
0.0
  0
LINE
  5
4AD
  8
0
  6
CONTINUOUS
 62
     7
 10
145.5431335746402
 20
505.0786468461511
 30
0.0
 11
145.5396171387519
 21
505.0681672663845
 31
0.0
  0
LINE
  5
4AE
  8
0
  6
CONTINUOUS
 62
     7
 10
145.5396171387519
 20
505.0681672663845
 30
0.0
 11
145.5365221950521
 21
505.057564721805
 31
0.0
  0
LINE
  5
4AF
  8
0
  6
CONTINUOUS
 62
     7
 10
145.5365221950521
 20
505.057564721805
 30
0.0
 11
145.5330831955957
 21
505.0433836507551
 31
0.0
  0
LINE
  5
4B0
  8
0
  6
CONTINUOUS
 62
     7
 10
145.5330831955957
 20
505.0433836507551
 30
0.0
 11
145.5303827714625
 21
505.0290235163491
 31
0.0
  0
LINE
  5
4B1
  8
0
  6
CONTINUOUS
 62
     7
 10
145.5303827714625
 20
505.0290235163491
 30
0.0
 11
145.5284279103596
 21
505.0145428042196
 31
0.0
  0
LINE
  5
4B2
  8
0
  6
CONTINUOUS
 62
     7
 10
145.5284279103596
 20
505.0145428042196
 30
0.0
 11
145.527225599994
 21
504.999999999999
 31
0.0
  0
LINE
  5
4B3
  8
0
  6
CONTINUOUS
 62
     7
 10
164.2767474606245
 20
504.75
 30
0.0
 11
164.2866679362985
 21
504.7502104790402
 31
0.0
  0
LINE
  5
4B4
  8
0
  6
CONTINUOUS
 62
     7
 10
164.2866679362985
 20
504.7502104790402
 30
0.0
 11
164.2965795165635
 21
504.7508400780039
 31
0.0
  0
LINE
  5
4B5
  8
0
  6
CONTINUOUS
 62
     7
 10
164.2965795165635
 20
504.7508400780039
 30
0.0
 11
164.3064558819574
 21
504.7518860396566
 31
0.0
  0
LINE
  5
4B6
  8
0
  6
CONTINUOUS
 62
     7
 10
164.3064558819574
 20
504.7518860396566
 30
0.0
 11
164.3162707130182
 21
504.7533456067629
 31
0.0
  0
LINE
  5
4B7
  8
0
  6
CONTINUOUS
 62
     7
 10
164.3162707130182
 20
504.7533456067629
 30
0.0
 11
164.3263038617994
 21
504.75528008769
 31
0.0
  0
LINE
  5
4B8
  8
0
  6
CONTINUOUS
 62
     7
 10
164.3263038617994
 20
504.75528008769
 30
0.0
 11
164.33625344887
 21
504.7576477823492
 31
0.0
  0
LINE
  5
4B9
  8
0
  6
CONTINUOUS
 62
     7
 10
164.33625344887
 20
504.7576477823492
 30
0.0
 11
164.3460924811132
 21
504.7604399735148
 31
0.0
  0
LINE
  5
4BA
  8
0
  6
CONTINUOUS
 62
     7
 10
164.3460924811132
 20
504.7604399735148
 30
0.0
 11
164.355793965412
 21
504.7636479439611
 31
0.0
  0
LINE
  5
4BB
  8
0
  6
CONTINUOUS
 62
     7
 10
164.355793965412
 20
504.7636479439611
 30
0.0
 11
164.3650730514857
 21
504.7671570771129
 31
0.0
  0
LINE
  5
4BC
  8
0
  6
CONTINUOUS
 62
     7
 10
164.3650730514857
 20
504.7671570771129
 30
0.0
 11
164.3742074449935
 21
504.7710486741634
 31
0.0
  0
LINE
  5
4BD
  8
0
  6
CONTINUOUS
 62
     7
 10
164.3742074449935
 20
504.7710486741634
 30
0.0
 11
164.3831752868117
 21
504.775310457922
 31
0.0
  0
LINE
  5
4BE
  8
0
  6
CONTINUOUS
 62
     7
 10
164.3831752868117
 20
504.775310457922
 30
0.0
 11
164.3919547178166
 21
504.779930151198
 31
0.0
  0
LINE
  5
4BF
  8
0
  6
CONTINUOUS
 62
     7
 10
164.3919547178166
 20
504.779930151198
 30
0.0
 11
164.4007736739359
 21
504.7850454436278
 31
0.0
  0
LINE
  5
4C0
  8
0
  6
CONTINUOUS
 62
     7
 10
164.4007736739359
 20
504.7850454436278
 30
0.0
 11
164.4093809093182
 21
504.7905256157991
 31
0.0
  0
LINE
  5
4C1
  8
0
  6
CONTINUOUS
 62
     7
 10
164.4093809093182
 20
504.7905256157991
 30
0.0
 11
164.4177565428193
 21
504.7963539912036
 31
0.0
  0
LINE
  5
4C2
  8
0
  6
CONTINUOUS
 62
     7
 10
164.4177565428193
 20
504.7963539912036
 30
0.0
 11
164.4258806932953
 21
504.8025138933325
 31
0.0
  0
LINE
  5
4C3
  8
0
  6
CONTINUOUS
 62
     7
 10
164.4258806932953
 20
504.8025138933325
 30
0.0
 11
164.4337372036133
 21
504.8089897977147
 31
0.0
  0
LINE
  5
4C4
  8
0
  6
CONTINUOUS
 62
     7
 10
164.4337372036133
 20
504.8089897977147
 30
0.0
 11
164.441333490027
 21
504.8157812946612
 31
0.0
  0
LINE
  5
4C5
  8
0
  6
CONTINUOUS
 62
     7
 10
164.441333490027
 20
504.8157812946612
 30
0.0
 11
164.4486538100128
 21
504.8228696891033
 31
0.0
  0
LINE
  5
4C6
  8
0
  6
CONTINUOUS
 62
     7
 10
164.4486538100128
 20
504.8228696891033
 30
0.0
 11
164.4556824210466
 21
504.8302362859723
 31
0.0
  0
LINE
  5
4C7
  8
0
  6
CONTINUOUS
 62
     7
 10
164.4556824210466
 20
504.8302362859723
 30
0.0
 11
164.4625863923557
 21
504.838076310351
 31
0.0
  0
LINE
  5
4C8
  8
0
  6
CONTINUOUS
 62
     7
 10
164.4625863923557
 20
504.838076310351
 30
0.0
 11
164.4691765135276
 21
504.8461926203692
 31
0.0
  0
LINE
  5
4C9
  8
0
  6
CONTINUOUS
 62
     7
 10
164.4691765135276
 20
504.8461926203692
 30
0.0
 11
164.4754399483679
 21
504.8545638885785
 31
0.0
  0
LINE
  5
4CA
  8
0
  6
CONTINUOUS
 62
     7
 10
164.4754399483679
 20
504.8545638885785
 30
0.0
 11
164.4813638606824
 21
504.8631687875308
 31
0.0
  0
LINE
  5
4CB
  8
0
  6
CONTINUOUS
 62
     7
 10
164.4813638606824
 20
504.8631687875308
 30
0.0
 11
164.4871092606277
 21
504.8722712163693
 31
0.0
  0
LINE
  5
4CC
  8
0
  6
CONTINUOUS
 62
     7
 10
164.4871092606277
 20
504.8722712163693
 30
0.0
 11
164.4924897068665
 21
504.8816039275424
 31
0.0
  0
LINE
  5
4CD
  8
0
  6
CONTINUOUS
 62
     7
 10
164.4924897068665
 20
504.8816039275424
 30
0.0
 11
164.4974952685818
 21
504.8911431821717
 31
0.0
  0
LINE
  5
4CE
  8
0
  6
CONTINUOUS
 62
     7
 10
164.4974952685818
 20
504.8911431821717
 30
0.0
 11
164.5021160149567
 21
504.9008652413792
 31
0.0
  0
LINE
  5
4CF
  8
0
  6
CONTINUOUS
 62
     7
 10
164.5021160149567
 20
504.9008652413792
 30
0.0
 11
164.5064548533586
 21
504.9110221270514
 31
0.0
  0
LINE
  5
4D0
  8
0
  6
CONTINUOUS
 62
     7
 10
164.5064548533586
 20
504.9110221270514
 30
0.0
 11
164.5103859208143
 21
504.9213531538489
 31
0.0
  0
LINE
  5
4D1
  8
0
  6
CONTINUOUS
 62
     7
 10
164.5103859208143
 20
504.9213531538489
 30
0.0
 11
164.5139023567026
 21
504.9318327336155
 31
0.0
  0
LINE
  5
4D2
  8
0
  6
CONTINUOUS
 62
     7
 10
164.5139023567026
 20
504.9318327336155
 30
0.0
 11
164.5169973004024
 21
504.9424352781951
 31
0.0
  0
LINE
  5
4D3
  8
0
  6
CONTINUOUS
 62
     7
 10
164.5169973004024
 20
504.9424352781951
 30
0.0
 11
164.5204362998588
 21
504.9566163492449
 31
0.0
  0
LINE
  5
4D4
  8
0
  6
CONTINUOUS
 62
     7
 10
164.5204362998588
 20
504.9566163492449
 30
0.0
 11
164.523136723992
 21
504.9709764836509
 31
0.0
  0
LINE
  5
4D5
  8
0
  6
CONTINUOUS
 62
     7
 10
164.523136723992
 20
504.9709764836509
 30
0.0
 11
164.5250915850949
 21
504.9854571957802
 31
0.0
  0
LINE
  5
4D6
  8
0
  6
CONTINUOUS
 62
     7
 10
164.5250915850949
 20
504.9854571957802
 30
0.0
 11
164.5262938954605
 21
505.000000000001
 31
0.0
  0
LINE
  5
4D7
  8
0
  6
CONTINUOUS
 62
     7
 10
159.868259955122
 20
512.885724344063
 30
0.0
 11
159.8730379127632
 21
512.8944209675343
 31
0.0
  0
LINE
  5
4D8
  8
0
  6
CONTINUOUS
 62
     7
 10
159.8730379127632
 20
512.8944209675343
 30
0.0
 11
159.8774484541988
 21
512.9033194473174
 31
0.0
  0
LINE
  5
4D9
  8
0
  6
CONTINUOUS
 62
     7
 10
159.8774484541988
 20
512.9033194473174
 30
0.0
 11
159.8814808075333
 21
512.9123956114719
 31
0.0
  0
LINE
  5
4DA
  8
0
  6
CONTINUOUS
 62
     7
 10
159.8814808075333
 20
512.9123956114719
 30
0.0
 11
159.8851242008712
 21
512.9216252880575
 31
0.0
  0
LINE
  5
4DB
  8
0
  6
CONTINUOUS
 62
     7
 10
159.8851242008712
 20
512.9216252880575
 30
0.0
 11
159.8884654656357
 21
512.9312814902455
 31
0.0
  0
LINE
  5
4DC
  8
0
  6
CONTINUOUS
 62
     7
 10
159.8884654656357
 20
512.9312814902455
 30
0.0
 11
159.8913897754477
 21
512.9410819327354
 31
0.0
  0
LINE
  5
4DD
  8
0
  6
CONTINUOUS
 62
     7
 10
159.8913897754477
 20
512.9410819327354
 30
0.0
 11
159.8938911830877
 21
512.9509988801894
 31
0.0
  0
LINE
  5
4DE
  8
0
  6
CONTINUOUS
 62
     7
 10
159.8938911830877
 20
512.9509988801894
 30
0.0
 11
159.895963741336
 21
512.9610045972697
 31
0.0
  0
LINE
  5
4DF
  8
0
  6
CONTINUOUS
 62
     7
 10
159.895963741336
 20
512.9610045972697
 30
0.0
 11
159.8975642859181
 21
512.9707950881095
 31
0.0
  0
LINE
  5
4E0
  8
0
  6
CONTINUOUS
 62
     7
 10
159.8975642859181
 20
512.9707950881095
 30
0.0
 11
159.898761260765
 21
512.9806515034606
 31
0.0
  0
LINE
  5
4E1
  8
0
  6
CONTINUOUS
 62
     7
 10
159.898761260765
 20
512.9806515034606
 30
0.0
 11
159.8995543686738
 21
512.9905487741715
 31
0.0
  0
LINE
  5
4E2
  8
0
  6
CONTINUOUS
 62
     7
 10
159.8995543686738
 20
512.9905487741715
 30
0.0
 11
159.8999433124414
 21
513.0004618310905
 31
0.0
  0
LINE
  5
4E3
  8
0
  6
CONTINUOUS
 62
     7
 10
159.8999433124414
 20
513.0004618310905
 30
0.0
 11
159.8999228173092
 21
513.0106569173396
 31
0.0
  0
LINE
  5
4E4
  8
0
  6
CONTINUOUS
 62
     7
 10
159.8999228173092
 20
513.0106569173396
 30
0.0
 11
159.8994804666828
 21
513.0208510879227
 31
0.0
  0
LINE
  5
4E5
  8
0
  6
CONTINUOUS
 62
     7
 10
159.8994804666828
 20
513.0208510879227
 30
0.0
 11
159.8986207622703
 21
513.0310187870099
 31
0.0
  0
LINE
  5
4E6
  8
0
  6
CONTINUOUS
 62
     7
 10
159.8986207622703
 20
513.0310187870099
 30
0.0
 11
159.8973482057798
 21
513.0411344587707
 31
0.0
  0
LINE
  5
4E7
  8
0
  6
CONTINUOUS
 62
     7
 10
159.8973482057798
 20
513.0411344587707
 30
0.0
 11
159.8956681632314
 21
513.0511763484822
 31
0.0
  0
LINE
  5
4E8
  8
0
  6
CONTINUOUS
 62
     7
 10
159.8956681632314
 20
513.0511763484822
 30
0.0
 11
159.8935846975529
 21
513.0611506739641
 31
0.0
  0
LINE
  5
4E9
  8
0
  6
CONTINUOUS
 62
     7
 10
159.8935846975529
 20
513.0611506739641
 30
0.0
 11
159.8911061278868
 21
513.0710344542566
 31
0.0
  0
LINE
  5
4EA
  8
0
  6
CONTINUOUS
 62
     7
 10
159.8911061278868
 20
513.0710344542566
 30
0.0
 11
159.8882407733757
 21
513.0808047083999
 31
0.0
  0
LINE
  5
4EB
  8
0
  6
CONTINUOUS
 62
     7
 10
159.8882407733757
 20
513.0808047083999
 30
0.0
 11
159.8849030987519
 21
513.0907037351299
 31
0.0
  0
LINE
  5
4EC
  8
0
  6
CONTINUOUS
 62
     7
 10
159.8849030987519
 20
513.0907037351299
 30
0.0
 11
159.8811692286772
 21
513.1004691024879
 31
0.0
  0
LINE
  5
4ED
  8
0
  6
CONTINUOUS
 62
     7
 10
159.8811692286772
 20
513.1004691024879
 30
0.0
 11
159.8770512151662
 21
513.1100790302792
 31
0.0
  0
LINE
  5
4EE
  8
0
  6
CONTINUOUS
 62
     7
 10
159.8770512151662
 20
513.1100790302792
 30
0.0
 11
159.8725611102338
 21
513.1195117383094
 31
0.0
  0
LINE
  5
4EF
  8
0
  6
CONTINUOUS
 62
     7
 10
159.8725611102338
 20
513.1195117383094
 30
0.0
 11
159.8675508755962
 21
513.129038615036
 31
0.0
  0
LINE
  5
4F0
  8
0
  6
CONTINUOUS
 62
     7
 10
159.8675508755962
 20
513.129038615036
 30
0.0
 11
159.8621587337535
 21
513.1383645737492
 31
0.0
  0
LINE
  5
4F1
  8
0
  6
CONTINUOUS
 62
     7
 10
159.8621587337535
 20
513.1383645737492
 30
0.0
 11
159.8564002777688
 21
513.1474691446696
 31
0.0
  0
LINE
  5
4F2
  8
0
  6
CONTINUOUS
 62
     7
 10
159.8564002777688
 20
513.1474691446696
 30
0.0
 11
159.8502911007056
 21
513.1563318580183
 31
0.0
  0
LINE
  5
4F3
  8
0
  6
CONTINUOUS
 62
     7
 10
159.8502911007056
 20
513.1563318580183
 30
0.0
 11
159.8436643988911
 21
513.1651678451334
 31
0.0
  0
LINE
  5
4F4
  8
0
  6
CONTINUOUS
 62
     7
 10
159.8436643988911
 20
513.1651678451334
 30
0.0
 11
159.8366830009652
 21
513.1737377628128
 31
0.0
  0
LINE
  5
4F5
  8
0
  6
CONTINUOUS
 62
     7
 10
159.8366830009652
 20
513.1737377628128
 30
0.0
 11
159.8293656366105
 21
513.1820228755062
 31
0.0
  0
LINE
  5
4F6
  8
0
  6
CONTINUOUS
 62
     7
 10
159.8293656366105
 20
513.1820228755062
 30
0.0
 11
159.8217310355096
 21
513.1900044476632
 31
0.0
  0
LINE
  5
4F7
  8
0
  6
CONTINUOUS
 62
     7
 10
159.8217310355096
 20
513.1900044476632
 30
0.0
 11
159.8111693674559
 21
513.200073244081
 31
0.0
  0
LINE
  5
4F8
  8
0
  6
CONTINUOUS
 62
     7
 10
159.8111693674559
 20
513.200073244081
 30
0.0
 11
159.8000833383253
 21
513.2095919471843
 31
0.0
  0
LINE
  5
4F9
  8
0
  6
CONTINUOUS
 62
     7
 10
159.8000833383253
 20
513.2095919471843
 30
0.0
 11
159.7885201043076
 21
513.218525262625
 31
0.0
  0
LINE
  5
4FA
  8
0
  6
CONTINUOUS
 62
     7
 10
159.7885201043076
 20
513.218525262625
 30
0.0
 11
159.776526821593
 21
513.2268378960553
 31
0.0
  0
LINE
  5
4FB
  8
0
  6
CONTINUOUS
 62
     7
 10
159.4352472532298
 20
496.864275655937
 30
0.0
 11
159.4403897712625
 21
496.8557895115058
 31
0.0
  0
LINE
  5
4FC
  8
0
  6
CONTINUOUS
 62
     7
 10
159.4403897712625
 20
496.8557895115058
 30
0.0
 11
159.4458908100919
 21
496.8475206306866
 31
0.0
  0
LINE
  5
4FD
  8
0
  6
CONTINUOUS
 62
     7
 10
159.4458908100919
 20
496.8475206306866
 30
0.0
 11
159.4517348221514
 21
496.8394904281848
 31
0.0
  0
LINE
  5
4FE
  8
0
  6
CONTINUOUS
 62
     7
 10
159.4517348221514
 20
496.8394904281848
 30
0.0
 11
159.4579062598743
 21
496.8317203187053
 31
0.0
  0
LINE
  5
4FF
  8
0
  6
CONTINUOUS
 62
     7
 10
159.4579062598743
 20
496.8317203187053
 30
0.0
 11
159.4645981438909
 21
496.8239985974445
 31
0.0
  0
LINE
  5
500
  8
0
  6
CONTINUOUS
 62
     7
 10
159.4645981438909
 20
496.8239985974445
 30
0.0
 11
159.4716234211495
 21
496.8165658496138
 31
0.0
  0
LINE
  5
501
  8
0
  6
CONTINUOUS
 62
     7
 10
159.4716234211495
 20
496.8165658496138
 30
0.0
 11
159.4789610457527
 21
496.8094410933253
 31
0.0
  0
LINE
  5
502
  8
0
  6
CONTINUOUS
 62
     7
 10
159.4789610457527
 20
496.8094410933253
 30
0.0
 11
159.4865899718032
 21
496.8026433466913
 31
0.0
  0
LINE
  5
503
  8
0
  6
CONTINUOUS
 62
     7
 10
159.4865899718032
 20
496.8026433466913
 30
0.0
 11
159.4942685132949
 21
496.7963619890035
 31
0.0
  0
LINE
  5
504
  8
0
  6
CONTINUOUS
 62
     7
 10
159.4942685132949
 20
496.7963619890035
 30
0.0
 11
159.5022059319558
 21
496.7903971707028
 31
0.0
  0
LINE
  5
505
  8
0
  6
CONTINUOUS
 62
     7
 10
159.5022059319558
 20
496.7903971707028
 30
0.0
 11
159.5103806658652
 21
496.7847616837503
 31
0.0
  0
LINE
  5
506
  8
0
  6
CONTINUOUS
 62
     7
 10
159.5103806658652
 20
496.7847616837503
 30
0.0
 11
159.5187711531024
 21
496.7794683201074
 31
0.0
  0
LINE
  5
507
  8
0
  6
CONTINUOUS
 62
     7
 10
159.5187711531024
 20
496.7794683201074
 30
0.0
 11
159.5276106043539
 21
496.774388526288
 31
0.0
  0
LINE
  5
508
  8
0
  6
CONTINUOUS
 62
     7
 10
159.5276106043539
 20
496.774388526288
 30
0.0
 11
159.5366601903626
 21
496.7696745278764
 31
0.0
  0
LINE
  5
509
  8
0
  6
CONTINUOUS
 62
     7
 10
159.5366601903626
 20
496.7696745278764
 30
0.0
 11
159.5458955282763
 21
496.7653352041938
 31
0.0
  0
LINE
  5
50A
  8
0
  6
CONTINUOUS
 62
     7
 10
159.5458955282763
 20
496.7653352041938
 30
0.0
 11
159.5552922352428
 21
496.7613794345619
 31
0.0
  0
LINE
  5
50B
  8
0
  6
CONTINUOUS
 62
     7
 10
159.5552922352428
 20
496.7613794345619
 30
0.0
 11
159.5648287881092
 21
496.7578134492325
 31
0.0
  0
LINE
  5
50C
  8
0
  6
CONTINUOUS
 62
     7
 10
159.5648287881092
 20
496.7578134492325
 30
0.0
 11
159.5745085402014
 21
496.754630620697
 31
0.0
  0
LINE
  5
50D
  8
0
  6
CONTINUOUS
 62
     7
 10
159.5745085402014
 20
496.754630620697
 30
0.0
 11
159.5843074298532
 21
496.7518352348467
 31
0.0
  0
LINE
  5
50E
  8
0
  6
CONTINUOUS
 62
     7
 10
159.5843074298532
 20
496.7518352348467
 30
0.0
 11
159.5942013953982
 21
496.7494315775725
 31
0.0
  0
LINE
  5
50F
  8
0
  6
CONTINUOUS
 62
     7
 10
159.5942013953982
 20
496.7494315775725
 30
0.0
 11
159.6044430413311
 21
496.7473725752213
 31
0.0
  0
LINE
  5
510
  8
0
  6
CONTINUOUS
 62
     7
 10
159.6044430413311
 20
496.7473725752213
 30
0.0
 11
159.6147670325777
 21
496.7457235178814
 31
0.0
  0
LINE
  5
511
  8
0
  6
CONTINUOUS
 62
     7
 10
159.6147670325777
 20
496.7457235178814
 30
0.0
 11
159.625148480929
 21
496.7444848582994
 31
0.0
  0
LINE
  5
512
  8
0
  6
CONTINUOUS
 62
     7
 10
159.625148480929
 20
496.7444848582994
 30
0.0
 11
159.6355624981759
 21
496.7436570492214
 31
0.0
  0
LINE
  5
513
  8
0
  6
CONTINUOUS
 62
     7
 10
159.6355624981759
 20
496.7436570492214
 30
0.0
 11
159.6463181327588
 21
496.7432326013331
 31
0.0
  0
LINE
  5
514
  8
0
  6
CONTINUOUS
 62
     7
 10
159.6463181327588
 20
496.7432326013331
 30
0.0
 11
159.6570907208403
 21
496.7432393537932
 31
0.0
  0
LINE
  5
515
  8
0
  6
CONTINUOUS
 62
     7
 10
159.6570907208403
 20
496.7432393537932
 30
0.0
 11
159.6678547385402
 21
496.7436740375022
 31
0.0
  0
LINE
  5
516
  8
0
  6
CONTINUOUS
 62
     7
 10
159.6678547385402
 20
496.7436740375022
 30
0.0
 11
159.6785846619783
 21
496.7445333833608
 31
0.0
  0
LINE
  5
517
  8
0
  6
CONTINUOUS
 62
     7
 10
159.6785846619783
 20
496.7445333833608
 30
0.0
 11
159.6895502021948
 21
496.7458542819179
 31
0.0
  0
LINE
  5
518
  8
0
  6
CONTINUOUS
 62
     7
 10
159.6895502021948
 20
496.7458542819179
 30
0.0
 11
159.7004626675764
 21
496.747615391036
 31
0.0
  0
LINE
  5
519
  8
0
  6
CONTINUOUS
 62
     7
 10
159.7004626675764
 20
496.747615391036
 30
0.0
 11
159.7112964678194
 21
496.7498098581093
 31
0.0
  0
LINE
  5
51A
  8
0
  6
CONTINUOUS
 62
     7
 10
159.7112964678194
 20
496.7498098581093
 30
0.0
 11
159.7220260126201
 21
496.7524308305319
 31
0.0
  0
LINE
  5
51B
  8
0
  6
CONTINUOUS
 62
     7
 10
159.7220260126201
 20
496.7524308305319
 30
0.0
 11
159.7360266801302
 21
496.7565431051639
 31
0.0
  0
LINE
  5
51C
  8
0
  6
CONTINUOUS
 62
     7
 10
159.7360266801302
 20
496.7565431051639
 30
0.0
 11
159.749813133394
 21
496.7613845364664
 31
0.0
  0
LINE
  5
51D
  8
0
  6
CONTINUOUS
 62
     7
 10
159.749813133394
 20
496.7613845364664
 30
0.0
 11
159.7633312285145
 21
496.7669319331552
 31
0.0
  0
LINE
  5
51E
  8
0
  6
CONTINUOUS
 62
     7
 10
159.7633312285145
 20
496.7669319331552
 30
0.0
 11
159.7765268215948
 21
496.7731621039458
 31
0.0
  0
ARC
  5
51F
  8
0
  6
CONTINUOUS
 62
     7
 10
155.0267597477273
 20
505.0
 30
0.0
 40
13.00000000000001
 50
181.2018225860942
 51
178.7981774139058
  0
LINE
  5
520
  8
0
  6
CONTINUOUS
 62
     7
 10
142.0296195294839
 20
504.7273351006812
 30
0.0
 11
143.8297077368836
 21
504.7430442324792
 31
0.0
  0
LINE
  5
521
  8
0
  6
CONTINUOUS
 62
     7
 10
142.0296195294839
 20
505.2726648993188
 30
0.0
 11
143.8297077368836
 21
505.2569557675209
 31
0.0
  0
ENDSEC
  0
EOF
