  0
SECTION
  2
HEADER
  9
$ACADVER
  1
AC1006
  9
$DWGCODEPAGE
  3
ansi_932
  9
$INSBASE
 10
0.0
 20
0.0
 30
0.0
  9
$EXTMIN
 10
62.97293831468671
 20
543.4931818181818
  9
$EXTMAX
 10
167.0270616853133
 20
587.0000000000001
  9
$LIMMIN
 10
0.0
 20
0.0
  9
$LIMMAX
 10
12.0
 20
9.0
  9
$ORTHOMODE
 70
     0
  9
$REGENMODE
 70
     1
  9
$FILLMODE
 70
     1
  9
$QTEXTMODE
 70
     0
  9
$MIRRTEXT
 70
     1
  9
$DRAGMODE
 70
     2
  9
$LTSCALE
 40
1.0
  9
$OSMODE
 70
    37
  9
$ATTMODE
 70
     1
  9
$TEXTSIZE
 40
0.2
  9
$TRACEWID
 40
0.05
  9
$TEXTSTYLE
  7
STANDARD
  9
$CLAYER
  8
0
  9
$CELTYPE
  6
BYLAYER
  9
$CECOLOR
 62
   256
  9
$DIMSCALE
 40
1.0
  9
$DIMASZ
 40
3.0
  9
$DIMEXO
 40
0.0625
  9
$DIMDLI
 40
0.38
  9
$DIMRND
 40
0.0
  9
$DIMDLE
 40
0.0
  9
$DIMEXE
 40
1.5
  9
$DIMTP
 40
0.0
  9
$DIMTM
 40
0.0
  9
$DIMTXT
 40
3.0
  9
$DIMCEN
 40
0.09
  9
$DIMTSZ
 40
0.0
  9
$DIMTOL
 70
     0
  9
$DIMLIM
 70
     0
  9
$DIMTIH
 70
     1
  9
$DIMTOH
 70
     1
  9
$DIMSE1
 70
     0
  9
$DIMSE2
 70
     0
  9
$DIMTAD
 70
     1
  9
$DIMZIN
 70
     0
  9
$DIMBLK
  1

  9
$DIMASO
 70
     1
  9
$DIMSHO
 70
     1
  9
$DIMPOST
  1

  9
$DIMAPOST
  1

  9
$DIMALT
 70
     0
  9
$DIMALTD
 70
     2
  9
$DIMALTF
 40
25.4
  9
$DIMLFAC
 40
1.0
  9
$DIMTOFL
 70
     0
  9
$DIMTVP
 40
0.0
  9
$DIMTIX
 70
     0
  9
$DIMSOXD
 70
     0
  9
$DIMSAH
 70
     0
  9
$DIMBLK1
  1

  9
$DIMBLK2
  1

  9
$LUNITS
 70
     2
  9
$LUPREC
 70
     4
  9
$SKETCHINC
 40
0.1
  9
$FILLETRAD
 40
0.5
  9
$AUNITS
 70
     0
  9
$AUPREC
 70
     0
  9
$MENU
  1
.
  9
$ELEVATION
 40
0.0
  9
$THICKNESS
 40
0.0
  9
$LIMCHECK
 70
     0
  9
$CHAMFERA
 40
0.0
  9
$CHAMFERB
 40
0.0
  9
$SKPOLY
 70
     0
  9
$TDCREATE
 40
2460741.74951713
  9
$TDUPDATE
 40
2460741.749517431
  9
$TDINDWG
 40
0.0000000116
  9
$TDUSRTIMER
 40
0.0000000116
  9
$USRTIMER
 70
     1
  9
$ANGBASE
 50
0.0
  9
$ANGDIR
 70
     0
  9
$PDMODE
 70
     0
  9
$PDSIZE
 40
0.0
  9
$PLINEWID
 40
0.0
  9
$COORDS
 70
     1
  9
$SPLFRAME
 70
     0
  9
$SPLINETYPE
 70
     6
  9
$SPLINESEGS
 70
     8
  9
$ATTDIA
 70
     0
  9
$ATTREQ
 70
     1
  9
$HANDLING
 70
     1
  9
$HANDSEED
  5
52E
  9
$SURFTAB1
 70
     6
  9
$SURFTAB2
 70
     6
  9
$SURFTYPE
 70
     6
  9
$SURFU
 70
     6
  9
$SURFV
 70
     6
  9
$UCSNAME
  2

  9
$UCSORG
 10
0.0
 20
0.0
 30
0.0
  9
$UCSXDIR
 10
1.0
 20
0.0
 30
0.0
  9
$UCSYDIR
 10
0.0
 20
1.0
 30
0.0
  9
$USERI1
 70
     0
  9
$USERI2
 70
     0
  9
$USERI3
 70
     0
  9
$USERI4
 70
     0
  9
$USERI5
 70
     0
  9
$USERR1
 40
0.0
  9
$USERR2
 40
0.0
  9
$USERR3
 40
0.0
  9
$USERR4
 40
0.0
  9
$USERR5
 40
0.0
  9
$WORLDVIEW
 70
     1
  0
ENDSEC
  0
SECTION
  2
TABLES
  0
TABLE
  2
VPORT
 70
     1
  0
VPORT
  2
*ACTIVE
 70
     0
 10
0.0
 20
0.0
 11
1.0
 21
1.0
 12
115.0
 22
565.246590909091
 13
0.0
 23
0.0
 14
0.5
 24
0.5
 15
0.5
 25
0.5
 16
0.0
 26
0.0
 36
1.0
 17
0.0
 27
0.0
 37
0.0
 40
43.50681818181829
 41
1.6
 42
50.0
 43
0.0
 44
0.0
 50
0.0
 51
0.0
 71
     0
 72
   100
 73
     1
 74
     3
 75
     0
 76
     0
 77
     0
 78
     0
  0
ENDTAB
  0
TABLE
  2
LTYPE
 70
     1
  0
LTYPE
  2
CONTINUOUS
 70
     0
  3
Solid line
 72
    65
 73
     0
 40
0.0
  0
ENDTAB
  0
TABLE
  2
LAYER
 70
     1
  0
LAYER
  2
0
 70
     0
 62
     7
  6
CONTINUOUS
  0
ENDTAB
  0
TABLE
  2
STYLE
 70
     2
  0
STYLE
  2
STANDARD
 70
     0
 40
0.0
 41
1.0
 50
0.0
 71
     0
 42
0.2
  3
txt
  4

  0
STYLE
  2
ＭＳ_ゴシック
 70
     0
 40
0.0
 41
1.0
 50
0.0
 71
     0
 42
0.2
  3
ＭＳ ゴシック.shx
  4

  0
ENDTAB
  0
TABLE
  2
VIEW
 70
     0
  0
ENDTAB
  0
TABLE
  2
UCS
 70
     0
  0
ENDTAB
  0
ENDSEC
  0
SECTION
  2
BLOCKS
  0
ENDSEC
  0
SECTION
  2
ENTITIES
  0
TEXT
  5
6F
  8
0
  6
CONTINUOUS
 62
     7
 10
134.8635425784669
 20
543.1795454545455
 30
0.0
 40
3.0
  1
ＫＨＰＶ－２８
  0
ARC
  5
70
  8
0
  6
CONTINUOUS
 62
     7
 10
150.0270616853133
 20
570.0
 30
0.0
 40
14.24999999999999
 50
181.015690330657
 51
178.984309669343
  0
LINE
  5
71
  8
0
  6
CONTINUOUS
 62
     7
 10
135.2793001415616
 20
570.2569619595209
 30
0.0
 11
135.7793006686772
 21
570.2525985210254
 31
0.0
  0
ARC
  5
72
  8
0
  6
CONTINUOUS
 62
     7
 10
150.0270616853133
 20
570.0
 30
0.0
 40
14.75
 50
180.9982088541769
 51
179.0017911458231
  0
LINE
  5
73
  8
0
  6
CONTINUOUS
 62
     7
 10
135.2793001415616
 20
569.7430380404792
 30
0.0
 11
135.7793006686772
 21
569.7474014789747
 31
0.0
  0
LINE
  5
74
  8
0
  6
CONTINUOUS
 62
     7
 10
136.0770616853133
 20
569.7500000000001
 30
0.0
 11
136.0770616853133
 21
570.25
 31
0.0
  0
LINE
  5
75
  8
0
  6
CONTINUOUS
 62
     7
 10
135.7793006686772
 20
570.2525985210254
 30
0.0
 11
136.0770616853133
 21
570.25
 31
0.0
  0
LINE
  5
76
  8
0
  6
CONTINUOUS
 62
     7
 10
135.7793006686772
 20
569.7474014789747
 30
0.0
 11
136.0770616853133
 21
569.7500000000001
 31
0.0
  0
CIRCLE
  5
77
  8
0
  6
CONTINUOUS
 62
   253
 10
150.0270616853133
 20
570.0
 30
0.0
 40
13.94565560529748
  0
CIRCLE
  5
78
  8
0
  6
CONTINUOUS
 62
   253
 10
150.0270616853133
 20
570.0
 30
0.0
 40
13.44567464376541
  0
CIRCLE
  5
79
  8
0
  6
CONTINUOUS
 62
   253
 10
150.0270616853133
 20
570.0
 30
0.0
 40
13.34486916399583
  0
LINE
  5
7A
  8
0
  6
CONTINUOUS
 62
     7
 10
162.7770527711435
 20
569.7500000000001
 30
0.0
 11
150.4600743872055
 21
569.7500000000001
 31
0.0
  0
ARC
  5
7B
  8
0
  6
CONTINUOUS
 62
   253
 10
150.0270616853133
 20
569.7650768448036
 30
0.0
 40
12.75
 50
357.0204619431692
 51
359.9322478606326
  0
ARC
  5
7C
  8
0
  6
CONTINUOUS
 62
   253
 10
150.9640607190807
 20
358.5823731185305
 30
0.0
 40
210.8501761369599
 50
86.79298069991165
 51
89.98753729487174
  0
LINE
  5
7D
  8
0
  6
CONTINUOUS
 62
     7
 10
151.0099238450046
 20
569.4325442675259
 30
0.0
 11
150.4600743872055
 21
569.7500000000001
 31
0.0
  0
ARC
  5
7E
  8
0
  6
CONTINUOUS
 62
   253
 10
151.1447964611272
 20
363.5391435979203
 30
0.0
 40
205.4258529105562
 50
86.77994441152866
 51
89.81121085434742
  0
LINE
  5
7F
  8
0
  6
CONTINUOUS
 62
     7
 10
151.8216718159861
 20
568.9638813579658
 30
0.0
 11
151.0099238450046
 21
569.4325442675259
 31
0.0
  0
LINE
  5
80
  8
0
  6
CONTINUOUS
 62
   253
 10
162.7598257472598
 20
569.1023405904712
 30
0.0
 11
162.7435458231028
 21
569.0590359061786
 31
0.0
  0
LINE
  5
81
  8
0
  6
CONTINUOUS
 62
   253
 10
162.7435458231028
 20
569.0590359061786
 30
0.0
 11
162.7279253746221
 21
568.9984526507681
 31
0.0
  0
LINE
  5
82
  8
0
  6
CONTINUOUS
 62
   253
 10
162.7279253746221
 20
568.9984526507681
 30
0.0
 11
162.7135971631086
 21
568.9230449624132
 31
0.0
  0
LINE
  5
83
  8
0
  6
CONTINUOUS
 62
   253
 10
162.7135971631086
 20
568.9230449624132
 30
0.0
 11
162.7011416032429
 21
568.8358674951648
 31
0.0
  0
LINE
  5
84
  8
0
  6
CONTINUOUS
 62
   253
 10
162.7011416032429
 20
568.8358674951648
 30
0.0
 11
162.6910632513536
 21
568.7404516794287
 31
0.0
  0
LINE
  5
85
  8
0
  6
CONTINUOUS
 62
   253
 10
162.6910632513536
 20
568.7404516794287
 30
0.0
 11
162.6837703665866
 21
568.6406626689369
 31
0.0
  0
ARC
  5
86
  8
0
  6
CONTINUOUS
 62
   253
 10
-33.53447351872066
 20
674.8973484741553
 30
0.0
 40
210.8501761369328
 50
326.7929806999118
 51
329.9875372948723
  0
LINE
  5
87
  8
0
  6
CONTINUOUS
 62
   253
 10
142.883283801742
 20
559.4219325667254
 30
0.0
 11
142.8539208071202
 21
559.4576837367633
 31
0.0
  0
LINE
  5
88
  8
0
  6
CONTINUOUS
 62
   253
 10
142.8539208071202
 20
559.4576837367633
 30
0.0
 11
142.8092643931311
 21
559.5015030696713
 31
0.0
  0
LINE
  5
89
  8
0
  6
CONTINUOUS
 62
   253
 10
142.8092643931311
 20
559.5015030696713
 30
0.0
 11
142.7511235251318
 21
559.5516155090103
 31
0.0
  0
LINE
  5
8A
  8
0
  6
CONTINUOUS
 62
   253
 10
142.7511235251318
 20
559.5516155090103
 30
0.0
 11
142.68185340379
 21
559.6059910738966
 31
0.0
  0
LINE
  5
8B
  8
0
  6
CONTINUOUS
 62
   253
 10
142.68185340379
 20
559.6059910738966
 30
0.0
 11
142.6042600593843
 21
559.662427090529
 31
0.0
  0
LINE
  5
8C
  8
0
  6
CONTINUOUS
 62
   253
 10
142.6042600593843
 20
559.662427090529
 30
0.0
 11
142.5214866836633
 21
559.7186374192501
 31
0.0
  0
ARC
  5
8D
  8
0
  6
CONTINUOUS
 62
   253
 10
-29.33215223392577
 20
672.262441490516
 30
0.0
 40
205.4258529106028
 50
326.7799444115291
 51
329.811210854347
  0
LINE
  5
8E
  8
0
  6
CONTINUOUS
 62
     7
 10
149.0441995256219
 20
569.4325442675259
 30
0.0
 11
148.2324515546404
 21
568.9638813579658
 31
0.0
  0
LINE
  5
8F
  8
0
  6
CONTINUOUS
 62
     7
 10
143.435559791452
 20
559.0831838216459
 30
0.0
 11
149.594048983421
 21
569.7500000000001
 31
0.0
  0
ARC
  5
90
  8
0
  6
CONTINUOUS
 62
   253
 10
149.8236122649759
 20
570.1174615775983
 30
0.0
 40
12.75
 50
237.0204619431696
 51
239.9322478606326
  0
LINE
  5
91
  8
0
  6
CONTINUOUS
 62
     7
 10
149.0441995256219
 20
569.4325442675259
 30
0.0
 11
149.594048983421
 21
569.7500000000001
 31
0.0
  0
LINE
  5
92
  8
0
  6
CONTINUOUS
 62
     7
 10
156.6185635791745
 20
580.9168161783542
 30
0.0
 11
150.4600743872055
 21
570.25
 31
0.0
  0
ARC
  5
93
  8
0
  6
CONTINUOUS
 62
   253
 10
150.2305111056506
 20
569.8825384224018
 30
0.0
 40
12.75
 50
57.02046194316959
 51
59.93224786063265
  0
ARC
  5
94
  8
0
  6
CONTINUOUS
 62
   253
 10
333.5885968893472
 20
465.1026515258449
 30
0.0
 40
210.8501761369328
 50
146.7929806999118
 51
149.9875372948724
  0
LINE
  5
95
  8
0
  6
CONTINUOUS
 62
     7
 10
151.0099238450046
 20
570.5674557324742
 30
0.0
 11
150.4600743872055
 21
570.25
 31
0.0
  0
ARC
  5
96
  8
0
  6
CONTINUOUS
 62
   253
 10
329.3862756045523
 20
467.7375585094841
 30
0.0
 40
205.4258529106028
 50
146.7799444115291
 51
149.8112108543468
  0
LINE
  5
97
  8
0
  6
CONTINUOUS
 62
     7
 10
151.8216718159861
 20
571.0361186420344
 30
0.0
 11
151.0099238450046
 21
570.5674557324742
 31
0.0
  0
LINE
  5
98
  8
0
  6
CONTINUOUS
 62
   253
 10
157.1708395688845
 20
580.5780674332749
 30
0.0
 11
157.2002025635063
 21
580.542316263237
 31
0.0
  0
LINE
  5
99
  8
0
  6
CONTINUOUS
 62
   253
 10
157.2002025635063
 20
580.542316263237
 30
0.0
 11
157.2448589774954
 21
580.4984969303289
 31
0.0
  0
LINE
  5
9A
  8
0
  6
CONTINUOUS
 62
   253
 10
157.2448589774954
 20
580.4984969303289
 30
0.0
 11
157.3029998454947
 21
580.44838449099
 31
0.0
  0
LINE
  5
9B
  8
0
  6
CONTINUOUS
 62
   253
 10
157.3029998454947
 20
580.44838449099
 30
0.0
 11
157.3722699668365
 21
580.3940089261037
 31
0.0
  0
LINE
  5
9C
  8
0
  6
CONTINUOUS
 62
   253
 10
157.3722699668365
 20
580.3940089261037
 30
0.0
 11
157.4498633112422
 21
580.3375729094712
 31
0.0
  0
LINE
  5
9D
  8
0
  6
CONTINUOUS
 62
   253
 10
157.4498633112422
 20
580.3375729094712
 30
0.0
 11
157.5326366869632
 21
580.28136258075
 31
0.0
  0
LINE
  5
9E
  8
0
  6
CONTINUOUS
 62
     7
 10
143.8685724933443
 20
581.1668161783542
 30
0.0
 11
150.0270616853133
 21
570.5
 31
0.0
  0
ARC
  5
9F
  8
0
  6
CONTINUOUS
 62
   253
 10
150.2305111056506
 20
570.1174615775983
 30
0.0
 40
12.75
 50
117.0204619431695
 51
119.9322478606327
  0
ARC
  5
A0
  8
0
  6
CONTINUOUS
 62
   253
 10
332.6515978555348
 20
676.5202784072642
 30
0.0
 40
210.8501761368843
 50
206.7929806999113
 51
209.9875372948727
  0
LINE
  5
A1
  8
0
  6
CONTINUOUS
 62
     7
 10
150.0270616853133
 20
571.1349114649483
 30
0.0
 11
150.0270616853133
 21
570.5
 31
0.0
  0
LINE
  5
A2
  8
0
  6
CONTINUOUS
 62
   253
 10
144.4380755069381
 20
581.4757268428035
 30
0.0
 11
144.4837184257169
 21
581.4832803570582
 31
0.0
  0
LINE
  5
A3
  8
0
  6
CONTINUOUS
 62
   253
 10
144.4837184257169
 20
581.4832803570582
 30
0.0
 11
144.5439952881867
 21
581.5000442795607
 31
0.0
  0
LINE
  5
A4
  8
0
  6
CONTINUOUS
 62
   253
 10
144.5439952881867
 20
581.5000442795607
 30
0.0
 11
144.6164643676994
 21
581.5253395285766
 31
0.0
  0
LINE
  5
A5
  8
0
  6
CONTINUOUS
 62
   253
 10
144.6164643676994
 20
581.5253395285766
 30
0.0
 11
144.698190048907
 21
581.5581414309388
 31
0.0
  0
LINE
  5
A6
  8
0
  6
CONTINUOUS
 62
   253
 10
144.698190048907
 20
581.5581414309388
 30
0.0
 11
144.7858617452019
 21
581.5971212300424
 31
0.0
  0
LINE
  5
A7
  8
0
  6
CONTINUOUS
 62
   253
 10
144.7858617452019
 20
581.5971212300424
 30
0.0
 11
144.8759280056899
 21
581.6406999118133
 31
0.0
  0
ARC
  5
A8
  8
0
  6
CONTINUOUS
 62
   253
 10
328.2685408289532
 20
674.1984149117258
 30
0.0
 40
205.4258529108456
 50
206.7799444115309
 51
209.8112108543453
  0
LINE
  5
A9
  8
0
  6
CONTINUOUS
 62
     7
 10
150.0270616853133
 20
572.0722372840687
 30
0.0
 11
150.0270616853133
 21
571.1349114649483
 31
0.0
  0
ARC
  5
AA
  8
0
  6
CONTINUOUS
 62
   253
 10
329.3771439264854
 20
672.2568006774665
 30
0.0
 40
205.4151232454105
 50
210.1887099595088
 51
213.2201347746151
  0
LINE
  5
AB
  8
0
  6
CONTINUOUS
 62
   253
 10
157.5326366869631
 20
559.7186374192502
 30
0.0
 11
157.4498633112421
 21
559.6624270905291
 31
0.0
  0
LINE
  5
AC
  8
0
  6
CONTINUOUS
 62
   253
 10
157.4498633112421
 20
559.6624270905291
 30
0.0
 11
157.3722699668365
 21
559.6059910738966
 31
0.0
  0
LINE
  5
AD
  8
0
  6
CONTINUOUS
 62
   253
 10
157.3722699668365
 20
559.6059910738966
 30
0.0
 11
157.3029998454946
 21
559.5516155090103
 31
0.0
  0
LINE
  5
AE
  8
0
  6
CONTINUOUS
 62
   253
 10
157.3029998454946
 20
559.5516155090103
 30
0.0
 11
157.2448589774954
 21
559.5015030696715
 31
0.0
  0
LINE
  5
AF
  8
0
  6
CONTINUOUS
 62
   253
 10
157.2448589774954
 20
559.5015030696715
 30
0.0
 11
157.2002025635063
 21
559.4576837367634
 31
0.0
  0
LINE
  5
B0
  8
0
  6
CONTINUOUS
 62
   253
 10
157.2002025635063
 20
559.4576837367634
 30
0.0
 11
157.1708395688845
 21
559.4219325667253
 31
0.0
  0
ARC
  5
B1
  8
0
  6
CONTINUOUS
 62
   253
 10
333.5725895633407
 20
674.8874969496487
 30
0.0
 40
210.831387509957
 50
210.0123203238418
 51
213.2071616813739
  0
LINE
  5
B2
  8
0
  6
CONTINUOUS
 62
     7
 10
150.4600743872055
 20
569.7500000000001
 30
0.0
 11
156.6185635791745
 21
559.0831838216459
 31
0.0
  0
ARC
  5
B3
  8
0
  6
CONTINUOUS
 62
   253
 10
150.2305111056506
 20
570.1174615775983
 30
0.0
 40
12.75
 50
300.0677521393672
 51
302.97953805683
  0
LINE
  5
B4
  8
0
  6
CONTINUOUS
 62
     7
 10
149.594048983421
 20
569.7500000000001
 30
0.0
 11
137.277070599483
 21
569.7500000000001
 31
0.0
  0
ARC
  5
B5
  8
0
  6
CONTINUOUS
 62
   253
 10
149.0895346440634
 20
358.6011616315886
 30
0.0
 40
210.8313875101476
 50
90.01232032384341
 51
93.2071616813725
  0
ARC
  5
B6
  8
0
  6
CONTINUOUS
 62
   253
 10
150.0270616853133
 20
569.7650768448036
 30
0.0
 40
12.75
 50
180.0677521393673
 51
182.9795380568301
  0
ARC
  5
B7
  8
0
  6
CONTINUOUS
 62
   253
 10
148.9090076611427
 20
363.5498722693449
 30
0.0
 40
205.4151232456492
 50
90.18870995951077
 51
93.22013477461333
  0
LINE
  5
B8
  8
0
  6
CONTINUOUS
 62
   253
 10
137.3703530040401
 20
568.6406626689369
 30
0.0
 11
137.3630601192731
 21
568.7404516794288
 31
0.0
  0
LINE
  5
B9
  8
0
  6
CONTINUOUS
 62
   253
 10
137.3630601192731
 20
568.7404516794288
 30
0.0
 11
137.3529817673838
 21
568.835867495165
 31
0.0
  0
LINE
  5
BA
  8
0
  6
CONTINUOUS
 62
   253
 10
137.3529817673838
 20
568.835867495165
 30
0.0
 11
137.3405262075181
 21
568.9230449624133
 31
0.0
  0
LINE
  5
BB
  8
0
  6
CONTINUOUS
 62
   253
 10
137.3405262075181
 20
568.9230449624133
 30
0.0
 11
137.3261979960046
 21
568.9984526507682
 31
0.0
  0
LINE
  5
BC
  8
0
  6
CONTINUOUS
 62
   253
 10
137.3261979960046
 20
568.9984526507682
 30
0.0
 11
137.3105775475238
 21
569.0590359061787
 31
0.0
  0
LINE
  5
BD
  8
0
  6
CONTINUOUS
 62
   253
 10
137.3105775475238
 20
569.0590359061787
 30
0.0
 11
137.2942976233669
 21
569.1023405904714
 31
0.0
  0
LINE
  5
BE
  8
0
  6
CONTINUOUS
 62
     7
 10
150.4600743872055
 20
570.25
 30
0.0
 11
162.7770527711435
 21
570.25
 31
0.0
  0
ARC
  5
BF
  8
0
  6
CONTINUOUS
 62
   253
 10
150.9645887265631
 20
781.3988383684123
 30
0.0
 40
210.8313875101483
 50
270.0123203238434
 51
273.2071616813726
  0
ARC
  5
C0
  8
0
  6
CONTINUOUS
 62
   253
 10
150.0270616853133
 20
570.2349231551965
 30
0.0
 40
12.75
 50
0.0677521393672761
 51
2.979538056830092
  0
ARC
  5
C1
  8
0
  6
CONTINUOUS
 62
   253
 10
151.1451157094838
 20
776.4501277306553
 30
0.0
 40
205.4151232456492
 50
270.1887099595107
 51
273.2201347746133
  0
LINE
  5
C2
  8
0
  6
CONTINUOUS
 62
   253
 10
162.6837703665864
 20
571.3593373310631
 30
0.0
 11
162.6910632513535
 21
571.2595483205713
 31
0.0
  0
LINE
  5
C3
  8
0
  6
CONTINUOUS
 62
   253
 10
162.6910632513535
 20
571.2595483205713
 30
0.0
 11
162.7011416032427
 21
571.1641325048352
 31
0.0
  0
LINE
  5
C4
  8
0
  6
CONTINUOUS
 62
   253
 10
162.7011416032427
 20
571.1641325048352
 30
0.0
 11
162.7135971631085
 21
571.0769550375868
 31
0.0
  0
LINE
  5
C5
  8
0
  6
CONTINUOUS
 62
   253
 10
162.7135971631085
 20
571.0769550375868
 30
0.0
 11
162.7279253746219
 21
571.0015473492319
 31
0.0
  0
LINE
  5
C6
  8
0
  6
CONTINUOUS
 62
   253
 10
162.7279253746219
 20
571.0015473492319
 30
0.0
 11
162.7435458231027
 21
570.9409640938213
 31
0.0
  0
LINE
  5
C7
  8
0
  6
CONTINUOUS
 62
   253
 10
162.7435458231027
 20
570.9409640938213
 30
0.0
 11
162.7598257472597
 21
570.8976594095287
 31
0.0
  0
LINE
  5
C8
  8
0
  6
CONTINUOUS
 62
     7
 10
150.0270616853133
 20
570.5
 30
0.0
 11
156.1855508772823
 21
581.1668161783542
 31
0.0
  0
ARC
  5
C9
  8
0
  6
CONTINUOUS
 62
   253
 10
-32.5809391514075
 20
676.5113414185447
 30
0.0
 40
210.8313875098986
 50
330.0123203238412
 51
333.2071616813744
  0
ARC
  5
CA
  8
0
  6
CONTINUOUS
 62
   253
 10
149.8236122649759
 20
570.1174615775983
 30
0.0
 40
12.75
 50
60.06775213936724
 51
62.97953805683018
  0
ARC
  5
CB
  8
0
  6
CONTINUOUS
 62
   253
 10
-28.20496653182006
 20
674.1933270530251
 30
0.0
 40
205.4151232455689
 50
330.1887099595101
 51
333.220134774614
  0
LINE
  5
CC
  8
0
  6
CONTINUOUS
 62
   253
 10
155.1781953649366
 20
581.6406999118132
 30
0.0
 11
155.2682616254246
 21
581.5971212300425
 31
0.0
  0
LINE
  5
CD
  8
0
  6
CONTINUOUS
 62
   253
 10
155.2682616254246
 20
581.5971212300425
 30
0.0
 11
155.3559333217196
 21
581.5581414309387
 31
0.0
  0
LINE
  5
CE
  8
0
  6
CONTINUOUS
 62
   253
 10
155.3559333217196
 20
581.5581414309387
 30
0.0
 11
155.4376590029271
 21
581.5253395285766
 31
0.0
  0
LINE
  5
CF
  8
0
  6
CONTINUOUS
 62
   253
 10
155.4376590029271
 20
581.5253395285766
 30
0.0
 11
155.5101280824399
 21
581.5000442795606
 31
0.0
  0
LINE
  5
D0
  8
0
  6
CONTINUOUS
 62
   253
 10
155.5101280824399
 20
581.5000442795606
 30
0.0
 11
155.5704049449097
 21
581.4832803570582
 31
0.0
  0
LINE
  5
D1
  8
0
  6
CONTINUOUS
 62
   253
 10
155.5704049449097
 20
581.4832803570582
 30
0.0
 11
155.6160478636885
 21
581.4757268428035
 31
0.0
  0
LINE
  5
D2
  8
0
  6
CONTINUOUS
 62
     7
 10
156.1855508772823
 20
558.8331838216459
 30
0.0
 11
150.0270616853133
 21
569.5000000000001
 31
0.0
  0
ARC
  5
D3
  8
0
  6
CONTINUOUS
 62
   253
 10
149.8236122649759
 20
569.8825384224018
 30
0.0
 40
12.75000000000001
 50
297.0204619431696
 51
299.9322478606327
  0
ARC
  5
D4
  8
0
  6
CONTINUOUS
 62
   253
 10
-32.59747448574613
 20
463.4797215922974
 30
0.0
 40
210.8501761378299
 50
26.79298069991512
 51
29.98753729486242
  0
LINE
  5
D5
  8
0
  6
CONTINUOUS
 62
     7
 10
150.0270616853133
 20
568.8650885350532
 30
0.0
 11
150.0270616853133
 21
569.5
 31
0.0
  0
LINE
  5
D6
  8
0
  6
CONTINUOUS
 62
   253
 10
155.6160478636885
 20
558.5242731571965
 30
0.0
 11
155.5704049449097
 21
558.5167196429418
 31
0.0
  0
LINE
  5
D7
  8
0
  6
CONTINUOUS
 62
   253
 10
155.5704049449097
 20
558.5167196429418
 30
0.0
 11
155.51012808244
 21
558.4999557204394
 31
0.0
  0
LINE
  5
D8
  8
0
  6
CONTINUOUS
 62
   253
 10
155.51012808244
 20
558.4999557204394
 30
0.0
 11
155.4376590029272
 21
558.4746604714234
 31
0.0
  0
LINE
  5
D9
  8
0
  6
CONTINUOUS
 62
   253
 10
155.4376590029272
 20
558.4746604714234
 30
0.0
 11
155.3559333217196
 21
558.4418585690613
 31
0.0
  0
LINE
  5
DA
  8
0
  6
CONTINUOUS
 62
   253
 10
155.3559333217196
 20
558.4418585690613
 30
0.0
 11
155.2682616254247
 21
558.4028787699575
 31
0.0
  0
LINE
  5
DB
  8
0
  6
CONTINUOUS
 62
   253
 10
155.2682616254247
 20
558.4028787699575
 30
0.0
 11
155.1781953649367
 21
558.3593000881868
 31
0.0
  0
ARC
  5
DC
  8
0
  6
CONTINUOUS
 62
   253
 10
-28.21441745827788
 20
465.8015850882994
 30
0.0
 40
205.4258529107908
 50
26.77994441153081
 51
29.81121085434595
  0
LINE
  5
DD
  8
0
  6
CONTINUOUS
 62
     7
 10
150.0270616853133
 20
568.8650885350532
 30
0.0
 11
150.0270616853133
 21
567.9277627159313
 31
0.0
  0
ARC
  5
DE
  8
0
  6
CONTINUOUS
 62
   253
 10
149.0900626515786
 20
781.417626882212
 30
0.0
 40
210.8501761377029
 50
266.792980699914
 51
269.9875372948632
  0
LINE
  5
DF
  8
0
  6
CONTINUOUS
 62
   253
 10
137.2942976233669
 20
570.8976594095287
 30
0.0
 11
137.3105775475239
 21
570.9409640938213
 31
0.0
  0
LINE
  5
E0
  8
0
  6
CONTINUOUS
 62
   253
 10
137.3105775475239
 20
570.9409640938213
 30
0.0
 11
137.3261979960046
 21
571.0015473492318
 31
0.0
  0
LINE
  5
E1
  8
0
  6
CONTINUOUS
 62
   253
 10
137.3261979960046
 20
571.0015473492318
 30
0.0
 11
137.340526207518
 21
571.0769550375868
 31
0.0
  0
LINE
  5
E2
  8
0
  6
CONTINUOUS
 62
   253
 10
137.340526207518
 20
571.0769550375868
 30
0.0
 11
137.3529817673838
 21
571.1641325048352
 31
0.0
  0
LINE
  5
E3
  8
0
  6
CONTINUOUS
 62
   253
 10
137.3529817673838
 20
571.1641325048352
 30
0.0
 11
137.363060119273
 21
571.2595483205712
 31
0.0
  0
LINE
  5
E4
  8
0
  6
CONTINUOUS
 62
   253
 10
137.363060119273
 20
571.2595483205712
 30
0.0
 11
137.37035300404
 21
571.3593373310631
 31
0.0
  0
ARC
  5
E5
  8
0
  6
CONTINUOUS
 62
   253
 10
148.9093269094992
 20
776.4608564020778
 30
0.0
 40
205.425852910554
 50
266.7799444115286
 51
269.8112108543471
  0
LINE
  5
E6
  8
0
  6
CONTINUOUS
 62
     7
 10
149.0441995256231
 20
570.5674557324735
 30
0.0
 11
148.2324515546404
 21
571.0361186420344
 31
0.0
  0
LINE
  5
E7
  8
0
  6
CONTINUOUS
 62
     7
 10
137.277070599483
 20
570.25
 30
0.0
 11
149.594048983421
 21
570.25
 31
0.0
  0
ARC
  5
E8
  8
0
  6
CONTINUOUS
 62
   253
 10
150.0270616853133
 20
570.2349231551965
 30
0.0
 40
12.75
 50
177.0204619431692
 51
179.9322478606326
  0
LINE
  5
E9
  8
0
  6
CONTINUOUS
 62
     7
 10
149.594048983421
 20
570.25
 30
0.0
 11
149.0441995256231
 21
570.5674557324735
 31
0.0
  0
ARC
  5
EA
  8
0
  6
CONTINUOUS
 62
   253
 10
332.6350625228358
 20
463.488658581037
 30
0.0
 40
210.8313875108029
 50
150.0123203238513
 51
153.2071616813711
  0
ARC
  5
EB
  8
0
  6
CONTINUOUS
 62
   253
 10
328.2590899023966
 20
465.8066729470007
 30
0.0
 40
205.4151232455127
 50
150.1887099595093
 51
153.2201347746138
  0
LINE
  5
EC
  8
0
  6
CONTINUOUS
 62
   253
 10
144.87592800569
 20
558.359300088187
 30
0.0
 11
144.7858617452019
 21
558.4028787699576
 31
0.0
  0
LINE
  5
ED
  8
0
  6
CONTINUOUS
 62
   253
 10
144.7858617452019
 20
558.4028787699576
 30
0.0
 11
144.698190048907
 21
558.4418585690614
 31
0.0
  0
LINE
  5
EE
  8
0
  6
CONTINUOUS
 62
   253
 10
144.698190048907
 20
558.4418585690614
 30
0.0
 11
144.6164643676994
 21
558.4746604714235
 31
0.0
  0
LINE
  5
EF
  8
0
  6
CONTINUOUS
 62
   253
 10
144.6164643676994
 20
558.4746604714235
 30
0.0
 11
144.5439952881866
 21
558.4999557204394
 31
0.0
  0
LINE
  5
F0
  8
0
  6
CONTINUOUS
 62
   253
 10
144.5439952881866
 20
558.4999557204394
 30
0.0
 11
144.4837184257169
 21
558.5167196429419
 31
0.0
  0
LINE
  5
F1
  8
0
  6
CONTINUOUS
 62
   253
 10
144.4837184257169
 20
558.5167196429419
 30
0.0
 11
144.4380755069381
 21
558.5242731571966
 31
0.0
  0
LINE
  5
F2
  8
0
  6
CONTINUOUS
 62
     7
 10
150.0270616853133
 20
569.5
 30
0.0
 11
143.8685724933443
 21
558.8331838216459
 31
0.0
  0
ARC
  5
F3
  8
0
  6
CONTINUOUS
 62
   253
 10
150.2305111056506
 20
569.8825384224018
 30
0.0
 40
12.75
 50
240.0677521393672
 51
242.9795380568302
  0
LINE
  5
F4
  8
0
  6
CONTINUOUS
 62
     7
 10
149.594048983421
 20
570.25
 30
0.0
 11
143.435559791452
 21
580.9168161783542
 31
0.0
  0
ARC
  5
F5
  8
0
  6
CONTINUOUS
 62
   253
 10
-33.51846619350849
 20
465.1125030498465
 30
0.0
 40
210.8313875108981
 50
30.01232032385246
 51
33.20716168137051
  0
ARC
  5
F6
  8
0
  6
CONTINUOUS
 62
   253
 10
149.8236122649759
 20
569.8825384224018
 30
0.0
 40
12.75
 50
120.0677521393672
 51
122.9795380568305
  0
ARC
  5
F7
  8
0
  6
CONTINUOUS
 62
   253
 10
-29.32302055585886
 20
467.7431993225336
 30
0.0
 40
205.4151232454105
 50
30.18870995950882
 51
33.22013477461511
  0
LINE
  5
F8
  8
0
  6
CONTINUOUS
 62
   253
 10
142.5214866836634
 20
580.2813625807499
 30
0.0
 11
142.6042600593844
 21
580.3375729094711
 31
0.0
  0
LINE
  5
F9
  8
0
  6
CONTINUOUS
 62
   253
 10
142.6042600593844
 20
580.3375729094711
 30
0.0
 11
142.6818534037901
 21
580.3940089261035
 31
0.0
  0
LINE
  5
FA
  8
0
  6
CONTINUOUS
 62
   253
 10
142.6818534037901
 20
580.3940089261035
 30
0.0
 11
142.7511235251318
 21
580.4483844909898
 31
0.0
  0
LINE
  5
FB
  8
0
  6
CONTINUOUS
 62
   253
 10
142.7511235251318
 20
580.4483844909898
 30
0.0
 11
142.8092643931311
 21
580.4984969303287
 31
0.0
  0
LINE
  5
FC
  8
0
  6
CONTINUOUS
 62
   253
 10
142.8092643931311
 20
580.4984969303287
 30
0.0
 11
142.8539208071202
 21
580.5423162632367
 31
0.0
  0
LINE
  5
FD
  8
0
  6
CONTINUOUS
 62
   253
 10
142.8539208071202
 20
580.5423162632367
 30
0.0
 11
142.883283801742
 21
580.5780674332748
 31
0.0
  0
LINE
  5
FE
  8
0
  6
CONTINUOUS
 62
   253
 10
163.2260389411447
 20
569.3383574222295
 30
0.0
 11
163.0572176777799
 21
568.7269658080972
 31
0.0
  0
ARC
  5
FF
  8
0
  6
CONTINUOUS
 62
   253
 10
150.0270616853133
 20
570.0
 30
0.0
 40
13.21555036692301
 50
357.1302608648843
 51
2.869739135115708
  0
LINE
  5
100
  8
0
  6
CONTINUOUS
 62
   253
 10
163.0572176777802
 20
571.2730341918998
 30
0.0
 11
163.2260389411447
 21
570.6616425777706
 31
0.0
  0
ARC
  5
101
  8
0
  6
CONTINUOUS
 62
   253
 10
150.0270616853133
 20
570.0
 30
0.0
 40
13.0921954324616
 50
5.580035628030394
 51
54.41996437195581
  0
LINE
  5
102
  8
0
  6
CONTINUOUS
 62
   253
 10
157.1995495938037
 20
581.0998283186378
 30
0.0
 11
157.6446196316206
 21
580.6479290087988
 31
0.0
  0
ARC
  5
103
  8
0
  6
CONTINUOUS
 62
   253
 10
150.0270616853133
 20
570.0
 30
0.0
 40
13.21555036692312
 50
57.13026086488429
 51
62.86973913511559
  0
LINE
  5
104
  8
0
  6
CONTINUOUS
 62
   253
 10
155.4396597314754
 20
581.9209632007003
 30
0.0
 11
156.0535510326543
 21
581.7614708964084
 31
0.0
  0
ARC
  5
105
  8
0
  6
CONTINUOUS
 62
   253
 10
150.0270616853133
 20
570.0
 30
0.0
 40
13.09219543246157
 50
65.58003562803042
 51
114.4199643719559
  0
LINE
  5
106
  8
0
  6
CONTINUOUS
 62
   253
 10
144.0005723379722
 20
581.7614708964084
 30
0.0
 11
144.614463639154
 21
581.9209632007016
 31
0.0
  0
ARC
  5
107
  8
0
  6
CONTINUOUS
 62
   253
 10
150.0270616853133
 20
570.0
 30
0.0
 40
13.21555036692268
 50
117.1302608648843
 51
122.8697391351157
  0
LINE
  5
108
  8
0
  6
CONTINUOUS
 62
   253
 10
142.4095037390084
 20
580.6479290088006
 30
0.0
 11
142.8545737768229
 21
581.0998283186378
 31
0.0
  0
ARC
  5
109
  8
0
  6
CONTINUOUS
 62
   253
 10
150.0270616853133
 20
570.0
 30
0.0
 40
13.09219543246156
 50
125.5800356280305
 51
174.4199643719559
  0
LINE
  5
10A
  8
0
  6
CONTINUOUS
 62
   253
 10
136.8280844294818
 20
570.6616425777706
 30
0.0
 11
136.9969056928466
 21
571.2730341919029
 31
0.0
  0
ARC
  5
10B
  8
0
  6
CONTINUOUS
 62
   253
 10
150.0270616853133
 20
570.0
 30
0.0
 40
13.21555036692301
 50
177.1302608648843
 51
182.8697391351157
  0
LINE
  5
10C
  8
0
  6
CONTINUOUS
 62
   253
 10
136.9969056928463
 20
568.7269658081003
 30
0.0
 11
136.8280844294818
 21
569.3383574222295
 31
0.0
  0
ARC
  5
10D
  8
0
  6
CONTINUOUS
 62
   253
 10
150.0270616853133
 20
570.0
 30
0.0
 40
13.0921954324616
 50
185.5800356280304
 51
234.4199643719558
  0
LINE
  5
10E
  8
0
  6
CONTINUOUS
 62
   253
 10
142.8545737768228
 20
558.9001716813623
 30
0.0
 11
142.4095037390059
 21
559.3520709912013
 31
0.0
  0
ARC
  5
10F
  8
0
  6
CONTINUOUS
 62
   253
 10
150.0270616853133
 20
570.0
 30
0.0
 40
13.21555036692275
 50
237.1302608648843
 51
242.8697391351157
  0
LINE
  5
110
  8
0
  6
CONTINUOUS
 62
   253
 10
144.6144636391512
 20
558.0790367992998
 30
0.0
 11
144.0005723379722
 21
558.2385291035918
 31
0.0
  0
ARC
  5
111
  8
0
  6
CONTINUOUS
 62
   253
 10
150.0270616853133
 20
570.0
 30
0.0
 40
13.09219543246157
 50
245.5800356280304
 51
294.4199643719559
  0
LINE
  5
112
  8
0
  6
CONTINUOUS
 62
   253
 10
156.0535510326543
 20
558.2385291035918
 30
0.0
 11
155.4396597314725
 21
558.0790367992985
 31
0.0
  0
ARC
  5
113
  8
0
  6
CONTINUOUS
 62
   253
 10
150.0270616853133
 20
570.0
 30
0.0
 40
13.21555036692294
 50
297.1302608648842
 51
302.8697391351157
  0
LINE
  5
114
  8
0
  6
CONTINUOUS
 62
   253
 10
157.6446196316181
 20
559.3520709911995
 30
0.0
 11
157.1995495938037
 21
558.9001716813623
 31
0.0
  0
ARC
  5
115
  8
0
  6
CONTINUOUS
 62
   253
 10
150.0270616853133
 20
570.0
 30
0.0
 40
13.09219543246155
 50
305.5800356280304
 51
354.4199643719559
  0
LINE
  5
116
  8
0
  6
CONTINUOUS
 62
   253
 10
142.4095037390059
 20
559.3520709912013
 30
0.0
 11
142.5214866836633
 21
559.71863741925
 31
0.0
  0
LINE
  5
117
  8
0
  6
CONTINUOUS
 62
   253
 10
137.3703530040401
 20
568.6406626689369
 30
0.0
 11
136.9969056928463
 21
568.7269658081003
 31
0.0
  0
LINE
  5
118
  8
0
  6
CONTINUOUS
 62
   253
 10
157.6446196316206
 20
580.6479290087988
 30
0.0
 11
157.5326366869632
 21
580.2813625807502
 31
0.0
  0
LINE
  5
119
  8
0
  6
CONTINUOUS
 62
   253
 10
162.6837703665864
 20
571.3593373310632
 30
0.0
 11
163.0572176777802
 21
571.2730341918998
 31
0.0
  0
LINE
  5
11A
  8
0
  6
CONTINUOUS
 62
   253
 10
144.614463639154
 20
581.9209632007016
 30
0.0
 11
144.8759280056899
 21
581.6406999118133
 31
0.0
  0
LINE
  5
11B
  8
0
  6
CONTINUOUS
 62
   253
 10
155.1781953649366
 20
581.6406999118132
 30
0.0
 11
155.4396597314754
 21
581.9209632007003
 31
0.0
  0
LINE
  5
11C
  8
0
  6
CONTINUOUS
 62
   253
 10
136.9969056928466
 20
571.2730341919029
 30
0.0
 11
137.37035300404
 21
571.3593373310632
 31
0.0
  0
LINE
  5
11D
  8
0
  6
CONTINUOUS
 62
   253
 10
142.5214866836634
 20
580.28136258075
 30
0.0
 11
142.4095037390084
 21
580.6479290088006
 31
0.0
  0
LINE
  5
11E
  8
0
  6
CONTINUOUS
 62
   253
 10
144.8759280056899
 20
558.3593000881868
 30
0.0
 11
144.6144636391512
 21
558.0790367992998
 31
0.0
  0
LINE
  5
11F
  8
0
  6
CONTINUOUS
 62
   253
 10
155.4396597314725
 20
558.0790367992985
 30
0.0
 11
155.1781953649366
 21
558.3593000881867
 31
0.0
  0
LINE
  5
120
  8
0
  6
CONTINUOUS
 62
   253
 10
163.0572176777799
 20
568.7269658080972
 30
0.0
 11
162.6837703665866
 21
568.6406626689369
 31
0.0
  0
LINE
  5
121
  8
0
  6
CONTINUOUS
 62
   253
 10
157.5326366869631
 20
559.7186374192501
 30
0.0
 11
157.6446196316181
 21
559.3520709911995
 31
0.0
  0
LINE
  5
122
  8
0
  6
CONTINUOUS
 62
   253
 10
137.043364483018
 20
569.3491490500052
 30
0.0
 11
137.1692141674991
 21
569.1272845044706
 31
0.0
  0
LINE
  5
123
  8
0
  6
CONTINUOUS
 62
   253
 10
136.9969056928428
 20
568.7269658081024
 30
0.0
 11
137.0422835523251
 21
568.812662013782
 31
0.0
  0
LINE
  5
124
  8
0
  6
CONTINUOUS
 62
   253
 10
137.0422835523251
 20
568.812662013782
 30
0.0
 11
137.0828347987789
 21
568.8947200474804
 31
0.0
  0
LINE
  5
125
  8
0
  6
CONTINUOUS
 62
   253
 10
137.0828347987789
 20
568.8947200474804
 30
0.0
 11
137.1169792480183
 21
568.969942305708
 31
0.0
  0
LINE
  5
126
  8
0
  6
CONTINUOUS
 62
   253
 10
137.1169792480183
 20
568.969942305708
 30
0.0
 11
137.1433863732791
 21
569.0353975586435
 31
0.0
  0
LINE
  5
127
  8
0
  6
CONTINUOUS
 62
   253
 10
137.1433863732791
 20
569.0353975586435
 30
0.0
 11
137.1610271526353
 21
569.0885351730856
 31
0.0
  0
LINE
  5
128
  8
0
  6
CONTINUOUS
 62
   253
 10
137.1610271526353
 20
569.0885351730856
 30
0.0
 11
137.1692141674991
 21
569.1272845044705
 31
0.0
  0
LINE
  5
129
  8
0
  6
CONTINUOUS
 62
   253
 10
137.043364483018
 20
569.3491490500052
 30
0.0
 11
136.8280844294818
 21
569.3383574222295
 31
0.0
  0
LINE
  5
12A
  8
0
  6
CONTINUOUS
 62
   253
 10
142.9715596273928
 20
580.9187861372352
 30
0.0
 11
142.8423441370013
 21
580.698864840649
 31
0.0
  0
LINE
  5
12B
  8
0
  6
CONTINUOUS
 62
   253
 10
142.4095037390083
 20
580.6479290088047
 30
0.0
 11
142.5064077598759
 21
580.6514787325635
 31
0.0
  0
LINE
  5
12C
  8
0
  6
CONTINUOUS
 62
   253
 10
142.5064077598759
 20
580.6514787325635
 30
0.0
 11
142.5977477248703
 21
580.6573893398286
 31
0.0
  0
LINE
  5
12D
  8
0
  6
CONTINUOUS
 62
   253
 10
142.5977477248703
 20
580.6573893398286
 30
0.0
 11
142.6799643360451
 21
580.6654305085028
 31
0.0
  0
LINE
  5
12E
  8
0
  6
CONTINUOUS
 62
   253
 10
142.6799643360451
 20
580.6654305085028
 30
0.0
 11
142.7498538105289
 21
580.6752888936539
 31
0.0
  0
LINE
  5
12F
  8
0
  6
CONTINUOUS
 62
   253
 10
142.7498538105289
 20
580.6752888936539
 30
0.0
 11
142.8046927242104
 21
580.6865803378099
 31
0.0
  0
LINE
  5
130
  8
0
  6
CONTINUOUS
 62
   253
 10
142.8046927242104
 20
580.6865803378099
 30
0.0
 11
142.8423441370013
 21
580.6988648406491
 31
0.0
  0
LINE
  5
131
  8
0
  6
CONTINUOUS
 62
   253
 10
142.9715596273928
 20
580.9187861372352
 30
0.0
 11
142.8545737768228
 21
581.0998283186378
 31
0.0
  0
LINE
  5
132
  8
0
  6
CONTINUOUS
 62
   253
 10
156.0535510326543
 20
581.7614708964084
 30
0.0
 11
155.9552568296881
 21
581.5696370872301
 31
0.0
  0
LINE
  5
133
  8
0
  6
CONTINUOUS
 62
   253
 10
155.9552568296881
 20
581.5696370872301
 30
0.0
 11
155.7001916548154
 21
581.5715803361785
 31
0.0
  0
LINE
  5
134
  8
0
  6
CONTINUOUS
 62
   253
 10
155.4396597314754
 20
581.9209632007002
 30
0.0
 11
155.4911858928609
 21
581.8388167187794
 31
0.0
  0
LINE
  5
135
  8
0
  6
CONTINUOUS
 62
   253
 10
155.4911858928609
 20
581.8388167187794
 30
0.0
 11
155.5419746114017
 21
581.7626692923461
 31
0.0
  0
LINE
  5
136
  8
0
  6
CONTINUOUS
 62
   253
 10
155.5419746114017
 20
581.7626692923461
 30
0.0
 11
155.5900467733374
 21
581.6954882027931
 31
0.0
  0
LINE
  5
137
  8
0
  6
CONTINUOUS
 62
   253
 10
155.5900467733374
 20
581.6954882027931
 30
0.0
 11
155.6335291225608
 21
581.6398913350087
 31
0.0
  0
LINE
  5
138
  8
0
  6
CONTINUOUS
 62
   253
 10
155.6335291225608
 20
581.6398913350087
 30
0.0
 11
155.6707272568866
 21
581.598045164723
 31
0.0
  0
LINE
  5
139
  8
0
  6
CONTINUOUS
 62
   253
 10
155.6707272568866
 20
581.598045164723
 30
0.0
 11
155.7001916548143
 21
581.5715803361777
 31
0.0
  0
LINE
  5
13A
  8
0
  6
CONTINUOUS
 62
   253
 10
144.0988665409384
 20
558.43036291277
 30
0.0
 11
144.3539317158111
 21
558.4284196638216
 31
0.0
  0
LINE
  5
13B
  8
0
  6
CONTINUOUS
 62
   253
 10
144.6144636391477
 20
558.0790367992977
 30
0.0
 11
144.5629374777623
 21
558.1611832812185
 31
0.0
  0
LINE
  5
13C
  8
0
  6
CONTINUOUS
 62
   253
 10
144.5629374777623
 20
558.1611832812185
 30
0.0
 11
144.5121487592217
 21
558.2373307076518
 31
0.0
  0
LINE
  5
13D
  8
0
  6
CONTINUOUS
 62
   253
 10
144.5121487592217
 20
558.2373307076518
 30
0.0
 11
144.4640765972864
 21
558.3045117972051
 31
0.0
  0
LINE
  5
13E
  8
0
  6
CONTINUOUS
 62
   253
 10
144.4640765972864
 20
558.3045117972051
 30
0.0
 11
144.4205942480634
 21
558.3601086649896
 31
0.0
  0
LINE
  5
13F
  8
0
  6
CONTINUOUS
 62
   253
 10
144.4205942480634
 20
558.3601086649896
 30
0.0
 11
144.3833961137381
 21
558.4019548352758
 31
0.0
  0
LINE
  5
140
  8
0
  6
CONTINUOUS
 62
   253
 10
144.3833961137381
 20
558.4019548352758
 30
0.0
 11
144.3539317158111
 21
558.4284196638215
 31
0.0
  0
LINE
  5
141
  8
0
  6
CONTINUOUS
 62
   253
 10
144.0988665409384
 20
558.43036291277
 30
0.0
 11
144.0005723379722
 21
558.2385291035918
 31
0.0
  0
LINE
  5
142
  8
0
  6
CONTINUOUS
 62
   253
 10
163.2260389411447
 20
570.6616425777706
 30
0.0
 11
163.0107588876086
 21
570.650850949995
 31
0.0
  0
LINE
  5
143
  8
0
  6
CONTINUOUS
 62
   253
 10
163.0107588876086
 20
570.650850949995
 30
0.0
 11
162.8849092031274
 21
570.8727154955295
 31
0.0
  0
LINE
  5
144
  8
0
  6
CONTINUOUS
 62
   253
 10
163.0572176777802
 20
571.2730341918997
 30
0.0
 11
163.011839818298
 21
571.18733798622
 31
0.0
  0
LINE
  5
145
  8
0
  6
CONTINUOUS
 62
   253
 10
163.011839818298
 20
571.18733798622
 30
0.0
 11
162.9712885718444
 21
571.1052799525214
 31
0.0
  0
LINE
  5
146
  8
0
  6
CONTINUOUS
 62
   253
 10
162.9712885718444
 20
571.1052799525214
 30
0.0
 11
162.9371441226054
 21
571.0300576942938
 31
0.0
  0
LINE
  5
147
  8
0
  6
CONTINUOUS
 62
   253
 10
162.9371441226054
 20
571.0300576942938
 30
0.0
 11
162.9107369973449
 21
570.9646024413578
 31
0.0
  0
LINE
  5
148
  8
0
  6
CONTINUOUS
 62
   253
 10
162.9107369973449
 20
570.9646024413578
 30
0.0
 11
162.8930962179893
 21
570.9114648269153
 31
0.0
  0
LINE
  5
149
  8
0
  6
CONTINUOUS
 62
   253
 10
162.8930962179893
 20
570.9114648269153
 30
0.0
 11
162.884909203126
 21
570.8727154955302
 31
0.0
  0
LINE
  5
14A
  8
0
  6
CONTINUOUS
 62
   253
 10
157.1995495938037
 20
558.9001716813623
 30
0.0
 11
157.0825637432337
 21
559.0812138627648
 31
0.0
  0
LINE
  5
14B
  8
0
  6
CONTINUOUS
 62
   253
 10
157.0825637432337
 20
559.0812138627648
 30
0.0
 11
157.2117792336252
 21
559.3011351593511
 31
0.0
  0
LINE
  5
14C
  8
0
  6
CONTINUOUS
 62
   253
 10
157.6446196316181
 20
559.3520709911995
 30
0.0
 11
157.5477156107504
 21
559.3485212674406
 31
0.0
  0
LINE
  5
14D
  8
0
  6
CONTINUOUS
 62
   253
 10
157.5477156107504
 20
559.3485212674406
 30
0.0
 11
157.4563756457561
 21
559.3426106601752
 31
0.0
  0
LINE
  5
14E
  8
0
  6
CONTINUOUS
 62
   253
 10
157.4563756457561
 20
559.3426106601752
 30
0.0
 11
157.3741590345813
 21
559.3345694915006
 31
0.0
  0
LINE
  5
14F
  8
0
  6
CONTINUOUS
 62
   253
 10
157.3741590345813
 20
559.3345694915006
 30
0.0
 11
157.3042695600975
 21
559.3247111063491
 31
0.0
  0
LINE
  5
150
  8
0
  6
CONTINUOUS
 62
   253
 10
157.3042695600975
 20
559.3247111063491
 30
0.0
 11
157.2494306464161
 21
559.3134196621925
 31
0.0
  0
LINE
  5
151
  8
0
  6
CONTINUOUS
 62
   253
 10
157.2494306464161
 20
559.3134196621925
 30
0.0
 11
157.2117792336252
 21
559.3011351593526
 31
0.0
  0
LINE
  5
152
  8
0
  6
CONTINUOUS
 62
   253
 10
137.1692141675008
 20
570.8727154955304
 30
0.0
 11
137.043364483018
 21
570.650850949995
 31
0.0
  0
LINE
  5
153
  8
0
  6
CONTINUOUS
 62
   253
 10
137.043364483018
 20
570.650850949995
 30
0.0
 11
136.8280844294818
 21
570.6616425777706
 31
0.0
  0
LINE
  5
154
  8
0
  6
CONTINUOUS
 62
   253
 10
137.1692141675008
 20
570.8727154955304
 30
0.0
 11
137.1610271526372
 21
570.9114648269157
 31
0.0
  0
LINE
  5
155
  8
0
  6
CONTINUOUS
 62
   253
 10
137.1610271526372
 20
570.9114648269157
 30
0.0
 11
137.1433863732813
 21
570.9646024413584
 31
0.0
  0
LINE
  5
156
  8
0
  6
CONTINUOUS
 62
   253
 10
137.1433863732813
 20
570.9646024413584
 30
0.0
 11
137.1169792480208
 21
571.0300576942947
 31
0.0
  0
LINE
  5
157
  8
0
  6
CONTINUOUS
 62
   253
 10
137.1169792480208
 20
571.0300576942947
 30
0.0
 11
137.0828347987818
 21
571.105279952523
 31
0.0
  0
LINE
  5
158
  8
0
  6
CONTINUOUS
 62
   253
 10
137.0828347987818
 20
571.105279952523
 30
0.0
 11
137.0422835523283
 21
571.1873379862222
 31
0.0
  0
LINE
  5
159
  8
0
  6
CONTINUOUS
 62
   253
 10
137.0422835523283
 20
571.1873379862222
 30
0.0
 11
136.9969056928464
 21
571.2730341919026
 31
0.0
  0
LINE
  5
15A
  8
0
  6
CONTINUOUS
 62
   253
 10
155.7001916548137
 20
558.4284196638224
 30
0.0
 11
155.6707272568861
 21
558.4019548352768
 31
0.0
  0
LINE
  5
15B
  8
0
  6
CONTINUOUS
 62
   253
 10
155.6707272568861
 20
558.4019548352768
 30
0.0
 11
155.6335291225601
 21
558.3601086649908
 31
0.0
  0
LINE
  5
15C
  8
0
  6
CONTINUOUS
 62
   253
 10
155.6335291225601
 20
558.3601086649908
 30
0.0
 11
155.5900467733364
 21
558.3045117972063
 31
0.0
  0
LINE
  5
15D
  8
0
  6
CONTINUOUS
 62
   253
 10
155.5900467733364
 20
558.3045117972063
 30
0.0
 11
155.5419746114002
 21
558.2373307076529
 31
0.0
  0
LINE
  5
15E
  8
0
  6
CONTINUOUS
 62
   253
 10
155.5419746114002
 20
558.2373307076529
 30
0.0
 11
155.4911858928587
 21
558.1611832812195
 31
0.0
  0
LINE
  5
15F
  8
0
  6
CONTINUOUS
 62
   253
 10
155.4911858928587
 20
558.1611832812195
 30
0.0
 11
155.4396597314725
 21
558.0790367992986
 31
0.0
  0
LINE
  5
160
  8
0
  6
CONTINUOUS
 62
   253
 10
155.7001916548139
 20
558.4284196638225
 30
0.0
 11
155.9552568296883
 21
558.43036291277
 31
0.0
  0
LINE
  5
161
  8
0
  6
CONTINUOUS
 62
   253
 10
156.0535510326543
 20
558.2385291035918
 30
0.0
 11
155.9552568296881
 21
558.43036291277
 31
0.0
  0
LINE
  5
162
  8
0
  6
CONTINUOUS
 62
   253
 10
142.8423441370014
 20
559.301135159353
 30
0.0
 11
142.9715596273929
 21
559.0812138627647
 31
0.0
  0
LINE
  5
163
  8
0
  6
CONTINUOUS
 62
   253
 10
142.9715596273929
 20
559.0812138627648
 30
0.0
 11
142.8545737768229
 21
558.9001716813622
 31
0.0
  0
LINE
  5
164
  8
0
  6
CONTINUOUS
 62
   253
 10
142.8423441370013
 20
559.301135159353
 30
0.0
 11
142.8046927242101
 21
559.3134196621926
 31
0.0
  0
LINE
  5
165
  8
0
  6
CONTINUOUS
 62
   253
 10
142.8046927242101
 20
559.3134196621926
 30
0.0
 11
142.7498538105284
 21
559.3247111063491
 31
0.0
  0
LINE
  5
166
  8
0
  6
CONTINUOUS
 62
   253
 10
142.7498538105284
 20
559.3247111063491
 30
0.0
 11
142.6799643360441
 21
559.3345694915007
 31
0.0
  0
LINE
  5
167
  8
0
  6
CONTINUOUS
 62
   253
 10
142.6799643360441
 20
559.3345694915007
 30
0.0
 11
142.5977477248689
 21
559.3426106601756
 31
0.0
  0
LINE
  5
168
  8
0
  6
CONTINUOUS
 62
   253
 10
142.5977477248689
 20
559.3426106601756
 30
0.0
 11
142.506407759874
 21
559.3485212674414
 31
0.0
  0
LINE
  5
169
  8
0
  6
CONTINUOUS
 62
   253
 10
142.506407759874
 20
559.3485212674414
 30
0.0
 11
142.4095037390059
 21
559.352070991201
 31
0.0
  0
LINE
  5
16A
  8
0
  6
CONTINUOUS
 62
   253
 10
144.3539317158127
 20
581.5715803361775
 30
0.0
 11
144.0988665409384
 21
581.5696370872301
 31
0.0
  0
LINE
  5
16B
  8
0
  6
CONTINUOUS
 62
   253
 10
144.0988665409384
 20
581.5696370872301
 30
0.0
 11
144.0005723379722
 21
581.7614708964084
 31
0.0
  0
LINE
  5
16C
  8
0
  6
CONTINUOUS
 62
   253
 10
144.3539317158127
 20
581.5715803361776
 30
0.0
 11
144.3833961137402
 21
581.5980451647233
 31
0.0
  0
LINE
  5
16D
  8
0
  6
CONTINUOUS
 62
   253
 10
144.3833961137402
 20
581.5980451647233
 30
0.0
 11
144.4205942480661
 21
581.6398913350093
 31
0.0
  0
LINE
  5
16E
  8
0
  6
CONTINUOUS
 62
   253
 10
144.4205942480661
 20
581.6398913350093
 30
0.0
 11
144.4640765972898
 21
581.695488202794
 31
0.0
  0
LINE
  5
16F
  8
0
  6
CONTINUOUS
 62
   253
 10
144.4640765972898
 20
581.695488202794
 30
0.0
 11
144.512148759226
 21
581.7626692923474
 31
0.0
  0
LINE
  5
170
  8
0
  6
CONTINUOUS
 62
   253
 10
144.512148759226
 20
581.7626692923474
 30
0.0
 11
144.5629374777675
 21
581.8388167187809
 31
0.0
  0
LINE
  5
171
  8
0
  6
CONTINUOUS
 62
   253
 10
144.5629374777675
 20
581.8388167187809
 30
0.0
 11
144.6144636391537
 21
581.9209632007017
 31
0.0
  0
LINE
  5
172
  8
0
  6
CONTINUOUS
 62
   253
 10
162.8849092031258
 20
569.1272845044693
 30
0.0
 11
162.8930962179893
 21
569.0885351730841
 31
0.0
  0
LINE
  5
173
  8
0
  6
CONTINUOUS
 62
   253
 10
162.8930962179893
 20
569.0885351730841
 30
0.0
 11
162.9107369973451
 21
569.0353975586414
 31
0.0
  0
LINE
  5
174
  8
0
  6
CONTINUOUS
 62
   253
 10
162.9107369973451
 20
569.0353975586414
 30
0.0
 11
162.9371441226056
 21
568.9699423057051
 31
0.0
  0
LINE
  5
175
  8
0
  6
CONTINUOUS
 62
   253
 10
162.9371441226056
 20
568.9699423057051
 30
0.0
 11
162.9712885718446
 21
568.8947200474769
 31
0.0
  0
LINE
  5
176
  8
0
  6
CONTINUOUS
 62
   253
 10
162.9712885718446
 20
568.8947200474769
 30
0.0
 11
163.011839818298
 21
568.8126620137776
 31
0.0
  0
LINE
  5
177
  8
0
  6
CONTINUOUS
 62
   253
 10
163.011839818298
 20
568.8126620137776
 30
0.0
 11
163.0572176777799
 21
568.7269658080972
 31
0.0
  0
LINE
  5
178
  8
0
  6
CONTINUOUS
 62
   253
 10
162.8849092031257
 20
569.1272845044697
 30
0.0
 11
163.0107588876086
 21
569.3491490500052
 31
0.0
  0
LINE
  5
179
  8
0
  6
CONTINUOUS
 62
   253
 10
163.2260389411447
 20
569.3383574222295
 30
0.0
 11
163.0107588876085
 21
569.3491490500052
 31
0.0
  0
LINE
  5
17A
  8
0
  6
CONTINUOUS
 62
   253
 10
157.2117792336254
 20
580.698864840647
 30
0.0
 11
157.2494306464165
 21
580.6865803378074
 31
0.0
  0
LINE
  5
17B
  8
0
  6
CONTINUOUS
 62
   253
 10
157.2494306464165
 20
580.6865803378074
 30
0.0
 11
157.3042695600982
 21
580.6752888936506
 31
0.0
  0
LINE
  5
17C
  8
0
  6
CONTINUOUS
 62
   253
 10
157.3042695600982
 20
580.6752888936506
 30
0.0
 11
157.3741590345824
 21
580.6654305084991
 31
0.0
  0
LINE
  5
17D
  8
0
  6
CONTINUOUS
 62
   253
 10
157.3741590345824
 20
580.6654305084991
 30
0.0
 11
157.4563756457576
 21
580.6573893398241
 31
0.0
  0
LINE
  5
17E
  8
0
  6
CONTINUOUS
 62
   253
 10
157.4563756457576
 20
580.6573893398241
 30
0.0
 11
157.5477156107525
 21
580.6514787325583
 31
0.0
  0
LINE
  5
17F
  8
0
  6
CONTINUOUS
 62
   253
 10
157.5477156107525
 20
580.6514787325583
 30
0.0
 11
157.6446196316206
 21
580.6479290087988
 31
0.0
  0
LINE
  5
180
  8
0
  6
CONTINUOUS
 62
   253
 10
157.2117792336252
 20
580.6988648406472
 30
0.0
 11
157.0825637432337
 21
580.9187861372352
 31
0.0
  0
LINE
  5
181
  8
0
  6
CONTINUOUS
 62
   253
 10
157.1995495938037
 20
581.0998283186378
 30
0.0
 11
157.0825637432337
 21
580.9187861372352
 31
0.0
  0
ARC
  5
182
  8
0
  6
CONTINUOUS
 62
     7
 10
150.0270616853133
 20
570.0
 30
0.0
 40
13.00000000000002
 50
117.1302608648843
 51
122.8697391351157
  0
ARC
  5
183
  8
0
  6
CONTINUOUS
 62
     7
 10
150.0270616853133
 20
570.0
 30
0.0
 40
12.99999999999999
 50
177.1302608648845
 51
182.8697391351157
  0
ARC
  5
184
  8
0
  6
CONTINUOUS
 62
     7
 10
150.0270616853133
 20
570.0
 30
0.0
 40
12.99999999999995
 50
57.13026086488431
 51
62.86973913511575
  0
ARC
  5
185
  8
0
  6
CONTINUOUS
 62
     7
 10
150.0270616853133
 20
570.0
 30
0.0
 40
12.99999999999998
 50
237.1302608648849
 51
242.8697391351158
  0
ARC
  5
186
  8
0
  6
CONTINUOUS
 62
     7
 10
150.0270616853133
 20
570.0
 30
0.0
 40
12.99999999999998
 50
297.1302608648849
 51
302.8697391351157
  0
ARC
  5
187
  8
0
  6
CONTINUOUS
 62
     7
 10
150.0270616853133
 20
570.0
 30
0.0
 40
12.99999999999998
 50
0.0
 51
2.869739135115708
  0
ARC
  5
188
  8
0
  6
CONTINUOUS
 62
     7
 10
150.0270616853133
 20
570.0
 30
0.0
 40
13.00000000000001
 50
357.1302608648845
 51
0.0000000000001705
  0
LINE
  5
189
  8
0
  6
CONTINUOUS
 62
   253
 10
142.883283801742
 20
559.4219325667253
 30
0.0
 11
142.8423441370014
 21
559.301135159353
 31
0.0
  0
LINE
  5
18A
  8
0
  6
CONTINUOUS
 62
   253
 10
137.2942976233669
 20
570.8976594095288
 30
0.0
 11
137.1692141675008
 21
570.8727154955304
 31
0.0
  0
LINE
  5
18B
  8
0
  6
CONTINUOUS
 62
   253
 10
162.7598257472597
 20
569.1023405904713
 30
0.0
 11
162.8849092031257
 21
569.1272845044697
 31
0.0
  0
LINE
  5
18C
  8
0
  6
CONTINUOUS
 62
   253
 10
144.4380755069381
 20
581.4757268428035
 30
0.0
 11
144.3539317158127
 21
581.5715803361775
 31
0.0
  0
LINE
  5
18D
  8
0
  6
CONTINUOUS
 62
   253
 10
157.1708395688845
 20
580.5780674332748
 30
0.0
 11
157.2117792336252
 21
580.6988648406472
 31
0.0
  0
LINE
  5
18E
  8
0
  6
CONTINUOUS
 62
   253
 10
155.6160478636884
 20
558.5242731571965
 30
0.0
 11
155.7001916548139
 21
558.4284196638225
 31
0.0
  0
LINE
  5
18F
  8
0
  6
CONTINUOUS
 62
   253
 10
142.8423441370013
 20
580.698864840649
 30
0.0
 11
142.883283801742
 21
580.5780674332748
 31
0.0
  0
LINE
  5
190
  8
0
  6
CONTINUOUS
 62
   253
 10
137.1692141674991
 20
569.1272845044706
 30
0.0
 11
137.2942976233669
 21
569.1023405904714
 31
0.0
  0
LINE
  5
191
  8
0
  6
CONTINUOUS
 62
   253
 10
157.2117792336252
 20
559.3011351593511
 30
0.0
 11
157.1708395688845
 21
559.4219325667253
 31
0.0
  0
LINE
  5
192
  8
0
  6
CONTINUOUS
 62
   253
 10
144.3539317158111
 20
558.4284196638216
 30
0.0
 11
144.4380755069381
 21
558.5242731571965
 31
0.0
  0
LINE
  5
193
  8
0
  6
CONTINUOUS
 62
   253
 10
155.7001916548154
 20
581.5715803361785
 30
0.0
 11
155.6160478636885
 21
581.4757268428035
 31
0.0
  0
LINE
  5
194
  8
0
  6
CONTINUOUS
 62
   253
 10
162.8849092031274
 20
570.8727154955295
 30
0.0
 11
162.7598257472597
 21
570.8976594095287
 31
0.0
  0
LINE
  5
195
  8
0
  6
CONTINUOUS
 62
     7
 10
137.0270616853132
 20
570.0
 30
0.0
 11
137.0275245753574
 21
569.9999999999991
 31
0.0
  0
LINE
  5
196
  8
0
  6
CONTINUOUS
 62
     7
 10
137.0275245753575
 20
569.9999999999991
 30
0.0
 11
137.0284830914547
 21
569.9877957403562
 31
0.0
  0
LINE
  5
197
  8
0
  6
CONTINUOUS
 62
     7
 10
137.0284830914547
 20
569.9877957403562
 30
0.0
 11
137.0299724774122
 21
569.9756272528083
 31
0.0
  0
LINE
  5
198
  8
0
  6
CONTINUOUS
 62
     7
 10
137.0299724774122
 20
569.9756272528083
 30
0.0
 11
137.0319884682675
 21
569.9635290874756
 31
0.0
  0
LINE
  5
199
  8
0
  6
CONTINUOUS
 62
     7
 10
137.0319884682675
 20
569.9635290874756
 30
0.0
 11
137.0345267990578
 21
569.9515357944788
 31
0.0
  0
LINE
  5
19A
  8
0
  6
CONTINUOUS
 62
     7
 10
137.0345267990578
 20
569.9515357944788
 30
0.0
 11
137.0375832048205
 21
569.9396819239381
 31
0.0
  0
LINE
  5
19B
  8
0
  6
CONTINUOUS
 62
     7
 10
137.0375832048205
 20
569.9396819239381
 30
0.0
 11
137.0409945643514
 21
569.9284758362828
 31
0.0
  0
LINE
  5
19C
  8
0
  6
CONTINUOUS
 62
     7
 10
137.0409945643514
 20
569.9284758362828
 30
0.0
 11
137.044879057482
 21
569.917413685529
 31
0.0
  0
LINE
  5
19D
  8
0
  6
CONTINUOUS
 62
     7
 10
137.044879057482
 20
569.917413685529
 30
0.0
 11
137.049228092744
 21
569.9065260110744
 31
0.0
  0
LINE
  5
19E
  8
0
  6
CONTINUOUS
 62
     7
 10
137.049228092744
 20
569.9065260110744
 30
0.0
 11
137.0540330786692
 21
569.8958433523167
 31
0.0
  0
LINE
  5
19F
  8
0
  6
CONTINUOUS
 62
     7
 10
137.0540330786692
 20
569.8958433523167
 30
0.0
 11
137.0594638151431
 21
569.8850571846278
 31
0.0
  0
LINE
  5
1A0
  8
0
  6
CONTINUOUS
 62
     7
 10
137.0594638151431
 20
569.8850571846278
 30
0.0
 11
137.0653754772861
 21
569.8745130017425
 31
0.0
  0
LINE
  5
1A1
  8
0
  6
CONTINUOUS
 62
     7
 10
137.0653754772861
 20
569.8745130017425
 30
0.0
 11
137.0717529972485
 21
569.8642442768523
 31
0.0
  0
LINE
  5
1A2
  8
0
  6
CONTINUOUS
 62
     7
 10
137.0717529972485
 20
569.8642442768523
 30
0.0
 11
137.0785813071807
 21
569.8542844831488
 31
0.0
  0
LINE
  5
1A3
  8
0
  6
CONTINUOUS
 62
     7
 10
137.0785813071807
 20
569.8542844831488
 30
0.0
 11
137.0853948120124
 21
569.84523451427
 31
0.0
  0
LINE
  5
1A4
  8
0
  6
CONTINUOUS
 62
     7
 10
137.0853948120124
 20
569.84523451427
 30
0.0
 11
137.0925986880266
 21
569.836478284156
 31
0.0
  0
LINE
  5
1A5
  8
0
  6
CONTINUOUS
 62
     7
 10
137.0925986880266
 20
569.836478284156
 30
0.0
 11
137.1001750137827
 21
569.8280426715978
 31
0.0
  0
LINE
  5
1A6
  8
0
  6
CONTINUOUS
 62
     7
 10
137.1001750137827
 20
569.8280426715978
 30
0.0
 11
137.1081058678402
 21
569.8199545553872
 31
0.0
  0
LINE
  5
1A7
  8
0
  6
CONTINUOUS
 62
     7
 10
137.1081058678402
 20
569.8199545553872
 30
0.0
 11
137.1166647468813
 21
569.8119790596786
 31
0.0
  0
LINE
  5
1A8
  8
0
  6
CONTINUOUS
 62
     7
 10
137.1166647468813
 20
569.8119790596786
 30
0.0
 11
137.1255907903107
 21
569.804397351232
 31
0.0
  0
LINE
  5
1A9
  8
0
  6
CONTINUOUS
 62
     7
 10
137.1255907903107
 20
569.804397351232
 30
0.0
 11
137.1348575097727
 21
569.7972366585891
 31
0.0
  0
LINE
  5
1AA
  8
0
  6
CONTINUOUS
 62
     7
 10
137.1348575097727
 20
569.7972366585891
 30
0.0
 11
137.1444384169115
 21
569.7905242102919
 31
0.0
  0
LINE
  5
1AB
  8
0
  6
CONTINUOUS
 62
     7
 10
137.1444384169115
 20
569.7905242102919
 30
0.0
 11
137.1534361720658
 21
569.7848089674812
 31
0.0
  0
LINE
  5
1AC
  8
0
  6
CONTINUOUS
 62
     7
 10
137.1534361720658
 20
569.7848089674812
 30
0.0
 11
137.1626813697542
 21
569.779483091791
 31
0.0
  0
LINE
  5
1AD
  8
0
  6
CONTINUOUS
 62
     7
 10
137.1626813697542
 20
569.779483091791
 30
0.0
 11
137.1721488950308
 21
569.7745638033308
 31
0.0
  0
LINE
  5
1AE
  8
0
  6
CONTINUOUS
 62
     7
 10
137.1721488950308
 20
569.7745638033308
 30
0.0
 11
137.1818136329496
 21
569.7700683222106
 31
0.0
  0
LINE
  5
1AF
  8
0
  6
CONTINUOUS
 62
     7
 10
137.1818136329496
 20
569.7700683222106
 30
0.0
 11
137.1919930523026
 21
569.765879945189
 31
0.0
  0
LINE
  5
1B0
  8
0
  6
CONTINUOUS
 62
     7
 10
137.1919930523026
 20
569.765879945189
 30
0.0
 11
137.2023644915361
 21
569.7621580043733
 31
0.0
  0
LINE
  5
1B1
  8
0
  6
CONTINUOUS
 62
     7
 10
137.2023644915361
 20
569.7621580043733
 30
0.0
 11
137.2128955721662
 21
569.7589158846814
 31
0.0
  0
LINE
  5
1B2
  8
0
  6
CONTINUOUS
 62
     7
 10
137.2128955721662
 20
569.7589158846814
 30
0.0
 11
137.2235539157093
 21
569.7561669710311
 31
0.0
  0
LINE
  5
1B3
  8
0
  6
CONTINUOUS
 62
     7
 10
137.2235539157093
 20
569.7561669710311
 30
0.0
 11
137.2341110719024
 21
569.7539596001011
 31
0.0
  0
LINE
  5
1B4
  8
0
  6
CONTINUOUS
 62
     7
 10
137.2341110719024
 20
569.7539596001011
 30
0.0
 11
137.2447748869519
 21
569.7522344405421
 31
0.0
  0
LINE
  5
1B5
  8
0
  6
CONTINUOUS
 62
     7
 10
137.2447748869519
 20
569.7522344405421
 30
0.0
 11
137.2555117922822
 21
569.7509962693449
 31
0.0
  0
LINE
  5
1B6
  8
0
  6
CONTINUOUS
 62
     7
 10
137.2555117922822
 20
569.7509962693449
 30
0.0
 11
137.2662882193176
 21
569.7502498635
 31
0.0
  0
LINE
  5
1B7
  8
0
  6
CONTINUOUS
 62
     7
 10
137.2662882193176
 20
569.7502498635
 30
0.0
 11
137.277070599483
 21
569.7500000000001
 31
0.0
  0
LINE
  5
1B8
  8
0
  6
CONTINUOUS
 62
     7
 10
143.5270616853133
 20
581.2583302491977
 30
0.0
 11
143.5272931303345
 21
581.2579293746599
 31
0.0
  0
LINE
  5
1B9
  8
0
  6
CONTINUOUS
 62
     7
 10
143.5272931303345
 20
581.2579293746599
 30
0.0
 11
143.517203189498
 21
581.2509971455482
 31
0.0
  0
LINE
  5
1BA
  8
0
  6
CONTINUOUS
 62
     7
 10
143.517203189498
 20
581.2509971455482
 30
0.0
 11
143.5074096631346
 21
581.243623055699
 31
0.0
  0
LINE
  5
1BB
  8
0
  6
CONTINUOUS
 62
     7
 10
143.5074096631346
 20
581.243623055699
 30
0.0
 11
143.497940340045
 21
581.2358280737383
 31
0.0
  0
LINE
  5
1BC
  8
0
  6
CONTINUOUS
 62
     7
 10
143.497940340045
 20
581.2358280737383
 30
0.0
 11
143.4888230090299
 21
581.2276331682922
 31
0.0
  0
LINE
  5
1BD
  8
0
  6
CONTINUOUS
 62
     7
 10
143.4888230090299
 20
581.2276331682922
 30
0.0
 11
143.4800854588898
 21
581.219059307987
 31
0.0
  0
LINE
  5
1BE
  8
0
  6
CONTINUOUS
 62
     7
 10
143.4800854588898
 20
581.219059307987
 30
0.0
 11
143.4720863820687
 21
581.2105019401442
 31
0.0
  0
LINE
  5
1BF
  8
0
  6
CONTINUOUS
 62
     7
 10
143.4720863820687
 20
581.2105019401442
 30
0.0
 11
143.4644485250608
 21
581.2016067950354
 31
0.0
  0
LINE
  5
1C0
  8
0
  6
CONTINUOUS
 62
     7
 10
143.4644485250608
 20
581.2016067950354
 30
0.0
 11
143.457194040026
 21
581.1923965827893
 31
0.0
  0
LINE
  5
1C1
  8
0
  6
CONTINUOUS
 62
     7
 10
143.457194040026
 20
581.1923965827893
 30
0.0
 11
143.4503450791244
 21
581.1828940135343
 31
0.0
  0
LINE
  5
1C2
  8
0
  6
CONTINUOUS
 62
     7
 10
143.4503450791244
 20
581.1828940135343
 30
0.0
 11
143.4437193521334
 21
581.1727977739423
 31
0.0
  0
LINE
  5
1C3
  8
0
  6
CONTINUOUS
 62
     7
 10
143.4437193521334
 20
581.1727977739423
 30
0.0
 11
143.437543652964
 21
581.1624060329052
 31
0.0
  0
LINE
  5
1C4
  8
0
  6
CONTINUOUS
 62
     7
 10
143.437543652964
 20
581.1624060329052
 30
0.0
 11
143.4318394363258
 21
581.1517485761595
 31
0.0
  0
LINE
  5
1C5
  8
0
  6
CONTINUOUS
 62
     7
 10
143.4318394363258
 20
581.1517485761595
 30
0.0
 11
143.4266281569284
 21
581.1408551894416
 31
0.0
  0
LINE
  5
1C6
  8
0
  6
CONTINUOUS
 62
     7
 10
143.4266281569284
 20
581.1408551894416
 30
0.0
 11
143.4221974063917
 21
581.1304295367291
 31
0.0
  0
LINE
  5
1C7
  8
0
  6
CONTINUOUS
 62
     7
 10
143.4221974063917
 20
581.1304295367291
 30
0.0
 11
143.4182162266785
 21
581.1198126820381
 31
0.0
  0
LINE
  5
1C8
  8
0
  6
CONTINUOUS
 62
     7
 10
143.4182162266785
 20
581.1198126820381
 30
0.0
 11
143.4146989347847
 21
581.1090335851869
 31
0.0
  0
LINE
  5
1C9
  8
0
  6
CONTINUOUS
 62
     7
 10
143.4146989347847
 20
581.1090335851869
 30
0.0
 11
143.4116598477064
 21
581.0981212059942
 31
0.0
  0
LINE
  5
1CA
  8
0
  6
CONTINUOUS
 62
     7
 10
143.4116598477064
 20
581.0981212059942
 30
0.0
 11
143.4090323053355
 21
581.0867212514623
 31
0.0
  0
LINE
  5
1CB
  8
0
  6
CONTINUOUS
 62
     7
 10
143.4090323053355
 20
581.0867212514623
 30
0.0
 11
143.4069293749313
 21
581.0752002168738
 31
0.0
  0
LINE
  5
1CC
  8
0
  6
CONTINUOUS
 62
     7
 10
143.4069293749313
 20
581.0752002168738
 30
0.0
 11
143.4053613929249
 21
581.0635946560885
 31
0.0
  0
LINE
  5
1CD
  8
0
  6
CONTINUOUS
 62
     7
 10
143.4053613929249
 20
581.0635946560885
 30
0.0
 11
143.4043386957472
 21
581.0519411229665
 31
0.0
  0
LINE
  5
1CE
  8
0
  6
CONTINUOUS
 62
     7
 10
143.4043386957472
 20
581.0519411229665
 30
0.0
 11
143.4038880278617
 21
581.0412912170206
 31
0.0
  0
LINE
  5
1CF
  8
0
  6
CONTINUOUS
 62
     7
 10
143.4038880278617
 20
581.0412912170206
 30
0.0
 11
143.4038982830607
 21
581.0306217031141
 31
0.0
  0
LINE
  5
1D0
  8
0
  6
CONTINUOUS
 62
     7
 10
143.4038982830607
 20
581.0306217031141
 30
0.0
 11
143.4043718169239
 21
581.0199629414835
 31
0.0
  0
LINE
  5
1D1
  8
0
  6
CONTINUOUS
 62
     7
 10
143.4043718169239
 20
581.0199629414835
 30
0.0
 11
143.405310985031
 21
581.0093452923647
 31
0.0
  0
LINE
  5
1D2
  8
0
  6
CONTINUOUS
 62
     7
 10
143.405310985031
 20
581.0093452923647
 30
0.0
 11
143.4067734538062
 21
580.9984354680986
 31
0.0
  0
LINE
  5
1D3
  8
0
  6
CONTINUOUS
 62
     7
 10
143.4067734538062
 20
580.9984354680986
 30
0.0
 11
143.4087358781251
 21
580.9875925678407
 31
0.0
  0
LINE
  5
1D4
  8
0
  6
CONTINUOUS
 62
     7
 10
143.4087358781251
 20
580.9875925678407
 30
0.0
 11
143.4111936604249
 21
580.9768513246398
 31
0.0
  0
LINE
  5
1D5
  8
0
  6
CONTINUOUS
 62
     7
 10
143.4111936604249
 20
580.9768513246398
 30
0.0
 11
143.4141422031424
 21
580.9662464715442
 31
0.0
  0
LINE
  5
1D6
  8
0
  6
CONTINUOUS
 62
     7
 10
143.4141422031424
 20
580.9662464715442
 30
0.0
 11
143.417509141938
 21
580.9560000206241
 31
0.0
  0
LINE
  5
1D7
  8
0
  6
CONTINUOUS
 62
     7
 10
143.417509141938
 20
580.9560000206241
 30
0.0
 11
143.4213470174591
 21
580.9459023061104
 31
0.0
  0
LINE
  5
1D8
  8
0
  6
CONTINUOUS
 62
     7
 10
143.4213470174591
 20
580.9459023061104
 30
0.0
 11
143.4256431824132
 21
580.9359847877378
 31
0.0
  0
LINE
  5
1D9
  8
0
  6
CONTINUOUS
 62
     7
 10
143.4256431824132
 20
580.9359847877378
 30
0.0
 11
143.4303849895078
 21
580.9262789252407
 31
0.0
  0
LINE
  5
1DA
  8
0
  6
CONTINUOUS
 62
     7
 10
143.4303849895078
 20
580.9262789252407
 30
0.0
 11
143.435559791452
 21
580.9168161783542
 31
0.0
  0
LINE
  5
1DB
  8
0
  6
CONTINUOUS
 62
     7
 10
156.5270616853133
 20
558.7416697508023
 30
0.0
 11
156.5268302402921
 21
558.7420706253403
 31
0.0
  0
LINE
  5
1DC
  8
0
  6
CONTINUOUS
 62
     7
 10
156.5268302402921
 20
558.7420706253403
 30
0.0
 11
156.5369201811286
 21
558.7490028544519
 31
0.0
  0
LINE
  5
1DD
  8
0
  6
CONTINUOUS
 62
     7
 10
156.5369201811286
 20
558.7490028544519
 30
0.0
 11
156.546713707492
 21
558.7563769443011
 31
0.0
  0
LINE
  5
1DE
  8
0
  6
CONTINUOUS
 62
     7
 10
156.546713707492
 20
558.7563769443011
 30
0.0
 11
156.5561830305815
 21
558.7641719262618
 31
0.0
  0
LINE
  5
1DF
  8
0
  6
CONTINUOUS
 62
     7
 10
156.5561830305815
 20
558.7641719262618
 30
0.0
 11
156.5653003615967
 21
558.7723668317079
 31
0.0
  0
LINE
  5
1E0
  8
0
  6
CONTINUOUS
 62
     7
 10
156.5653003615967
 20
558.7723668317079
 30
0.0
 11
156.5740379117367
 21
558.7809406920131
 31
0.0
  0
LINE
  5
1E1
  8
0
  6
CONTINUOUS
 62
     7
 10
156.5740379117367
 20
558.7809406920131
 30
0.0
 11
156.5820369885578
 21
558.7894980598559
 31
0.0
  0
LINE
  5
1E2
  8
0
  6
CONTINUOUS
 62
     7
 10
156.5820369885578
 20
558.7894980598559
 30
0.0
 11
156.5896748455657
 21
558.7983932049647
 31
0.0
  0
LINE
  5
1E3
  8
0
  6
CONTINUOUS
 62
     7
 10
156.5896748455657
 20
558.7983932049647
 30
0.0
 11
156.5969293306005
 21
558.8076034172109
 31
0.0
  0
LINE
  5
1E4
  8
0
  6
CONTINUOUS
 62
     7
 10
156.5969293306005
 20
558.8076034172109
 30
0.0
 11
156.6037782915022
 21
558.8171059864657
 31
0.0
  0
LINE
  5
1E5
  8
0
  6
CONTINUOUS
 62
     7
 10
156.6037782915022
 20
558.8171059864657
 30
0.0
 11
156.6104040184932
 21
558.8272022260578
 31
0.0
  0
LINE
  5
1E6
  8
0
  6
CONTINUOUS
 62
     7
 10
156.6104040184932
 20
558.8272022260578
 30
0.0
 11
156.6165797176625
 21
558.8375939670949
 31
0.0
  0
LINE
  5
1E7
  8
0
  6
CONTINUOUS
 62
     7
 10
156.6165797176625
 20
558.8375939670949
 30
0.0
 11
156.6222839343007
 21
558.8482514238406
 31
0.0
  0
LINE
  5
1E8
  8
0
  6
CONTINUOUS
 62
     7
 10
156.6222839343007
 20
558.8482514238406
 30
0.0
 11
156.6274952136982
 21
558.8591448105585
 31
0.0
  0
LINE
  5
1E9
  8
0
  6
CONTINUOUS
 62
     7
 10
156.6274952136982
 20
558.8591448105585
 30
0.0
 11
156.6319259642349
 21
558.869570463271
 31
0.0
  0
LINE
  5
1EA
  8
0
  6
CONTINUOUS
 62
     7
 10
156.6319259642349
 20
558.869570463271
 30
0.0
 11
156.6359071439481
 21
558.880187317962
 31
0.0
  0
LINE
  5
1EB
  8
0
  6
CONTINUOUS
 62
     7
 10
156.6359071439481
 20
558.880187317962
 30
0.0
 11
156.6394244358418
 21
558.8909664148132
 31
0.0
  0
LINE
  5
1EC
  8
0
  6
CONTINUOUS
 62
     7
 10
156.6394244358418
 20
558.8909664148132
 30
0.0
 11
156.6424635229201
 21
558.9018787940059
 31
0.0
  0
LINE
  5
1ED
  8
0
  6
CONTINUOUS
 62
     7
 10
156.6424635229201
 20
558.9018787940059
 30
0.0
 11
156.6450910652911
 21
558.9132787485378
 31
0.0
  0
LINE
  5
1EE
  8
0
  6
CONTINUOUS
 62
     7
 10
156.6450910652911
 20
558.9132787485378
 30
0.0
 11
156.6471939956953
 21
558.9247997831263
 31
0.0
  0
LINE
  5
1EF
  8
0
  6
CONTINUOUS
 62
     7
 10
156.6471939956953
 20
558.9247997831263
 30
0.0
 11
156.6487619777017
 21
558.9364053439116
 31
0.0
  0
LINE
  5
1F0
  8
0
  6
CONTINUOUS
 62
     7
 10
156.6487619777017
 20
558.9364053439116
 30
0.0
 11
156.6497846748792
 21
558.9480588770336
 31
0.0
  0
LINE
  5
1F1
  8
0
  6
CONTINUOUS
 62
     7
 10
156.6497846748792
 20
558.9480588770336
 30
0.0
 11
156.6502353427648
 21
558.9587087829796
 31
0.0
  0
LINE
  5
1F2
  8
0
  6
CONTINUOUS
 62
     7
 10
156.6502353427648
 20
558.9587087829796
 30
0.0
 11
156.6502250875658
 21
558.969378296886
 31
0.0
  0
LINE
  5
1F3
  8
0
  6
CONTINUOUS
 62
     7
 10
156.6502250875658
 20
558.969378296886
 30
0.0
 11
156.6497515537025
 21
558.9800370585166
 31
0.0
  0
LINE
  5
1F4
  8
0
  6
CONTINUOUS
 62
     7
 10
156.6497515537025
 20
558.9800370585166
 30
0.0
 11
156.6488123855955
 21
558.9906547076353
 31
0.0
  0
LINE
  5
1F5
  8
0
  6
CONTINUOUS
 62
     7
 10
156.6488123855955
 20
558.9906547076353
 30
0.0
 11
156.6473499168203
 21
559.0015645319015
 31
0.0
  0
LINE
  5
1F6
  8
0
  6
CONTINUOUS
 62
     7
 10
156.6473499168203
 20
559.0015645319015
 30
0.0
 11
156.6453874925014
 21
559.0124074321594
 31
0.0
  0
LINE
  5
1F7
  8
0
  6
CONTINUOUS
 62
     7
 10
156.6453874925014
 20
559.0124074321594
 30
0.0
 11
156.6429297102017
 21
559.0231486753603
 31
0.0
  0
LINE
  5
1F8
  8
0
  6
CONTINUOUS
 62
     7
 10
156.6429297102017
 20
559.0231486753603
 30
0.0
 11
156.6399811674841
 21
559.033753528456
 31
0.0
  0
LINE
  5
1F9
  8
0
  6
CONTINUOUS
 62
     7
 10
156.6399811674841
 20
559.033753528456
 30
0.0
 11
156.6366142286885
 21
559.043999979376
 31
0.0
  0
LINE
  5
1FA
  8
0
  6
CONTINUOUS
 62
     7
 10
156.6366142286885
 20
559.043999979376
 30
0.0
 11
156.6327763531674
 21
559.0540976938897
 31
0.0
  0
LINE
  5
1FB
  8
0
  6
CONTINUOUS
 62
     7
 10
156.6327763531674
 20
559.0540976938897
 30
0.0
 11
156.6284801882133
 21
559.0640152122623
 31
0.0
  0
LINE
  5
1FC
  8
0
  6
CONTINUOUS
 62
     7
 10
156.6284801882133
 20
559.0640152122623
 30
0.0
 11
156.6237383811188
 21
559.0737210747594
 31
0.0
  0
LINE
  5
1FD
  8
0
  6
CONTINUOUS
 62
     7
 10
156.6237383811188
 20
559.0737210747594
 30
0.0
 11
156.6185635791745
 21
559.0831838216459
 31
0.0
  0
LINE
  5
1FE
  8
0
  6
CONTINUOUS
 62
     7
 10
163.0270616853132
 20
570.0
 30
0.0
 11
163.0265987952691
 21
570.000000000001
 31
0.0
  0
LINE
  5
1FF
  8
0
  6
CONTINUOUS
 62
     7
 10
163.0265987952691
 20
570.000000000001
 30
0.0
 11
163.0256402791719
 21
570.0122042596439
 31
0.0
  0
LINE
  5
200
  8
0
  6
CONTINUOUS
 62
     7
 10
163.0256402791719
 20
570.0122042596439
 30
0.0
 11
163.0241508932143
 21
570.0243727471918
 31
0.0
  0
LINE
  5
201
  8
0
  6
CONTINUOUS
 62
     7
 10
163.0241508932143
 20
570.0243727471918
 30
0.0
 11
163.0221349023591
 21
570.0364709125245
 31
0.0
  0
LINE
  5
202
  8
0
  6
CONTINUOUS
 62
     7
 10
163.0221349023591
 20
570.0364709125245
 30
0.0
 11
163.0195965715687
 21
570.0484642055213
 31
0.0
  0
LINE
  5
203
  8
0
  6
CONTINUOUS
 62
     7
 10
163.0195965715687
 20
570.0484642055213
 30
0.0
 11
163.016540165806
 21
570.060318076062
 31
0.0
  0
LINE
  5
204
  8
0
  6
CONTINUOUS
 62
     7
 10
163.016540165806
 20
570.060318076062
 30
0.0
 11
163.0131288062751
 21
570.0715241637173
 31
0.0
  0
LINE
  5
205
  8
0
  6
CONTINUOUS
 62
     7
 10
163.0131288062751
 20
570.0715241637173
 30
0.0
 11
163.0092443131445
 21
570.0825863144711
 31
0.0
  0
LINE
  5
206
  8
0
  6
CONTINUOUS
 62
     7
 10
163.0092443131445
 20
570.0825863144711
 30
0.0
 11
163.0048952778825
 21
570.0934739889257
 31
0.0
  0
LINE
  5
207
  8
0
  6
CONTINUOUS
 62
     7
 10
163.0048952778825
 20
570.0934739889257
 30
0.0
 11
163.0000902919573
 21
570.1041566476835
 31
0.0
  0
LINE
  5
208
  8
0
  6
CONTINUOUS
 62
     7
 10
163.0000902919573
 20
570.1041566476835
 30
0.0
 11
162.9946595554834
 21
570.1149428153722
 31
0.0
  0
LINE
  5
209
  8
0
  6
CONTINUOUS
 62
     7
 10
162.9946595554834
 20
570.1149428153722
 30
0.0
 11
162.9887478933405
 21
570.1254869982574
 31
0.0
  0
LINE
  5
20A
  8
0
  6
CONTINUOUS
 62
     7
 10
162.9887478933405
 20
570.1254869982574
 30
0.0
 11
162.9823703733781
 21
570.1357557231478
 31
0.0
  0
LINE
  5
20B
  8
0
  6
CONTINUOUS
 62
     7
 10
162.9823703733781
 20
570.1357557231478
 30
0.0
 11
162.9755420634458
 21
570.1457155168512
 31
0.0
  0
LINE
  5
20C
  8
0
  6
CONTINUOUS
 62
     7
 10
162.9755420634458
 20
570.1457155168512
 30
0.0
 11
162.9687285586141
 21
570.1547654857301
 31
0.0
  0
LINE
  5
20D
  8
0
  6
CONTINUOUS
 62
     7
 10
162.9687285586141
 20
570.1547654857301
 30
0.0
 11
162.9615246826
 21
570.1635217158441
 31
0.0
  0
LINE
  5
20E
  8
0
  6
CONTINUOUS
 62
     7
 10
162.9615246826
 20
570.1635217158441
 30
0.0
 11
162.9539483568439
 21
570.1719573284023
 31
0.0
  0
LINE
  5
20F
  8
0
  6
CONTINUOUS
 62
     7
 10
162.9539483568439
 20
570.1719573284023
 30
0.0
 11
162.9460175027863
 21
570.1800454446129
 31
0.0
  0
LINE
  5
210
  8
0
  6
CONTINUOUS
 62
     7
 10
162.9460175027863
 20
570.1800454446129
 30
0.0
 11
162.9374586237453
 21
570.1880209403215
 31
0.0
  0
LINE
  5
211
  8
0
  6
CONTINUOUS
 62
     7
 10
162.9374586237453
 20
570.1880209403215
 30
0.0
 11
162.9285325803158
 21
570.1956026487682
 31
0.0
  0
LINE
  5
212
  8
0
  6
CONTINUOUS
 62
     7
 10
162.9285325803158
 20
570.1956026487682
 30
0.0
 11
162.9192658608538
 21
570.202763341411
 31
0.0
  0
LINE
  5
213
  8
0
  6
CONTINUOUS
 62
     7
 10
162.9192658608538
 20
570.202763341411
 30
0.0
 11
162.909684953715
 21
570.2094757897082
 31
0.0
  0
LINE
  5
214
  8
0
  6
CONTINUOUS
 62
     7
 10
162.909684953715
 20
570.2094757897082
 30
0.0
 11
162.9006871985608
 21
570.2151910325188
 31
0.0
  0
LINE
  5
215
  8
0
  6
CONTINUOUS
 62
     7
 10
162.9006871985608
 20
570.2151910325188
 30
0.0
 11
162.8914420008723
 21
570.2205169082091
 31
0.0
  0
LINE
  5
216
  8
0
  6
CONTINUOUS
 62
     7
 10
162.8914420008723
 20
570.2205169082091
 30
0.0
 11
162.8819744755957
 21
570.2254361966693
 31
0.0
  0
LINE
  5
217
  8
0
  6
CONTINUOUS
 62
     7
 10
162.8819744755957
 20
570.2254361966693
 30
0.0
 11
162.8723097376769
 21
570.2299316777895
 31
0.0
  0
LINE
  5
218
  8
0
  6
CONTINUOUS
 62
     7
 10
162.8723097376769
 20
570.2299316777895
 30
0.0
 11
162.8621303183239
 21
570.2341200548111
 31
0.0
  0
LINE
  5
219
  8
0
  6
CONTINUOUS
 62
     7
 10
162.8621303183239
 20
570.2341200548111
 30
0.0
 11
162.8517588790905
 21
570.2378419956268
 31
0.0
  0
LINE
  5
21A
  8
0
  6
CONTINUOUS
 62
     7
 10
162.8517588790905
 20
570.2378419956268
 30
0.0
 11
162.8412277984604
 21
570.2410841153187
 31
0.0
  0
LINE
  5
21B
  8
0
  6
CONTINUOUS
 62
     7
 10
162.8412277984604
 20
570.2410841153187
 30
0.0
 11
162.8305694549173
 21
570.243833028969
 31
0.0
  0
LINE
  5
21C
  8
0
  6
CONTINUOUS
 62
     7
 10
162.8305694549173
 20
570.243833028969
 30
0.0
 11
162.8200122987241
 21
570.246040399899
 31
0.0
  0
LINE
  5
21D
  8
0
  6
CONTINUOUS
 62
     7
 10
162.8200122987241
 20
570.246040399899
 30
0.0
 11
162.8093484836746
 21
570.247765559458
 31
0.0
  0
LINE
  5
21E
  8
0
  6
CONTINUOUS
 62
     7
 10
162.8093484836746
 20
570.247765559458
 30
0.0
 11
162.7986115783443
 21
570.2490037306552
 31
0.0
  0
LINE
  5
21F
  8
0
  6
CONTINUOUS
 62
     7
 10
162.7986115783443
 20
570.2490037306552
 30
0.0
 11
162.7878351513089
 21
570.2497501365001
 31
0.0
  0
LINE
  5
220
  8
0
  6
CONTINUOUS
 62
     7
 10
162.7878351513089
 20
570.2497501365001
 30
0.0
 11
162.7770527711435
 21
570.25
 31
0.0
  0
LINE
  5
221
  8
0
  6
CONTINUOUS
 62
     7
 10
143.5270616853133
 20
558.7416697508023
 30
0.0
 11
143.5272931303363
 21
558.7420706253394
 31
0.0
  0
LINE
  5
222
  8
0
  6
CONTINUOUS
 62
     7
 10
143.5272931303363
 20
558.7420706253394
 30
0.0
 11
143.53834158727
 21
558.736798594808
 31
0.0
  0
LINE
  5
223
  8
0
  6
CONTINUOUS
 62
     7
 10
143.53834158727
 20
558.736798594808
 30
0.0
 11
143.5496244995909
 21
558.7320041971092
 31
0.0
  0
LINE
  5
224
  8
0
  6
CONTINUOUS
 62
     7
 10
143.5496244995909
 20
558.7320041971092
 30
0.0
 11
143.5611098135357
 21
558.7277010137374
 31
0.0
  0
LINE
  5
225
  8
0
  6
CONTINUOUS
 62
     7
 10
143.5611098135357
 20
558.7277010137374
 30
0.0
 11
143.5727654753412
 21
558.7239026261865
 31
0.0
  0
LINE
  5
226
  8
0
  6
CONTINUOUS
 62
     7
 10
143.5727654753412
 20
558.7239026261865
 30
0.0
 11
143.584559431244
 21
558.7206226159511
 31
0.0
  0
LINE
  5
227
  8
0
  6
CONTINUOUS
 62
     7
 10
143.584559431244
 20
558.7206226159511
 30
0.0
 11
143.595969867596
 21
558.7179738961386
 31
0.0
  0
LINE
  5
228
  8
0
  6
CONTINUOUS
 62
     7
 10
143.595969867596
 20
558.7179738961386
 30
0.0
 11
143.6074922177345
 21
558.7158068904937
 31
0.0
  0
LINE
  5
229
  8
0
  6
CONTINUOUS
 62
     7
 10
143.6074922177345
 20
558.7158068904937
 30
0.0
 11
143.6190957380313
 21
558.7141294282852
 31
0.0
  0
LINE
  5
22A
  8
0
  6
CONTINUOUS
 62
     7
 10
143.6190957380313
 20
558.7141294282852
 30
0.0
 11
143.6307496848581
 21
558.7129493387823
 31
0.0
  0
LINE
  5
22B
  8
0
  6
CONTINUOUS
 62
     7
 10
143.6307496848581
 20
558.7129493387823
 30
0.0
 11
143.642806148323
 21
558.7122594106855
 31
0.0
  0
LINE
  5
22C
  8
0
  6
CONTINUOUS
 62
     7
 10
143.642806148323
 20
558.7122594106855
 30
0.0
 11
143.6548935096353
 21
558.7121069688374
 31
0.0
  0
LINE
  5
22D
  8
0
  6
CONTINUOUS
 62
     7
 10
143.6548935096353
 20
558.7121069688374
 30
0.0
 11
143.6669752462359
 21
558.7124957006928
 31
0.0
  0
LINE
  5
22E
  8
0
  6
CONTINUOUS
 62
     7
 10
143.6669752462359
 20
558.7124957006928
 30
0.0
 11
143.6790148355656
 21
558.7134292937073
 31
0.0
  0
LINE
  5
22F
  8
0
  6
CONTINUOUS
 62
     7
 10
143.6790148355656
 20
558.7134292937073
 30
0.0
 11
143.690259090934
 21
558.714804977541
 31
0.0
  0
LINE
  5
230
  8
0
  6
CONTINUOUS
 62
     7
 10
143.690259090934
 20
558.714804977541
 30
0.0
 11
143.7014441466614
 21
558.7166656021178
 31
0.0
  0
LINE
  5
231
  8
0
  6
CONTINUOUS
 62
     7
 10
143.7014441466614
 20
558.7166656021178
 30
0.0
 11
143.7125377643112
 21
558.7190090864109
 31
0.0
  0
LINE
  5
232
  8
0
  6
CONTINUOUS
 62
     7
 10
143.7125377643112
 20
558.7190090864109
 30
0.0
 11
143.723507705447
 21
558.7218333493931
 31
0.0
  0
LINE
  5
233
  8
0
  6
CONTINUOUS
 62
     7
 10
143.723507705447
 20
558.7218333493931
 30
0.0
 11
143.7346941268591
 21
558.7252578082164
 31
0.0
  0
LINE
  5
234
  8
0
  6
CONTINUOUS
 62
     7
 10
143.7346941268591
 20
558.7252578082164
 30
0.0
 11
143.7457231006927
 21
558.7291971343582
 31
0.0
  0
LINE
  5
235
  8
0
  6
CONTINUOUS
 62
     7
 10
143.7457231006927
 20
558.7291971343582
 30
0.0
 11
143.7565578021611
 21
558.7336420025006
 31
0.0
  0
LINE
  5
236
  8
0
  6
CONTINUOUS
 62
     7
 10
143.7565578021611
 20
558.7336420025006
 30
0.0
 11
143.7671614064775
 21
558.7385830873254
 31
0.0
  0
LINE
  5
237
  8
0
  6
CONTINUOUS
 62
     7
 10
143.7671614064775
 20
558.7385830873254
 30
0.0
 11
143.7766098295173
 21
558.7435177504608
 31
0.0
  0
LINE
  5
238
  8
0
  6
CONTINUOUS
 62
     7
 10
143.7766098295173
 20
558.7435177504608
 30
0.0
 11
143.7858447720067
 21
558.7488613886769
 31
0.0
  0
LINE
  5
239
  8
0
  6
CONTINUOUS
 62
     7
 10
143.7858447720067
 20
558.7488613886769
 30
0.0
 11
143.7948387634201
 21
558.7546008618474
 31
0.0
  0
LINE
  5
23A
  8
0
  6
CONTINUOUS
 62
     7
 10
143.7948387634201
 20
558.7546008618474
 30
0.0
 11
143.8035643332319
 21
558.7607230298458
 31
0.0
  0
LINE
  5
23B
  8
0
  6
CONTINUOUS
 62
     7
 10
143.8035643332319
 20
558.7607230298458
 30
0.0
 11
143.8122812838097
 21
558.7674444770905
 31
0.0
  0
LINE
  5
23C
  8
0
  6
CONTINUOUS
 62
     7
 10
143.8122812838097
 20
558.7674444770905
 30
0.0
 11
143.8206902987242
 21
558.7745654365326
 31
0.0
  0
LINE
  5
23D
  8
0
  6
CONTINUOUS
 62
     7
 10
143.8206902987242
 20
558.7745654365326
 30
0.0
 11
143.8287635970546
 21
558.7820645600416
 31
0.0
  0
LINE
  5
23E
  8
0
  6
CONTINUOUS
 62
     7
 10
143.8287635970546
 20
558.7820645600416
 30
0.0
 11
143.8364733978801
 21
558.789920499487
 31
0.0
  0
LINE
  5
23F
  8
0
  6
CONTINUOUS
 62
     7
 10
143.8364733978801
 20
558.789920499487
 30
0.0
 11
143.8436636152777
 21
558.797959579477
 31
0.0
  0
LINE
  5
240
  8
0
  6
CONTINUOUS
 62
     7
 10
143.8436636152777
 20
558.797959579477
 30
0.0
 11
143.850489554806
 21
558.8063321344317
 31
0.0
  0
LINE
  5
241
  8
0
  6
CONTINUOUS
 62
     7
 10
143.850489554806
 20
558.8063321344317
 30
0.0
 11
143.8569302951822
 21
558.815011481607
 31
0.0
  0
LINE
  5
242
  8
0
  6
CONTINUOUS
 62
     7
 10
143.8569302951822
 20
558.815011481607
 30
0.0
 11
143.8629649151231
 21
558.8239709382594
 31
0.0
  0
LINE
  5
243
  8
0
  6
CONTINUOUS
 62
     7
 10
143.8629649151231
 20
558.8239709382594
 30
0.0
 11
143.8685724933443
 21
558.8331838216459
 31
0.0
  0
LINE
  5
244
  8
0
  6
CONTINUOUS
 62
     7
 10
156.5270616853133
 20
581.2583302491977
 30
0.0
 11
156.5268302402903
 21
581.2579293746608
 31
0.0
  0
LINE
  5
245
  8
0
  6
CONTINUOUS
 62
     7
 10
156.5268302402903
 20
581.2579293746608
 30
0.0
 11
156.5157817833566
 21
581.2632014051921
 31
0.0
  0
LINE
  5
246
  8
0
  6
CONTINUOUS
 62
     7
 10
156.5157817833566
 20
581.2632014051921
 30
0.0
 11
156.5044988710357
 21
581.2679958028909
 31
0.0
  0
LINE
  5
247
  8
0
  6
CONTINUOUS
 62
     7
 10
156.5044988710357
 20
581.2679958028909
 30
0.0
 11
156.4930135570908
 21
581.2722989862627
 31
0.0
  0
LINE
  5
248
  8
0
  6
CONTINUOUS
 62
     7
 10
156.4930135570908
 20
581.2722989862627
 30
0.0
 11
156.4813578952853
 21
581.2760973738136
 31
0.0
  0
LINE
  5
249
  8
0
  6
CONTINUOUS
 62
     7
 10
156.4813578952853
 20
581.2760973738136
 30
0.0
 11
156.4695639393825
 21
581.2793773840491
 31
0.0
  0
LINE
  5
24A
  8
0
  6
CONTINUOUS
 62
     7
 10
156.4695639393825
 20
581.2793773840491
 30
0.0
 11
156.4581535030306
 21
581.2820261038614
 31
0.0
  0
LINE
  5
24B
  8
0
  6
CONTINUOUS
 62
     7
 10
156.4581535030306
 20
581.2820261038614
 30
0.0
 11
156.446631152892
 21
581.2841931095064
 31
0.0
  0
LINE
  5
24C
  8
0
  6
CONTINUOUS
 62
     7
 10
156.446631152892
 20
581.2841931095064
 30
0.0
 11
156.4350276325952
 21
581.2858705717149
 31
0.0
  0
LINE
  5
24D
  8
0
  6
CONTINUOUS
 62
     7
 10
156.4350276325952
 20
581.2858705717149
 30
0.0
 11
156.4233736857684
 21
581.2870506612178
 31
0.0
  0
LINE
  5
24E
  8
0
  6
CONTINUOUS
 62
     7
 10
156.4233736857684
 20
581.2870506612178
 30
0.0
 11
156.4113172223036
 21
581.2877405893146
 31
0.0
  0
LINE
  5
24F
  8
0
  6
CONTINUOUS
 62
     7
 10
156.4113172223036
 20
581.2877405893146
 30
0.0
 11
156.3992298609912
 21
581.2878930311628
 31
0.0
  0
LINE
  5
250
  8
0
  6
CONTINUOUS
 62
     7
 10
156.3992298609912
 20
581.2878930311628
 30
0.0
 11
156.3871481243906
 21
581.2875042993073
 31
0.0
  0
LINE
  5
251
  8
0
  6
CONTINUOUS
 62
     7
 10
156.3871481243906
 20
581.2875042993073
 30
0.0
 11
156.3751085350609
 21
581.2865707062928
 31
0.0
  0
LINE
  5
252
  8
0
  6
CONTINUOUS
 62
     7
 10
156.3751085350609
 20
581.2865707062928
 30
0.0
 11
156.3638642796925
 21
581.2851950224591
 31
0.0
  0
LINE
  5
253
  8
0
  6
CONTINUOUS
 62
     7
 10
156.3638642796925
 20
581.2851950224591
 30
0.0
 11
156.3526792239651
 21
581.2833343978823
 31
0.0
  0
LINE
  5
254
  8
0
  6
CONTINUOUS
 62
     7
 10
156.3526792239651
 20
581.2833343978823
 30
0.0
 11
156.3415856063153
 21
581.2809909135892
 31
0.0
  0
LINE
  5
255
  8
0
  6
CONTINUOUS
 62
     7
 10
156.3415856063153
 20
581.2809909135892
 30
0.0
 11
156.3306156651795
 21
581.278166650607
 31
0.0
  0
LINE
  5
256
  8
0
  6
CONTINUOUS
 62
     7
 10
156.3306156651795
 20
581.278166650607
 30
0.0
 11
156.3194292437674
 21
581.2747421917837
 31
0.0
  0
LINE
  5
257
  8
0
  6
CONTINUOUS
 62
     7
 10
156.3194292437674
 20
581.2747421917837
 30
0.0
 11
156.3084002699339
 21
581.2708028656419
 31
0.0
  0
LINE
  5
258
  8
0
  6
CONTINUOUS
 62
     7
 10
156.3084002699339
 20
581.2708028656419
 30
0.0
 11
156.2975655684654
 21
581.2663579974994
 31
0.0
  0
LINE
  5
259
  8
0
  6
CONTINUOUS
 62
     7
 10
156.2975655684654
 20
581.2663579974994
 30
0.0
 11
156.286961964149
 21
581.2614169126746
 31
0.0
  0
LINE
  5
25A
  8
0
  6
CONTINUOUS
 62
     7
 10
156.286961964149
 20
581.2614169126746
 30
0.0
 11
156.2775135411092
 21
581.2564822495392
 31
0.0
  0
LINE
  5
25B
  8
0
  6
CONTINUOUS
 62
     7
 10
156.2775135411092
 20
581.2564822495392
 30
0.0
 11
156.2682785986198
 21
581.2511386113232
 31
0.0
  0
LINE
  5
25C
  8
0
  6
CONTINUOUS
 62
     7
 10
156.2682785986198
 20
581.2511386113232
 30
0.0
 11
156.2592846072064
 21
581.2453991381527
 31
0.0
  0
LINE
  5
25D
  8
0
  6
CONTINUOUS
 62
     7
 10
156.2592846072064
 20
581.2453991381527
 30
0.0
 11
156.2505590373946
 21
581.2392769701543
 31
0.0
  0
LINE
  5
25E
  8
0
  6
CONTINUOUS
 62
     7
 10
156.2505590373946
 20
581.2392769701543
 30
0.0
 11
156.2418420868168
 21
581.2325555229096
 31
0.0
  0
LINE
  5
25F
  8
0
  6
CONTINUOUS
 62
     7
 10
156.2418420868168
 20
581.2325555229096
 30
0.0
 11
156.2334330719023
 21
581.2254345634675
 31
0.0
  0
LINE
  5
260
  8
0
  6
CONTINUOUS
 62
     7
 10
156.2334330719023
 20
581.2254345634675
 30
0.0
 11
156.225359773572
 21
581.2179354399584
 31
0.0
  0
LINE
  5
261
  8
0
  6
CONTINUOUS
 62
     7
 10
156.225359773572
 20
581.2179354399584
 30
0.0
 11
156.2176499727464
 21
581.2100795005131
 31
0.0
  0
LINE
  5
262
  8
0
  6
CONTINUOUS
 62
     7
 10
156.2176499727464
 20
581.2100795005131
 30
0.0
 11
156.2104597553489
 21
581.2020404205231
 31
0.0
  0
LINE
  5
263
  8
0
  6
CONTINUOUS
 62
     7
 10
156.2104597553489
 20
581.2020404205231
 30
0.0
 11
156.2036338158205
 21
581.1936678655684
 31
0.0
  0
LINE
  5
264
  8
0
  6
CONTINUOUS
 62
     7
 10
156.2036338158205
 20
581.1936678655684
 30
0.0
 11
156.1971930754443
 21
581.1849885183931
 31
0.0
  0
LINE
  5
265
  8
0
  6
CONTINUOUS
 62
     7
 10
156.1971930754443
 20
581.1849885183931
 30
0.0
 11
156.1911584555034
 21
581.1760290617407
 31
0.0
  0
LINE
  5
266
  8
0
  6
CONTINUOUS
 62
     7
 10
156.1911584555034
 20
581.1760290617407
 30
0.0
 11
156.1855508772823
 21
581.1668161783542
 31
0.0
  0
LINE
  5
267
  8
0
  6
CONTINUOUS
 62
     7
 10
143.435559791452
 20
559.0831838216459
 30
0.0
 11
143.430781969823
 21
559.0744874575533
 31
0.0
  0
LINE
  5
268
  8
0
  6
CONTINUOUS
 62
     7
 10
143.430781969823
 20
559.0744874575533
 30
0.0
 11
143.4263715450337
 21
559.0655892474304
 31
0.0
  0
LINE
  5
269
  8
0
  6
CONTINUOUS
 62
     7
 10
143.4263715450337
 20
559.0655892474304
 30
0.0
 11
143.4223392907216
 21
559.0565133605741
 31
0.0
  0
LINE
  5
26A
  8
0
  6
CONTINUOUS
 62
     7
 10
143.4223392907216
 20
559.0565133605741
 30
0.0
 11
143.4186959805241
 21
559.0472839662816
 31
0.0
  0
LINE
  5
26B
  8
0
  6
CONTINUOUS
 62
     7
 10
143.4186959805241
 20
559.0472839662816
 30
0.0
 11
143.4153547887509
 21
559.0376280634866
 31
0.0
  0
LINE
  5
26C
  8
0
  6
CONTINUOUS
 62
     7
 10
143.4153547887509
 20
559.0376280634866
 30
0.0
 11
143.4124305391399
 21
559.027827923439
 31
0.0
  0
LINE
  5
26D
  8
0
  6
CONTINUOUS
 62
     7
 10
143.4124305391399
 20
559.027827923439
 30
0.0
 11
143.4099291805837
 21
559.0179112803975
 31
0.0
  0
LINE
  5
26E
  8
0
  6
CONTINUOUS
 62
     7
 10
143.4099291805837
 20
559.0179112803975
 30
0.0
 11
143.407856661975
 21
559.0079058686207
 31
0.0
  0
LINE
  5
26F
  8
0
  6
CONTINUOUS
 62
     7
 10
143.407856661975
 20
559.0079058686207
 30
0.0
 11
143.406256147198
 21
558.9981156669015
 31
0.0
  0
LINE
  5
270
  8
0
  6
CONTINUOUS
 62
     7
 10
143.406256147198
 20
558.9981156669015
 30
0.0
 11
143.4050591956967
 21
558.9882595410074
 31
0.0
  0
LINE
  5
271
  8
0
  6
CONTINUOUS
 62
     7
 10
143.4050591956967
 20
558.9882595410074
 30
0.0
 11
143.4042661046968
 21
558.9783625600302
 31
0.0
  0
LINE
  5
272
  8
0
  6
CONTINUOUS
 62
     7
 10
143.4042661046968
 20
558.9783625600302
 30
0.0
 11
143.4038771714238
 21
558.9684497930616
 31
0.0
  0
LINE
  5
273
  8
0
  6
CONTINUOUS
 62
     7
 10
143.4038771714238
 20
558.9684497930616
 30
0.0
 11
143.4038976704656
 21
558.9582549988312
 31
0.0
  0
LINE
  5
274
  8
0
  6
CONTINUOUS
 62
     7
 10
143.4038976704656
 20
558.9582549988312
 30
0.0
 11
143.4043400168399
 21
558.9480611204876
 31
0.0
  0
LINE
  5
275
  8
0
  6
CONTINUOUS
 62
     7
 10
143.4043400168399
 20
558.9480611204876
 30
0.0
 11
143.4051997069981
 21
558.9378937132457
 31
0.0
  0
LINE
  5
276
  8
0
  6
CONTINUOUS
 62
     7
 10
143.4051997069981
 20
558.9378937132457
 30
0.0
 11
143.4064722373918
 21
558.92777833232
 31
0.0
  0
LINE
  5
277
  8
0
  6
CONTINUOUS
 62
     7
 10
143.4064722373918
 20
558.92777833232
 30
0.0
 11
143.4081522215978
 21
558.9177368284304
 31
0.0
  0
LINE
  5
278
  8
0
  6
CONTINUOUS
 62
     7
 10
143.4081522215978
 20
558.9177368284304
 30
0.0
 11
143.4102356042097
 21
558.9077628849658
 31
0.0
  0
LINE
  5
279
  8
0
  6
CONTINUOUS
 62
     7
 10
143.4102356042097
 20
558.9077628849658
 30
0.0
 11
143.412714063628
 21
558.8978794798348
 31
0.0
  0
LINE
  5
27A
  8
0
  6
CONTINUOUS
 62
     7
 10
143.412714063628
 20
558.8978794798348
 30
0.0
 11
143.4155792782531
 21
558.8881095909461
 31
0.0
  0
LINE
  5
27B
  8
0
  6
CONTINUOUS
 62
     7
 10
143.4155792782531
 20
558.8881095909461
 30
0.0
 11
143.4189167669967
 21
558.8782109497264
 31
0.0
  0
LINE
  5
27C
  8
0
  6
CONTINUOUS
 62
     7
 10
143.4189167669967
 20
558.8782109497264
 30
0.0
 11
143.4226504117552
 21
558.8684459524508
 31
0.0
  0
LINE
  5
27D
  8
0
  6
CONTINUOUS
 62
     7
 10
143.4226504117552
 20
558.8684459524508
 30
0.0
 11
143.4267681587926
 21
558.8588363738028
 31
0.0
  0
LINE
  5
27E
  8
0
  6
CONTINUOUS
 62
     7
 10
143.4267681587926
 20
558.8588363738028
 30
0.0
 11
143.4312579543723
 21
558.8494039884658
 31
0.0
  0
LINE
  5
27F
  8
0
  6
CONTINUOUS
 62
     7
 10
143.4312579543723
 20
558.8494039884658
 30
0.0
 11
143.4362680880934
 21
558.8398769312989
 31
0.0
  0
LINE
  5
280
  8
0
  6
CONTINUOUS
 62
     7
 10
143.4362680880934
 20
558.8398769312989
 30
0.0
 11
143.4416601167538
 21
558.8305507779696
 31
0.0
  0
LINE
  5
281
  8
0
  6
CONTINUOUS
 62
     7
 10
143.4416601167538
 20
558.8305507779696
 30
0.0
 11
143.447418445553
 21
558.8214459939378
 31
0.0
  0
LINE
  5
282
  8
0
  6
CONTINUOUS
 62
     7
 10
143.447418445553
 20
558.8214459939378
 30
0.0
 11
143.4535274796906
 21
558.8125830446638
 31
0.0
  0
LINE
  5
283
  8
0
  6
CONTINUOUS
 62
     7
 10
143.4535274796906
 20
558.8125830446638
 30
0.0
 11
143.460153988669
 21
558.8037468226805
 31
0.0
  0
LINE
  5
284
  8
0
  6
CONTINUOUS
 62
     7
 10
143.460153988669
 20
558.8037468226805
 30
0.0
 11
143.4671351700712
 21
558.7951766376503
 31
0.0
  0
LINE
  5
285
  8
0
  6
CONTINUOUS
 62
     7
 10
143.4671351700712
 20
558.7951766376503
 30
0.0
 11
143.474452295929
 21
558.7868912199687
 31
0.0
  0
LINE
  5
286
  8
0
  6
CONTINUOUS
 62
     7
 10
143.474452295929
 20
558.7868912199687
 30
0.0
 11
143.4820866382744
 21
558.7789093000308
 31
0.0
  0
LINE
  5
287
  8
0
  6
CONTINUOUS
 62
     7
 10
143.4820866382744
 20
558.7789093000308
 30
0.0
 11
143.4926488014735
 21
558.7688391868156
 31
0.0
  0
LINE
  5
288
  8
0
  6
CONTINUOUS
 62
     7
 10
143.4926488014735
 20
558.7688391868156
 30
0.0
 11
143.503735374932
 21
558.7593191723909
 31
0.0
  0
LINE
  5
289
  8
0
  6
CONTINUOUS
 62
     7
 10
143.503735374932
 20
558.7593191723909
 30
0.0
 11
143.5152992030773
 21
558.7503845531132
 31
0.0
  0
LINE
  5
28A
  8
0
  6
CONTINUOUS
 62
     7
 10
143.5152992030773
 20
558.7503845531132
 30
0.0
 11
143.5272931303363
 21
558.7420706253394
 31
0.0
  0
LINE
  5
28B
  8
0
  6
CONTINUOUS
 62
     7
 10
162.7770527711435
 20
569.7500000000001
 30
0.0
 11
162.7869729541827
 21
569.750210467141
 31
0.0
  0
LINE
  5
28C
  8
0
  6
CONTINUOUS
 62
     7
 10
162.7869729541827
 20
569.750210467141
 30
0.0
 11
162.7968842425921
 21
569.7508400322934
 31
0.0
  0
LINE
  5
28D
  8
0
  6
CONTINUOUS
 62
     7
 10
162.7968842425921
 20
569.7508400322934
 30
0.0
 11
162.8067603183276
 21
569.7518859410527
 31
0.0
  0
LINE
  5
28E
  8
0
  6
CONTINUOUS
 62
     7
 10
162.8067603183276
 20
569.7518859410527
 30
0.0
 11
162.8165748633451
 21
569.753345439014
 31
0.0
  0
LINE
  5
28F
  8
0
  6
CONTINUOUS
 62
     7
 10
162.8165748633451
 20
569.753345439014
 30
0.0
 11
162.8266077163486
 21
569.755279833457
 31
0.0
  0
LINE
  5
290
  8
0
  6
CONTINUOUS
 62
     7
 10
162.8266077163486
 20
569.755279833457
 30
0.0
 11
162.8365570113961
 21
569.7576474290306
 31
0.0
  0
LINE
  5
291
  8
0
  6
CONTINUOUS
 62
     7
 10
162.8365570113961
 20
569.7576474290306
 30
0.0
 11
162.8463957554684
 21
569.7604395104978
 31
0.0
  0
LINE
  5
292
  8
0
  6
CONTINUOUS
 62
     7
 10
162.8463957554684
 20
569.7604395104978
 30
0.0
 11
162.8560969555467
 21
569.7636473626212
 31
0.0
  0
LINE
  5
293
  8
0
  6
CONTINUOUS
 62
     7
 10
162.8560969555467
 20
569.7636473626212
 30
0.0
 11
162.8653757763323
 21
569.7671563770248
 31
0.0
  0
LINE
  5
294
  8
0
  6
CONTINUOUS
 62
     7
 10
162.8653757763323
 20
569.7671563770248
 30
0.0
 11
162.8745099074901
 21
569.7710478495646
 31
0.0
  0
LINE
  5
295
  8
0
  6
CONTINUOUS
 62
     7
 10
162.8745099074901
 20
569.7710478495646
 30
0.0
 11
162.8834774899371
 21
569.7753095030998
 31
0.0
  0
LINE
  5
296
  8
0
  6
CONTINUOUS
 62
     7
 10
162.8834774899371
 20
569.7753095030998
 30
0.0
 11
162.8922566645902
 21
569.7799290604894
 31
0.0
  0
LINE
  5
297
  8
0
  6
CONTINUOUS
 62
     7
 10
162.8922566645902
 20
569.7799290604894
 30
0.0
 11
162.9010753658591
 21
569.7850442102954
 31
0.0
  0
LINE
  5
298
  8
0
  6
CONTINUOUS
 62
     7
 10
162.9010753658591
 20
569.7850442102954
 30
0.0
 11
162.9096823502806
 21
569.7905242326647
 31
0.0
  0
LINE
  5
299
  8
0
  6
CONTINUOUS
 62
     7
 10
162.9096823502806
 20
569.7905242326647
 30
0.0
 11
162.9180577381637
 21
569.796352449802
 31
0.0
  0
LINE
  5
29A
  8
0
  6
CONTINUOUS
 62
     7
 10
162.9180577381637
 20
569.796352449802
 30
0.0
 11
162.9261816498174
 21
569.802512183913
 31
0.0
  0
LINE
  5
29B
  8
0
  6
CONTINUOUS
 62
     7
 10
162.9261816498174
 20
569.802512183913
 30
0.0
 11
162.9340378551751
 21
569.808987844858
 31
0.0
  0
LINE
  5
29C
  8
0
  6
CONTINUOUS
 62
     7
 10
162.9340378551751
 20
569.808987844858
 30
0.0
 11
162.9416338522853
 21
569.8157790788581
 31
0.0
  0
LINE
  5
29D
  8
0
  6
CONTINUOUS
 62
     7
 10
162.9416338522853
 20
569.8157790788581
 30
0.0
 11
162.9489539024955
 21
569.8228671902419
 31
0.0
  0
LINE
  5
29E
  8
0
  6
CONTINUOUS
 62
     7
 10
162.9489539024955
 20
569.8228671902419
 30
0.0
 11
162.9559822671526
 21
569.830233483339
 31
0.0
  0
LINE
  5
29F
  8
0
  6
CONTINUOUS
 62
     7
 10
162.9559822671526
 20
569.830233483339
 30
0.0
 11
162.9628859975401
 21
569.8380731539856
 31
0.0
  0
LINE
  5
2A0
  8
0
  6
CONTINUOUS
 62
     7
 10
162.9628859975401
 20
569.8380731539856
 30
0.0
 11
162.9694759108694
 21
569.8461890838331
 31
0.0
  0
LINE
  5
2A1
  8
0
  6
CONTINUOUS
 62
     7
 10
162.9694759108694
 20
569.8461890838331
 30
0.0
 11
162.9757391765797
 21
569.8545599466978
 31
0.0
  0
LINE
  5
2A2
  8
0
  6
CONTINUOUS
 62
     7
 10
162.9757391765797
 20
569.8545599466978
 30
0.0
 11
162.9816629641098
 21
569.8631644163962
 31
0.0
  0
LINE
  5
2A3
  8
0
  6
CONTINUOUS
 62
     7
 10
162.9816629641098
 20
569.8631644163962
 30
0.0
 11
162.987408570779
 21
569.8722668480583
 31
0.0
  0
LINE
  5
2A4
  8
0
  6
CONTINUOUS
 62
     7
 10
162.987408570779
 20
569.8722668480583
 30
0.0
 11
162.9927892421517
 21
569.8815995585209
 31
0.0
  0
LINE
  5
2A5
  8
0
  6
CONTINUOUS
 62
     7
 10
162.9927892421517
 20
569.8815995585209
 30
0.0
 11
162.9977950520196
 21
569.8911388095603
 31
0.0
  0
LINE
  5
2A6
  8
0
  6
CONTINUOUS
 62
     7
 10
162.9977950520196
 20
569.8911388095603
 30
0.0
 11
163.0024160741745
 21
569.900860862953
 31
0.0
  0
LINE
  5
2A7
  8
0
  6
CONTINUOUS
 62
     7
 10
163.0024160741745
 20
569.900860862953
 30
0.0
 11
163.0067552123964
 21
569.9110176990583
 31
0.0
  0
LINE
  5
2A8
  8
0
  6
CONTINUOUS
 62
     7
 10
163.0067552123964
 20
569.9110176990583
 30
0.0
 11
163.0106866196466
 21
569.9213486720162
 31
0.0
  0
LINE
  5
2A9
  8
0
  6
CONTINUOUS
 62
     7
 10
163.0106866196466
 20
569.9213486720162
 30
0.0
 11
163.0142034389109
 21
569.9318281977326
 31
0.0
  0
LINE
  5
2AA
  8
0
  6
CONTINUOUS
 62
     7
 10
163.0142034389109
 20
569.9318281977326
 30
0.0
 11
163.0172988131753
 21
569.9424306921137
 31
0.0
  0
LINE
  5
2AB
  8
0
  6
CONTINUOUS
 62
     7
 10
163.0172988131753
 20
569.9424306921137
 30
0.0
 11
163.0207387054392
 21
569.9566128503707
 31
0.0
  0
LINE
  5
2AC
  8
0
  6
CONTINUOUS
 62
     7
 10
163.0207387054392
 20
569.9566128503707
 30
0.0
 11
163.0234399930461
 21
569.9709741118392
 31
0.0
  0
LINE
  5
2AD
  8
0
  6
CONTINUOUS
 62
     7
 10
163.0234399930461
 20
569.9709741118392
 30
0.0
 11
163.0253956862411
 21
569.9854559904168
 31
0.0
  0
LINE
  5
2AE
  8
0
  6
CONTINUOUS
 62
     7
 10
163.0253956862411
 20
569.9854559904168
 30
0.0
 11
163.0265987952691
 21
570.000000000001
 31
0.0
  0
LINE
  5
2AF
  8
0
  6
CONTINUOUS
 62
     7
 10
143.8685724933443
 20
581.1668161783542
 30
0.0
 11
143.863430131934
 21
581.1753020753059
 31
0.0
  0
LINE
  5
2B0
  8
0
  6
CONTINUOUS
 62
     7
 10
143.863430131934
 20
581.1753020753059
 30
0.0
 11
143.8579292683139
 21
581.1835707202765
 31
0.0
  0
LINE
  5
2B1
  8
0
  6
CONTINUOUS
 62
     7
 10
143.8579292683139
 20
581.1835707202765
 30
0.0
 11
143.8520854468906
 21
581.1916006983733
 31
0.0
  0
LINE
  5
2B2
  8
0
  6
CONTINUOUS
 62
     7
 10
143.8520854468906
 20
581.1916006983733
 30
0.0
 11
143.8459142120706
 21
581.1993705947045
 31
0.0
  0
LINE
  5
2B3
  8
0
  6
CONTINUOUS
 62
     7
 10
143.8459142120706
 20
581.1993705947045
 30
0.0
 11
143.8392225508402
 21
581.2070921030564
 31
0.0
  0
LINE
  5
2B4
  8
0
  6
CONTINUOUS
 62
     7
 10
143.8392225508402
 20
581.2070921030564
 30
0.0
 11
143.8321975054038
 21
581.2145246475304
 31
0.0
  0
LINE
  5
2B5
  8
0
  6
CONTINUOUS
 62
     7
 10
143.8321975054038
 20
581.2145246475304
 30
0.0
 11
143.8248601198877
 21
581.2216492091048
 31
0.0
  0
LINE
  5
2B6
  8
0
  6
CONTINUOUS
 62
     7
 10
143.8248601198877
 20
581.2216492091048
 30
0.0
 11
143.8172314384181
 21
581.2284467687583
 31
0.0
  0
LINE
  5
2B7
  8
0
  6
CONTINUOUS
 62
     7
 10
143.8172314384181
 20
581.2284467687583
 30
0.0
 11
143.8095531324095
 21
581.2347279560739
 31
0.0
  0
LINE
  5
2B8
  8
0
  6
CONTINUOUS
 62
     7
 10
143.8095531324095
 20
581.2347279560739
 30
0.0
 11
143.801615952753
 21
581.2406926094282
 31
0.0
  0
LINE
  5
2B9
  8
0
  6
CONTINUOUS
 62
     7
 10
143.801615952753
 20
581.2406926094282
 30
0.0
 11
143.7934414613059
 21
581.2463279368701
 31
0.0
  0
LINE
  5
2BA
  8
0
  6
CONTINUOUS
 62
     7
 10
143.7934414613059
 20
581.2463279368701
 30
0.0
 11
143.7850512199257
 21
581.2516211464492
 31
0.0
  0
LINE
  5
2BB
  8
0
  6
CONTINUOUS
 62
     7
 10
143.7850512199257
 20
581.2516211464492
 30
0.0
 11
143.7762120196151
 21
581.2567007908734
 31
0.0
  0
LINE
  5
2BC
  8
0
  6
CONTINUOUS
 62
     7
 10
143.7762120196151
 20
581.2567007908734
 30
0.0
 11
143.7671626888193
 21
581.2614146468479
 31
0.0
  0
LINE
  5
2BD
  8
0
  6
CONTINUOUS
 62
     7
 10
143.7671626888193
 20
581.2614146468479
 30
0.0
 11
143.757927610778
 21
581.2657538369524
 31
0.0
  0
LINE
  5
2BE
  8
0
  6
CONTINUOUS
 62
     7
 10
143.757927610778
 20
581.2657538369524
 30
0.0
 11
143.7485311687305
 21
581.2697094837672
 31
0.0
  0
LINE
  5
2BF
  8
0
  6
CONTINUOUS
 62
     7
 10
143.7485311687305
 20
581.2697094837672
 30
0.0
 11
143.7389949791669
 21
581.2732753267117
 31
0.0
  0
LINE
  5
2C0
  8
0
  6
CONTINUOUS
 62
     7
 10
143.7389949791669
 20
581.2732753267117
 30
0.0
 11
143.7293155994447
 21
581.2764580361763
 31
0.0
  0
LINE
  5
2C1
  8
0
  6
CONTINUOUS
 62
     7
 10
143.7293155994447
 20
581.2764580361763
 30
0.0
 11
143.7195170898163
 21
581.2792533299232
 31
0.0
  0
LINE
  5
2C2
  8
0
  6
CONTINUOUS
 62
     7
 10
143.7195170898163
 20
581.2792533299232
 30
0.0
 11
143.709623510534
 21
581.2816569257149
 31
0.0
  0
LINE
  5
2C3
  8
0
  6
CONTINUOUS
 62
     7
 10
143.709623510534
 20
581.2816569257149
 30
0.0
 11
143.699382291403
 21
581.2837158962881
 31
0.0
  0
LINE
  5
2C4
  8
0
  6
CONTINUOUS
 62
     7
 10
143.699382291403
 20
581.2837158962881
 30
0.0
 11
143.6890587333151
 21
581.2853649637162
 31
0.0
  0
LINE
  5
2C5
  8
0
  6
CONTINUOUS
 62
     7
 10
143.6890587333151
 20
581.2853649637162
 30
0.0
 11
143.6786777205675
 21
581.2866036794996
 31
0.0
  0
LINE
  5
2C6
  8
0
  6
CONTINUOUS
 62
     7
 10
143.6786777205675
 20
581.2866036794996
 30
0.0
 11
143.6682641374576
 21
581.2874315951382
 31
0.0
  0
LINE
  5
2C7
  8
0
  6
CONTINUOUS
 62
     7
 10
143.6682641374576
 20
581.2874315951382
 30
0.0
 11
143.6575083970674
 21
581.2878562206428
 31
0.0
  0
LINE
  5
2C8
  8
0
  6
CONTINUOUS
 62
     7
 10
143.6575083970674
 20
581.2878562206428
 30
0.0
 11
143.6467356970343
 21
581.2878496635096
 31
0.0
  0
LINE
  5
2C9
  8
0
  6
CONTINUOUS
 62
     7
 10
143.6467356970343
 20
581.2878496635096
 30
0.0
 11
143.6359715583671
 21
581.287415196502
 31
0.0
  0
LINE
  5
2CA
  8
0
  6
CONTINUOUS
 62
     7
 10
143.6359715583671
 20
581.287415196502
 30
0.0
 11
143.6252415020747
 21
581.2865560923833
 31
0.0
  0
LINE
  5
2CB
  8
0
  6
CONTINUOUS
 62
     7
 10
143.6252415020747
 20
581.2865560923833
 30
0.0
 11
143.6142758548744
 21
581.2852354782613
 31
0.0
  0
LINE
  5
2CC
  8
0
  6
CONTINUOUS
 62
     7
 10
143.6142758548744
 20
581.2852354782613
 30
0.0
 11
143.6033632662221
 21
581.2834746903337
 31
0.0
  0
LINE
  5
2CD
  8
0
  6
CONTINUOUS
 62
     7
 10
143.6033632662221
 20
581.2834746903337
 30
0.0
 11
143.5925293210999
 21
581.281280582299
 31
0.0
  0
LINE
  5
2CE
  8
0
  6
CONTINUOUS
 62
     7
 10
143.5925293210999
 20
581.281280582299
 30
0.0
 11
143.5817996044901
 21
581.2786600078556
 31
0.0
  0
LINE
  5
2CF
  8
0
  6
CONTINUOUS
 62
     7
 10
143.5817996044901
 20
581.2786600078556
 30
0.0
 11
143.5677975490271
 21
581.2745479628138
 31
0.0
  0
LINE
  5
2D0
  8
0
  6
CONTINUOUS
 62
     7
 10
143.5677975490271
 20
581.2745479628138
 30
0.0
 11
143.5540096879616
 21
581.2697067157701
 31
0.0
  0
LINE
  5
2D1
  8
0
  6
CONTINUOUS
 62
     7
 10
143.5540096879616
 20
581.2697067157701
 30
0.0
 11
143.5404901666213
 21
581.2641594564702
 31
0.0
  0
LINE
  5
2D2
  8
0
  6
CONTINUOUS
 62
     7
 10
143.5404901666213
 20
581.2641594564702
 30
0.0
 11
143.5272931303345
 21
581.2579293746599
 31
0.0
  0
LINE
  5
2D3
  8
0
  6
CONTINUOUS
 62
     7
 10
156.6185635791745
 20
580.9168161783542
 30
0.0
 11
156.6233414008035
 21
580.9255125424468
 31
0.0
  0
LINE
  5
2D4
  8
0
  6
CONTINUOUS
 62
     7
 10
156.6233414008035
 20
580.9255125424468
 30
0.0
 11
156.6277518255928
 21
580.9344107525698
 31
0.0
  0
LINE
  5
2D5
  8
0
  6
CONTINUOUS
 62
     7
 10
156.6277518255928
 20
580.9344107525698
 30
0.0
 11
156.6317840799049
 21
580.943486639426
 31
0.0
  0
LINE
  5
2D6
  8
0
  6
CONTINUOUS
 62
     7
 10
156.6317840799049
 20
580.943486639426
 30
0.0
 11
156.6354273901024
 21
580.9527160337184
 31
0.0
  0
LINE
  5
2D7
  8
0
  6
CONTINUOUS
 62
     7
 10
156.6354273901024
 20
580.9527160337184
 30
0.0
 11
156.6387685818756
 21
580.9623719365135
 31
0.0
  0
LINE
  5
2D8
  8
0
  6
CONTINUOUS
 62
     7
 10
156.6387685818756
 20
580.9623719365135
 30
0.0
 11
156.6416928314866
 21
580.9721720765612
 31
0.0
  0
LINE
  5
2D9
  8
0
  6
CONTINUOUS
 62
     7
 10
156.6416928314866
 20
580.9721720765612
 30
0.0
 11
156.6441941900428
 21
580.9820887196026
 31
0.0
  0
LINE
  5
2DA
  8
0
  6
CONTINUOUS
 62
     7
 10
156.6441941900428
 20
580.9820887196026
 30
0.0
 11
156.6462667086516
 21
580.9920941313794
 31
0.0
  0
LINE
  5
2DB
  8
0
  6
CONTINUOUS
 62
     7
 10
156.6462667086516
 20
580.9920941313794
 30
0.0
 11
156.6478672234285
 21
581.0018843330986
 31
0.0
  0
LINE
  5
2DC
  8
0
  6
CONTINUOUS
 62
     7
 10
156.6478672234285
 20
581.0018843330986
 30
0.0
 11
156.6490641749298
 21
581.0117404589927
 31
0.0
  0
LINE
  5
2DD
  8
0
  6
CONTINUOUS
 62
     7
 10
156.6490641749298
 20
581.0117404589927
 30
0.0
 11
156.6498572659297
 21
581.0216374399699
 31
0.0
  0
LINE
  5
2DE
  8
0
  6
CONTINUOUS
 62
     7
 10
156.6498572659297
 20
581.0216374399699
 30
0.0
 11
156.6502461992027
 21
581.0315502069385
 31
0.0
  0
LINE
  5
2DF
  8
0
  6
CONTINUOUS
 62
     7
 10
156.6502461992027
 20
581.0315502069385
 30
0.0
 11
156.6502257001609
 21
581.0417450011689
 31
0.0
  0
LINE
  5
2E0
  8
0
  6
CONTINUOUS
 62
     7
 10
156.6502257001609
 20
581.0417450011689
 30
0.0
 11
156.6497833537867
 21
581.0519388795125
 31
0.0
  0
LINE
  5
2E1
  8
0
  6
CONTINUOUS
 62
     7
 10
156.6497833537867
 20
581.0519388795125
 30
0.0
 11
156.6489236636284
 21
581.0621062867544
 31
0.0
  0
LINE
  5
2E2
  8
0
  6
CONTINUOUS
 62
     7
 10
156.6489236636284
 20
581.0621062867544
 30
0.0
 11
156.6476511332347
 21
581.0722216676801
 31
0.0
  0
LINE
  5
2E3
  8
0
  6
CONTINUOUS
 62
     7
 10
156.6476511332347
 20
581.0722216676801
 30
0.0
 11
156.6459711490287
 21
581.0822631715697
 31
0.0
  0
LINE
  5
2E4
  8
0
  6
CONTINUOUS
 62
     7
 10
156.6459711490287
 20
581.0822631715697
 30
0.0
 11
156.6438877664168
 21
581.0922371150343
 31
0.0
  0
LINE
  5
2E5
  8
0
  6
CONTINUOUS
 62
     7
 10
156.6438877664168
 20
581.0922371150343
 30
0.0
 11
156.6414093069986
 21
581.1021205201653
 31
0.0
  0
LINE
  5
2E6
  8
0
  6
CONTINUOUS
 62
     7
 10
156.6414093069986
 20
581.1021205201653
 30
0.0
 11
156.6385440923734
 21
581.111890409054
 31
0.0
  0
LINE
  5
2E7
  8
0
  6
CONTINUOUS
 62
     7
 10
156.6385440923734
 20
581.111890409054
 30
0.0
 11
156.6352066036299
 21
581.1217890502736
 31
0.0
  0
LINE
  5
2E8
  8
0
  6
CONTINUOUS
 62
     7
 10
156.6352066036299
 20
581.1217890502736
 30
0.0
 11
156.6314729588713
 21
581.1315540475493
 31
0.0
  0
LINE
  5
2E9
  8
0
  6
CONTINUOUS
 62
     7
 10
156.6314729588713
 20
581.1315540475493
 30
0.0
 11
156.627355211834
 21
581.1411636261973
 31
0.0
  0
LINE
  5
2EA
  8
0
  6
CONTINUOUS
 62
     7
 10
156.627355211834
 20
581.1411636261973
 30
0.0
 11
156.6228654162542
 21
581.1505960115343
 31
0.0
  0
LINE
  5
2EB
  8
0
  6
CONTINUOUS
 62
     7
 10
156.6228654162542
 20
581.1505960115343
 30
0.0
 11
156.6178552825332
 21
581.1601230687011
 31
0.0
  0
LINE
  5
2EC
  8
0
  6
CONTINUOUS
 62
     7
 10
156.6178552825332
 20
581.1601230687011
 30
0.0
 11
156.6124632538728
 21
581.1694492220305
 31
0.0
  0
LINE
  5
2ED
  8
0
  6
CONTINUOUS
 62
     7
 10
156.6124632538728
 20
581.1694492220305
 30
0.0
 11
156.6067049250735
 21
581.1785540060623
 31
0.0
  0
LINE
  5
2EE
  8
0
  6
CONTINUOUS
 62
     7
 10
156.6067049250735
 20
581.1785540060623
 30
0.0
 11
156.6005958909359
 21
581.1874169553363
 31
0.0
  0
LINE
  5
2EF
  8
0
  6
CONTINUOUS
 62
     7
 10
156.6005958909359
 20
581.1874169553363
 30
0.0
 11
156.5939693819575
 21
581.1962531773196
 31
0.0
  0
LINE
  5
2F0
  8
0
  6
CONTINUOUS
 62
     7
 10
156.5939693819575
 20
581.1962531773196
 30
0.0
 11
156.5869882005554
 21
581.2048233623498
 31
0.0
  0
LINE
  5
2F1
  8
0
  6
CONTINUOUS
 62
     7
 10
156.5869882005554
 20
581.2048233623498
 30
0.0
 11
156.5796710746976
 21
581.2131087800313
 31
0.0
  0
LINE
  5
2F2
  8
0
  6
CONTINUOUS
 62
     7
 10
156.5796710746976
 20
581.2131087800313
 30
0.0
 11
156.5720367323521
 21
581.2210906999692
 31
0.0
  0
LINE
  5
2F3
  8
0
  6
CONTINUOUS
 62
     7
 10
156.5720367323521
 20
581.2210906999692
 30
0.0
 11
156.5614745691531
 21
581.2311608131845
 31
0.0
  0
LINE
  5
2F4
  8
0
  6
CONTINUOUS
 62
     7
 10
156.5614745691531
 20
581.2311608131845
 30
0.0
 11
156.5503879956945
 21
581.2406808276093
 31
0.0
  0
LINE
  5
2F5
  8
0
  6
CONTINUOUS
 62
     7
 10
156.5503879956945
 20
581.2406808276093
 30
0.0
 11
156.5388241675493
 21
581.2496154468869
 31
0.0
  0
LINE
  5
2F6
  8
0
  6
CONTINUOUS
 62
     7
 10
156.5388241675493
 20
581.2496154468869
 30
0.0
 11
156.5268302402903
 21
581.2579293746608
 31
0.0
  0
LINE
  5
2F7
  8
0
  6
CONTINUOUS
 62
     7
 10
137.277070599483
 20
570.25
 30
0.0
 11
137.2671504164438
 21
570.2497895328592
 31
0.0
  0
LINE
  5
2F8
  8
0
  6
CONTINUOUS
 62
     7
 10
137.2671504164438
 20
570.2497895328592
 30
0.0
 11
137.2572391280344
 21
570.2491599677068
 31
0.0
  0
LINE
  5
2F9
  8
0
  6
CONTINUOUS
 62
     7
 10
137.2572391280344
 20
570.2491599677068
 30
0.0
 11
137.2473630522989
 21
570.2481140589474
 31
0.0
  0
LINE
  5
2FA
  8
0
  6
CONTINUOUS
 62
     7
 10
137.2473630522989
 20
570.2481140589474
 30
0.0
 11
137.2375485072814
 21
570.2466545609861
 31
0.0
  0
LINE
  5
2FB
  8
0
  6
CONTINUOUS
 62
     7
 10
137.2375485072814
 20
570.2466545609861
 30
0.0
 11
137.2275156542779
 21
570.2447201665431
 31
0.0
  0
LINE
  5
2FC
  8
0
  6
CONTINUOUS
 62
     7
 10
137.2275156542779
 20
570.2447201665431
 30
0.0
 11
137.2175663592305
 21
570.2423525709694
 31
0.0
  0
LINE
  5
2FD
  8
0
  6
CONTINUOUS
 62
     7
 10
137.2175663592305
 20
570.2423525709694
 30
0.0
 11
137.2077276151581
 21
570.2395604895023
 31
0.0
  0
LINE
  5
2FE
  8
0
  6
CONTINUOUS
 62
     7
 10
137.2077276151581
 20
570.2395604895023
 30
0.0
 11
137.1980264150798
 21
570.2363526373789
 31
0.0
  0
LINE
  5
2FF
  8
0
  6
CONTINUOUS
 62
     7
 10
137.1980264150798
 20
570.2363526373789
 30
0.0
 11
137.1887475942942
 21
570.2328436229753
 31
0.0
  0
LINE
  5
300
  8
0
  6
CONTINUOUS
 62
     7
 10
137.1887475942942
 20
570.2328436229753
 30
0.0
 11
137.1796134631365
 21
570.2289521504355
 31
0.0
  0
LINE
  5
301
  8
0
  6
CONTINUOUS
 62
     7
 10
137.1796134631365
 20
570.2289521504355
 30
0.0
 11
137.1706458806895
 21
570.2246904969003
 31
0.0
  0
LINE
  5
302
  8
0
  6
CONTINUOUS
 62
     7
 10
137.1706458806895
 20
570.2246904969003
 30
0.0
 11
137.1618667060363
 21
570.2200709395107
 31
0.0
  0
LINE
  5
303
  8
0
  6
CONTINUOUS
 62
     7
 10
137.1618667060363
 20
570.2200709395107
 30
0.0
 11
137.1530480047674
 21
570.2149557897047
 31
0.0
  0
LINE
  5
304
  8
0
  6
CONTINUOUS
 62
     7
 10
137.1530480047674
 20
570.2149557897047
 30
0.0
 11
137.1444410203459
 21
570.2094757673354
 31
0.0
  0
LINE
  5
305
  8
0
  6
CONTINUOUS
 62
     7
 10
137.1444410203459
 20
570.2094757673354
 30
0.0
 11
137.1360656324628
 21
570.2036475501981
 31
0.0
  0
LINE
  5
306
  8
0
  6
CONTINUOUS
 62
     7
 10
137.1360656324628
 20
570.2036475501981
 30
0.0
 11
137.1279417208091
 21
570.1974878160871
 31
0.0
  0
LINE
  5
307
  8
0
  6
CONTINUOUS
 62
     7
 10
137.1279417208091
 20
570.1974878160871
 30
0.0
 11
137.1200855154514
 21
570.191012155142
 31
0.0
  0
LINE
  5
308
  8
0
  6
CONTINUOUS
 62
     7
 10
137.1200855154514
 20
570.191012155142
 30
0.0
 11
137.1124895183412
 21
570.1842209211419
 31
0.0
  0
LINE
  5
309
  8
0
  6
CONTINUOUS
 62
     7
 10
137.1124895183412
 20
570.1842209211419
 30
0.0
 11
137.1051694681311
 21
570.1771328097581
 31
0.0
  0
LINE
  5
30A
  8
0
  6
CONTINUOUS
 62
     7
 10
137.1051694681311
 20
570.1771328097581
 30
0.0
 11
137.0981411034739
 21
570.1697665166611
 31
0.0
  0
LINE
  5
30B
  8
0
  6
CONTINUOUS
 62
     7
 10
137.0981411034739
 20
570.1697665166611
 30
0.0
 11
137.0912373730864
 21
570.1619268460144
 31
0.0
  0
LINE
  5
30C
  8
0
  6
CONTINUOUS
 62
     7
 10
137.0912373730864
 20
570.1619268460144
 30
0.0
 11
137.0846474597571
 21
570.153810916167
 31
0.0
  0
LINE
  5
30D
  8
0
  6
CONTINUOUS
 62
     7
 10
137.0846474597571
 20
570.153810916167
 30
0.0
 11
137.0783841940468
 21
570.1454400533022
 31
0.0
  0
LINE
  5
30E
  8
0
  6
CONTINUOUS
 62
     7
 10
137.0783841940468
 20
570.1454400533022
 30
0.0
 11
137.0724604065167
 21
570.1368355836039
 31
0.0
  0
LINE
  5
30F
  8
0
  6
CONTINUOUS
 62
     7
 10
137.0724604065167
 20
570.1368355836039
 30
0.0
 11
137.0667147998475
 21
570.1277331519417
 31
0.0
  0
LINE
  5
310
  8
0
  6
CONTINUOUS
 62
     7
 10
137.0667147998475
 20
570.1277331519417
 30
0.0
 11
137.0613341284748
 21
570.1184004414793
 31
0.0
  0
LINE
  5
311
  8
0
  6
CONTINUOUS
 62
     7
 10
137.0613341284748
 20
570.1184004414793
 30
0.0
 11
137.0563283186069
 21
570.1088611904398
 31
0.0
  0
LINE
  5
312
  8
0
  6
CONTINUOUS
 62
     7
 10
137.0563283186069
 20
570.1088611904398
 30
0.0
 11
137.051707296452
 21
570.0991391370471
 31
0.0
  0
LINE
  5
313
  8
0
  6
CONTINUOUS
 62
     7
 10
137.051707296452
 20
570.0991391370471
 30
0.0
 11
137.0473681582301
 21
570.0889823009418
 31
0.0
  0
LINE
  5
314
  8
0
  6
CONTINUOUS
 62
     7
 10
137.0473681582301
 20
570.0889823009418
 30
0.0
 11
137.04343675098
 21
570.078651327984
 31
0.0
  0
LINE
  5
315
  8
0
  6
CONTINUOUS
 62
     7
 10
137.04343675098
 20
570.078651327984
 30
0.0
 11
137.0399199317156
 21
570.0681718022676
 31
0.0
  0
LINE
  5
316
  8
0
  6
CONTINUOUS
 62
     7
 10
137.0399199317156
 20
570.0681718022676
 30
0.0
 11
137.0368245574512
 21
570.0575693078864
 31
0.0
  0
LINE
  5
317
  8
0
  6
CONTINUOUS
 62
     7
 10
137.0368245574512
 20
570.0575693078864
 30
0.0
 11
137.0333846651874
 21
570.0433871496294
 31
0.0
  0
LINE
  5
318
  8
0
  6
CONTINUOUS
 62
     7
 10
137.0333846651874
 20
570.0433871496294
 30
0.0
 11
137.0306833775804
 21
570.029025888161
 31
0.0
  0
LINE
  5
319
  8
0
  6
CONTINUOUS
 62
     7
 10
137.0306833775804
 20
570.029025888161
 30
0.0
 11
137.0287276843854
 21
570.0145440095833
 31
0.0
  0
LINE
  5
31A
  8
0
  6
CONTINUOUS
 62
     7
 10
137.0287276843854
 20
570.0145440095833
 30
0.0
 11
137.0275245753575
 21
569.9999999999991
 31
0.0
  0
LINE
  5
31B
  8
0
  6
CONTINUOUS
 62
     7
 10
156.1855508772823
 20
558.8331838216459
 30
0.0
 11
156.1906932386925
 21
558.8246979246941
 31
0.0
  0
LINE
  5
31C
  8
0
  6
CONTINUOUS
 62
     7
 10
156.1906932386925
 20
558.8246979246941
 30
0.0
 11
156.1961941023126
 21
558.8164292797236
 31
0.0
  0
LINE
  5
31D
  8
0
  6
CONTINUOUS
 62
     7
 10
156.1961941023126
 20
558.8164292797236
 30
0.0
 11
156.202037923736
 21
558.8083993016268
 31
0.0
  0
LINE
  5
31E
  8
0
  6
CONTINUOUS
 62
     7
 10
156.202037923736
 20
558.8083993016268
 30
0.0
 11
156.2082091585559
 21
558.8006294052956
 31
0.0
  0
LINE
  5
31F
  8
0
  6
CONTINUOUS
 62
     7
 10
156.2082091585559
 20
558.8006294052956
 30
0.0
 11
156.2149008197863
 21
558.7929078969436
 31
0.0
  0
LINE
  5
320
  8
0
  6
CONTINUOUS
 62
     7
 10
156.2149008197863
 20
558.7929078969436
 30
0.0
 11
156.2219258652227
 21
558.7854753524697
 31
0.0
  0
LINE
  5
321
  8
0
  6
CONTINUOUS
 62
     7
 10
156.2219258652227
 20
558.7854753524697
 30
0.0
 11
156.2292632507389
 21
558.7783507908952
 31
0.0
  0
LINE
  5
322
  8
0
  6
CONTINUOUS
 62
     7
 10
156.2292632507389
 20
558.7783507908952
 30
0.0
 11
156.2368919322085
 21
558.7715532312418
 31
0.0
  0
LINE
  5
323
  8
0
  6
CONTINUOUS
 62
     7
 10
156.2368919322085
 20
558.7715532312418
 30
0.0
 11
156.244570238217
 21
558.7652720439262
 31
0.0
  0
LINE
  5
324
  8
0
  6
CONTINUOUS
 62
     7
 10
156.244570238217
 20
558.7652720439262
 30
0.0
 11
156.2525074178735
 21
558.759307390572
 31
0.0
  0
LINE
  5
325
  8
0
  6
CONTINUOUS
 62
     7
 10
156.2525074178735
 20
558.759307390572
 30
0.0
 11
156.2606819093206
 21
558.75367206313
 31
0.0
  0
LINE
  5
326
  8
0
  6
CONTINUOUS
 62
     7
 10
156.2606819093206
 20
558.75367206313
 30
0.0
 11
156.2690721507008
 21
558.7483788535509
 31
0.0
  0
LINE
  5
327
  8
0
  6
CONTINUOUS
 62
     7
 10
156.2690721507008
 20
558.7483788535509
 30
0.0
 11
156.2779113510114
 21
558.7432992091267
 31
0.0
  0
LINE
  5
328
  8
0
  6
CONTINUOUS
 62
     7
 10
156.2779113510114
 20
558.7432992091267
 30
0.0
 11
156.2869606818072
 21
558.7385853531522
 31
0.0
  0
LINE
  5
329
  8
0
  6
CONTINUOUS
 62
     7
 10
156.2869606818072
 20
558.7385853531522
 30
0.0
 11
156.2961957598485
 21
558.7342461630477
 31
0.0
  0
LINE
  5
32A
  8
0
  6
CONTINUOUS
 62
     7
 10
156.2961957598485
 20
558.7342461630477
 30
0.0
 11
156.305592201896
 21
558.7302905162329
 31
0.0
  0
LINE
  5
32B
  8
0
  6
CONTINUOUS
 62
     7
 10
156.305592201896
 20
558.7302905162329
 30
0.0
 11
156.3151283914596
 21
558.7267246732885
 31
0.0
  0
LINE
  5
32C
  8
0
  6
CONTINUOUS
 62
     7
 10
156.3151283914596
 20
558.7267246732885
 30
0.0
 11
156.3248077711818
 21
558.7235419638238
 31
0.0
  0
LINE
  5
32D
  8
0
  6
CONTINUOUS
 62
     7
 10
156.3248077711818
 20
558.7235419638238
 30
0.0
 11
156.3346062808102
 21
558.7207466700769
 31
0.0
  0
LINE
  5
32E
  8
0
  6
CONTINUOUS
 62
     7
 10
156.3346062808102
 20
558.7207466700769
 30
0.0
 11
156.3444998600925
 21
558.7183430742853
 31
0.0
  0
LINE
  5
32F
  8
0
  6
CONTINUOUS
 62
     7
 10
156.3444998600925
 20
558.7183430742853
 30
0.0
 11
156.3547410792235
 21
558.7162841037119
 31
0.0
  0
LINE
  5
330
  8
0
  6
CONTINUOUS
 62
     7
 10
156.3547410792235
 20
558.7162841037119
 30
0.0
 11
156.3650646373115
 21
558.7146350362838
 31
0.0
  0
LINE
  5
331
  8
0
  6
CONTINUOUS
 62
     7
 10
156.3650646373115
 20
558.7146350362838
 30
0.0
 11
156.375445650059
 21
558.7133963205005
 31
0.0
  0
LINE
  5
332
  8
0
  6
CONTINUOUS
 62
     7
 10
156.375445650059
 20
558.7133963205005
 30
0.0
 11
156.3858592331689
 21
558.7125684048619
 31
0.0
  0
LINE
  5
333
  8
0
  6
CONTINUOUS
 62
     7
 10
156.3858592331689
 20
558.7125684048619
 30
0.0
 11
156.3966149735591
 21
558.7121437793572
 31
0.0
  0
LINE
  5
334
  8
0
  6
CONTINUOUS
 62
     7
 10
156.3966149735591
 20
558.7121437793572
 30
0.0
 11
156.4073876735922
 21
558.7121503364905
 31
0.0
  0
LINE
  5
335
  8
0
  6
CONTINUOUS
 62
     7
 10
156.4073876735922
 20
558.7121503364905
 30
0.0
 11
156.4181518122594
 21
558.7125848034981
 31
0.0
  0
LINE
  5
336
  8
0
  6
CONTINUOUS
 62
     7
 10
156.4181518122594
 20
558.7125848034981
 30
0.0
 11
156.4288818685519
 21
558.7134439076168
 31
0.0
  0
LINE
  5
337
  8
0
  6
CONTINUOUS
 62
     7
 10
156.4288818685519
 20
558.7134439076168
 30
0.0
 11
156.4398475157521
 21
558.7147645217389
 31
0.0
  0
LINE
  5
338
  8
0
  6
CONTINUOUS
 62
     7
 10
156.4398475157521
 20
558.7147645217389
 30
0.0
 11
156.4507601044045
 21
558.7165253096664
 31
0.0
  0
LINE
  5
339
  8
0
  6
CONTINUOUS
 62
     7
 10
156.4507601044045
 20
558.7165253096664
 30
0.0
 11
156.4615940495266
 21
558.7187194177011
 31
0.0
  0
LINE
  5
33A
  8
0
  6
CONTINUOUS
 62
     7
 10
156.4615940495266
 20
558.7187194177011
 30
0.0
 11
156.4723237661364
 21
558.7213399921445
 31
0.0
  0
LINE
  5
33B
  8
0
  6
CONTINUOUS
 62
     7
 10
156.4723237661364
 20
558.7213399921445
 30
0.0
 11
156.4863258215994
 21
558.7254520371863
 31
0.0
  0
LINE
  5
33C
  8
0
  6
CONTINUOUS
 62
     7
 10
156.4863258215994
 20
558.7254520371863
 30
0.0
 11
156.5001136826649
 21
558.7302932842299
 31
0.0
  0
LINE
  5
33D
  8
0
  6
CONTINUOUS
 62
     7
 10
156.5001136826649
 20
558.7302932842299
 30
0.0
 11
156.5136332040052
 21
558.7358405435299
 31
0.0
  0
LINE
  5
33E
  8
0
  6
CONTINUOUS
 62
     7
 10
156.5136332040052
 20
558.7358405435299
 30
0.0
 11
156.5268302402921
 21
558.7420706253403
 31
0.0
  0
ARC
  5
33F
  8
0
  6
CONTINUOUS
 62
     7
 10
150.0270616853133
 20
570.0
 30
0.0
 40
17.0
 50
180.9322681004678
 51
179.0677318995322
  0
LINE
  5
340
  8
0
  6
CONTINUOUS
 62
     7
 10
133.0293120128138
 20
570.2765973084513
 30
0.0
 11
135.2793001415616
 21
570.2569619595209
 31
0.0
  0
LINE
  5
341
  8
0
  6
CONTINUOUS
 62
     7
 10
133.0293120128138
 20
569.7234026915488
 30
0.0
 11
135.2793001415616
 21
569.7430380404792
 31
0.0
  0
ARC
  5
342
  8
0
  6
CONTINUOUS
 62
     7
 10
79.97293831468673
 20
570.0
 30
0.0
 40
17.00000000000001
 50
0.9322681004678657
 51
270.0
  0
ARC
  5
343
  8
0
  6
CONTINUOUS
 62
   253
 10
79.97293831468673
 20
570.0
 30
0.0
 40
16.0
 50
0.9592854184119837
 51
359.040714581588
  0
LINE
  5
344
  8
0
  6
CONTINUOUS
 62
     7
 10
96.97068798718625
 20
569.7234026915488
 30
0.0
 11
95.97069582598722
 21
569.7321294909315
 31
0.0
  0
ARC
  5
345
  8
0
  6
CONTINUOUS
 62
     7
 10
79.97293831468673
 20
570.0
 30
0.0
 40
17.0
 50
270.0
 51
359.0677318995322
  0
LINE
  5
346
  8
0
  6
CONTINUOUS
 62
     7
 10
96.97068798718625
 20
570.2765973084513
 30
0.0
 11
95.97069582598722
 21
570.2678705090686
 31
0.0
  0
CIRCLE
  5
347
  8
0
  6
CONTINUOUS
 62
   253
 10
79.97293831468673
 20
570.0
 30
0.0
 40
13.44307943002465
  0
LINE
  5
348
  8
0
  6
CONTINUOUS
 62
     7
 10
93.92293831468692
 20
569.7500000000001
 30
0.0
 11
93.92293831468658
 21
570.25
 31
0.0
  0
ARC
  5
349
  8
0
  6
CONTINUOUS
 62
   253
 10
79.97293831468673
 20
570.0
 30
0.0
 40
14.24304896847598
 50
1.015942009677474
 51
358.9840579903225
  0
LINE
  5
34A
  8
0
  6
CONTINUOUS
 62
     7
 10
94.21374828278891
 20
569.7474621398561
 30
0.0
 11
93.92293831468692
 21
569.7500000000001
 31
0.0
  0
LINE
  5
34B
  8
0
  6
CONTINUOUS
 62
     7
 10
94.21374828278891
 20
570.252537860144
 30
0.0
 11
93.92293831468658
 21
570.25
 31
0.0
  0
LINE
  5
34C
  8
0
  6
CONTINUOUS
 62
     7
 10
94.21374828278891
 20
569.7474621398561
 30
0.0
 11
95.97069582598722
 21
569.7321294909315
 31
0.0
  0
LINE
  5
34D
  8
0
  6
CONTINUOUS
 62
     7
 10
94.21374828278891
 20
570.252537860144
 30
0.0
 11
95.97069582598722
 21
570.2678705090686
 31
0.0
  0
CIRCLE
  5
34E
  8
0
  6
CONTINUOUS
 62
   253
 10
79.97293831468673
 20
570.0
 30
0.0
 40
13.41768774257772
  0
CIRCLE
  5
34F
  8
0
  6
CONTINUOUS
 62
   253
 10
79.97293831468673
 20
570.0
 30
0.0
 40
13.11769916565847
  0
LINE
  5
350
  8
0
  6
CONTINUOUS
 62
     7
 10
86.47270686966553
 20
581.2579293746599
 30
0.0
 11
86.48279681050204
 21
581.2509971455482
 31
0.0
  0
LINE
  5
351
  8
0
  6
CONTINUOUS
 62
     7
 10
86.48279681050204
 20
581.2509971455482
 30
0.0
 11
86.49259033686542
 21
581.243623055699
 31
0.0
  0
LINE
  5
352
  8
0
  6
CONTINUOUS
 62
     7
 10
86.49259033686542
 20
581.243623055699
 30
0.0
 11
86.50205965995501
 21
581.2358280737383
 31
0.0
  0
LINE
  5
353
  8
0
  6
CONTINUOUS
 62
     7
 10
86.50205965995501
 20
581.2358280737383
 30
0.0
 11
86.51117699097014
 21
581.2276331682922
 31
0.0
  0
LINE
  5
354
  8
0
  6
CONTINUOUS
 62
     7
 10
86.51117699097014
 20
581.2276331682922
 30
0.0
 11
86.5199145411102
 21
581.219059307987
 31
0.0
  0
LINE
  5
355
  8
0
  6
CONTINUOUS
 62
     7
 10
86.5199145411102
 20
581.219059307987
 30
0.0
 11
86.52791361793126
 21
581.2105019401442
 31
0.0
  0
LINE
  5
356
  8
0
  6
CONTINUOUS
 62
     7
 10
86.52791361793126
 20
581.2105019401442
 30
0.0
 11
86.5355514749392
 21
581.2016067950354
 31
0.0
  0
LINE
  5
357
  8
0
  6
CONTINUOUS
 62
     7
 10
86.5355514749392
 20
581.2016067950354
 30
0.0
 11
86.54280595997399
 21
581.1923965827893
 31
0.0
  0
LINE
  5
358
  8
0
  6
CONTINUOUS
 62
     7
 10
86.54280595997399
 20
581.1923965827893
 30
0.0
 11
86.54965492087562
 21
581.1828940135343
 31
0.0
  0
LINE
  5
359
  8
0
  6
CONTINUOUS
 62
     7
 10
86.54965492087562
 20
581.1828940135343
 30
0.0
 11
86.5562806478666
 21
581.1727977739423
 31
0.0
  0
LINE
  5
35A
  8
0
  6
CONTINUOUS
 62
     7
 10
86.5562806478666
 20
581.1727977739423
 30
0.0
 11
86.56245634703596
 21
581.1624060329052
 31
0.0
  0
LINE
  5
35B
  8
0
  6
CONTINUOUS
 62
     7
 10
86.56245634703596
 20
581.1624060329052
 30
0.0
 11
86.56816056367417
 21
581.1517485761595
 31
0.0
  0
LINE
  5
35C
  8
0
  6
CONTINUOUS
 62
     7
 10
86.56816056367417
 20
581.1517485761595
 30
0.0
 11
86.57337184307166
 21
581.1408551894416
 31
0.0
  0
LINE
  5
35D
  8
0
  6
CONTINUOUS
 62
     7
 10
86.57337184307166
 20
581.1408551894416
 30
0.0
 11
86.57780259360834
 21
581.1304295367291
 31
0.0
  0
LINE
  5
35E
  8
0
  6
CONTINUOUS
 62
     7
 10
86.57780259360834
 20
581.1304295367291
 30
0.0
 11
86.58178377332152
 21
581.1198126820381
 31
0.0
  0
LINE
  5
35F
  8
0
  6
CONTINUOUS
 62
     7
 10
86.58178377332152
 20
581.1198126820381
 30
0.0
 11
86.58530106521526
 21
581.1090335851869
 31
0.0
  0
LINE
  5
360
  8
0
  6
CONTINUOUS
 62
     7
 10
86.58530106521526
 20
581.1090335851869
 30
0.0
 11
86.58834015229361
 21
581.0981212059942
 31
0.0
  0
LINE
  5
361
  8
0
  6
CONTINUOUS
 62
     7
 10
86.58834015229361
 20
581.0981212059942
 30
0.0
 11
86.59096769466453
 21
581.0867212514623
 31
0.0
  0
LINE
  5
362
  8
0
  6
CONTINUOUS
 62
     7
 10
86.59096769466453
 20
581.0867212514623
 30
0.0
 11
86.5930706250687
 21
581.0752002168738
 31
0.0
  0
LINE
  5
363
  8
0
  6
CONTINUOUS
 62
     7
 10
86.5930706250687
 20
581.0752002168738
 30
0.0
 11
86.59463860707513
 21
581.0635946560885
 31
0.0
  0
LINE
  5
364
  8
0
  6
CONTINUOUS
 62
     7
 10
86.59463860707513
 20
581.0635946560885
 30
0.0
 11
86.59566130425273
 21
581.0519411229665
 31
0.0
  0
LINE
  5
365
  8
0
  6
CONTINUOUS
 62
     7
 10
86.59566130425273
 20
581.0519411229665
 30
0.0
 11
86.59611197213829
 21
581.0412912170206
 31
0.0
  0
LINE
  5
366
  8
0
  6
CONTINUOUS
 62
     7
 10
86.59611197213829
 20
581.0412912170206
 30
0.0
 11
86.59610171693926
 21
581.0306217031141
 31
0.0
  0
LINE
  5
367
  8
0
  6
CONTINUOUS
 62
     7
 10
86.59610171693926
 20
581.0306217031141
 30
0.0
 11
86.59562818307603
 21
581.0199629414835
 31
0.0
  0
LINE
  5
368
  8
0
  6
CONTINUOUS
 62
     7
 10
86.59562818307603
 20
581.0199629414835
 30
0.0
 11
86.59468901496899
 21
581.0093452923647
 31
0.0
  0
LINE
  5
369
  8
0
  6
CONTINUOUS
 62
     7
 10
86.59468901496899
 20
581.0093452923647
 30
0.0
 11
86.5932265461938
 21
580.9984354680986
 31
0.0
  0
LINE
  5
36A
  8
0
  6
CONTINUOUS
 62
     7
 10
86.5932265461938
 20
580.9984354680986
 30
0.0
 11
86.59126412187487
 21
580.9875925678407
 31
0.0
  0
LINE
  5
36B
  8
0
  6
CONTINUOUS
 62
     7
 10
86.59126412187487
 20
580.9875925678407
 30
0.0
 11
86.58880633957513
 21
580.9768513246398
 31
0.0
  0
LINE
  5
36C
  8
0
  6
CONTINUOUS
 62
     7
 10
86.58880633957513
 20
580.9768513246398
 30
0.0
 11
86.58585779685755
 21
580.9662464715442
 31
0.0
  0
LINE
  5
36D
  8
0
  6
CONTINUOUS
 62
     7
 10
86.58585779685755
 20
580.9662464715442
 30
0.0
 11
86.58249085806195
 21
580.9560000206241
 31
0.0
  0
LINE
  5
36E
  8
0
  6
CONTINUOUS
 62
     7
 10
86.58249085806195
 20
580.9560000206241
 30
0.0
 11
86.57865298254086
 21
580.9459023061104
 31
0.0
  0
LINE
  5
36F
  8
0
  6
CONTINUOUS
 62
     7
 10
86.57865298254086
 20
580.9459023061104
 30
0.0
 11
86.57435681758678
 21
580.9359847877378
 31
0.0
  0
LINE
  5
370
  8
0
  6
CONTINUOUS
 62
     7
 10
86.57435681758678
 20
580.9359847877378
 30
0.0
 11
86.56961501049223
 21
580.9262789252407
 31
0.0
  0
LINE
  5
371
  8
0
  6
CONTINUOUS
 62
     7
 10
86.56961501049223
 20
580.9262789252407
 30
0.0
 11
86.56444020854796
 21
580.9168161783542
 31
0.0
  0
LINE
  5
372
  8
0
  6
CONTINUOUS
 62
     7
 10
86.13142750665574
 20
581.1668161783542
 30
0.0
 11
86.13656986806596
 21
581.1753020753059
 31
0.0
  0
LINE
  5
373
  8
0
  6
CONTINUOUS
 62
     7
 10
86.13656986806596
 20
581.1753020753059
 30
0.0
 11
86.14207073168606
 21
581.1835707202765
 31
0.0
  0
LINE
  5
374
  8
0
  6
CONTINUOUS
 62
     7
 10
86.14207073168606
 20
581.1835707202765
 30
0.0
 11
86.14791455310943
 21
581.1916006983733
 31
0.0
  0
LINE
  5
375
  8
0
  6
CONTINUOUS
 62
     7
 10
86.14791455310943
 20
581.1916006983733
 30
0.0
 11
86.15408578792942
 21
581.1993705947045
 31
0.0
  0
LINE
  5
376
  8
0
  6
CONTINUOUS
 62
     7
 10
86.15408578792942
 20
581.1993705947045
 30
0.0
 11
86.1607774491598
 21
581.2070921030564
 31
0.0
  0
LINE
  5
377
  8
0
  6
CONTINUOUS
 62
     7
 10
86.1607774491598
 20
581.2070921030564
 30
0.0
 11
86.16780249459622
 21
581.2145246475304
 31
0.0
  0
LINE
  5
378
  8
0
  6
CONTINUOUS
 62
     7
 10
86.16780249459622
 20
581.2145246475304
 30
0.0
 11
86.17513988011235
 21
581.2216492091048
 31
0.0
  0
LINE
  5
379
  8
0
  6
CONTINUOUS
 62
     7
 10
86.17513988011235
 20
581.2216492091048
 30
0.0
 11
86.18276856158192
 21
581.2284467687583
 31
0.0
  0
LINE
  5
37A
  8
0
  6
CONTINUOUS
 62
     7
 10
86.18276856158192
 20
581.2284467687583
 30
0.0
 11
86.19044686759047
 21
581.2347279560739
 31
0.0
  0
LINE
  5
37B
  8
0
  6
CONTINUOUS
 62
     7
 10
86.19044686759047
 20
581.2347279560739
 30
0.0
 11
86.19838404724702
 21
581.2406926094282
 31
0.0
  0
LINE
  5
37C
  8
0
  6
CONTINUOUS
 62
     7
 10
86.19838404724702
 20
581.2406926094282
 30
0.0
 11
86.2065585386941
 21
581.2463279368701
 31
0.0
  0
LINE
  5
37D
  8
0
  6
CONTINUOUS
 62
     7
 10
86.2065585386941
 20
581.2463279368701
 30
0.0
 11
86.21494878007425
 21
581.2516211464492
 31
0.0
  0
LINE
  5
37E
  8
0
  6
CONTINUOUS
 62
     7
 10
86.21494878007425
 20
581.2516211464492
 30
0.0
 11
86.22378798038491
 21
581.2567007908734
 31
0.0
  0
LINE
  5
37F
  8
0
  6
CONTINUOUS
 62
     7
 10
86.22378798038491
 20
581.2567007908734
 30
0.0
 11
86.23283731118066
 21
581.2614146468479
 31
0.0
  0
LINE
  5
380
  8
0
  6
CONTINUOUS
 62
     7
 10
86.23283731118066
 20
581.2614146468479
 30
0.0
 11
86.24207238922202
 21
581.2657538369524
 31
0.0
  0
LINE
  5
381
  8
0
  6
CONTINUOUS
 62
     7
 10
86.24207238922202
 20
581.2657538369524
 30
0.0
 11
86.25146883126948
 21
581.2697094837672
 31
0.0
  0
LINE
  5
382
  8
0
  6
CONTINUOUS
 62
     7
 10
86.25146883126948
 20
581.2697094837672
 30
0.0
 11
86.26100502083311
 21
581.2732753267117
 31
0.0
  0
LINE
  5
383
  8
0
  6
CONTINUOUS
 62
     7
 10
86.26100502083311
 20
581.2732753267117
 30
0.0
 11
86.27068440055528
 21
581.2764580361763
 31
0.0
  0
LINE
  5
384
  8
0
  6
CONTINUOUS
 62
     7
 10
86.27068440055528
 20
581.2764580361763
 30
0.0
 11
86.28048291018366
 21
581.2792533299232
 31
0.0
  0
LINE
  5
385
  8
0
  6
CONTINUOUS
 62
     7
 10
86.28048291018366
 20
581.2792533299232
 30
0.0
 11
86.29037648946598
 21
581.2816569257149
 31
0.0
  0
LINE
  5
386
  8
0
  6
CONTINUOUS
 62
     7
 10
86.29037648946598
 20
581.2816569257149
 30
0.0
 11
86.30061770859699
 21
581.2837158962881
 31
0.0
  0
LINE
  5
387
  8
0
  6
CONTINUOUS
 62
     7
 10
86.30061770859699
 20
581.2837158962881
 30
0.0
 11
86.3109412666849
 21
581.2853649637162
 31
0.0
  0
LINE
  5
388
  8
0
  6
CONTINUOUS
 62
     7
 10
86.3109412666849
 20
581.2853649637162
 30
0.0
 11
86.32132227943247
 21
581.2866036794996
 31
0.0
  0
LINE
  5
389
  8
0
  6
CONTINUOUS
 62
     7
 10
86.32132227943247
 20
581.2866036794996
 30
0.0
 11
86.33173586254236
 21
581.2874315951382
 31
0.0
  0
LINE
  5
38A
  8
0
  6
CONTINUOUS
 62
     7
 10
86.33173586254236
 20
581.2874315951382
 30
0.0
 11
86.34249160293261
 21
581.2878562206428
 31
0.0
  0
LINE
  5
38B
  8
0
  6
CONTINUOUS
 62
     7
 10
86.34249160293261
 20
581.2878562206428
 30
0.0
 11
86.3532643029657
 21
581.2878496635096
 31
0.0
  0
LINE
  5
38C
  8
0
  6
CONTINUOUS
 62
     7
 10
86.3532643029657
 20
581.2878496635096
 30
0.0
 11
86.36402844163285
 21
581.287415196502
 31
0.0
  0
LINE
  5
38D
  8
0
  6
CONTINUOUS
 62
     7
 10
86.36402844163285
 20
581.287415196502
 30
0.0
 11
86.37475849792533
 21
581.2865560923833
 31
0.0
  0
LINE
  5
38E
  8
0
  6
CONTINUOUS
 62
     7
 10
86.37475849792533
 20
581.2865560923833
 30
0.0
 11
86.38572414512562
 21
581.2852354782613
 31
0.0
  0
LINE
  5
38F
  8
0
  6
CONTINUOUS
 62
     7
 10
86.38572414512562
 20
581.2852354782613
 30
0.0
 11
86.39663673377794
 21
581.2834746903337
 31
0.0
  0
LINE
  5
390
  8
0
  6
CONTINUOUS
 62
     7
 10
86.39663673377794
 20
581.2834746903337
 30
0.0
 11
86.40747067890011
 21
581.281280582299
 31
0.0
  0
LINE
  5
391
  8
0
  6
CONTINUOUS
 62
     7
 10
86.40747067890011
 20
581.281280582299
 30
0.0
 11
86.41820039550991
 21
581.2786600078556
 31
0.0
  0
LINE
  5
392
  8
0
  6
CONTINUOUS
 62
     7
 10
86.41820039550991
 20
581.2786600078556
 30
0.0
 11
86.43220245097284
 21
581.2745479628138
 31
0.0
  0
LINE
  5
393
  8
0
  6
CONTINUOUS
 62
     7
 10
86.43220245097284
 20
581.2745479628138
 30
0.0
 11
86.4459903120384
 21
581.2697067157701
 31
0.0
  0
LINE
  5
394
  8
0
  6
CONTINUOUS
 62
     7
 10
86.4459903120384
 20
581.2697067157701
 30
0.0
 11
86.45950983337865
 21
581.2641594564702
 31
0.0
  0
LINE
  5
395
  8
0
  6
CONTINUOUS
 62
     7
 10
86.45950983337865
 20
581.2641594564702
 30
0.0
 11
86.47270686966553
 21
581.2579293746599
 31
0.0
  0
LINE
  5
396
  8
0
  6
CONTINUOUS
 62
     7
 10
73.47316975970972
 20
581.2579293746608
 30
0.0
 11
73.48421821664341
 21
581.2632014051921
 31
0.0
  0
LINE
  5
397
  8
0
  6
CONTINUOUS
 62
     7
 10
73.48421821664341
 20
581.2632014051921
 30
0.0
 11
73.49550112896435
 21
581.2679958028909
 31
0.0
  0
LINE
  5
398
  8
0
  6
CONTINUOUS
 62
     7
 10
73.49550112896435
 20
581.2679958028909
 30
0.0
 11
73.5069864429092
 21
581.2722989862627
 31
0.0
  0
LINE
  5
399
  8
0
  6
CONTINUOUS
 62
     7
 10
73.5069864429092
 20
581.2722989862627
 30
0.0
 11
73.51864210471466
 21
581.2760973738136
 31
0.0
  0
LINE
  5
39A
  8
0
  6
CONTINUOUS
 62
     7
 10
73.51864210471466
 20
581.2760973738136
 30
0.0
 11
73.53043606061748
 21
581.2793773840491
 31
0.0
  0
LINE
  5
39B
  8
0
  6
CONTINUOUS
 62
     7
 10
73.53043606061748
 20
581.2793773840491
 30
0.0
 11
73.54184649696941
 21
581.2820261038614
 31
0.0
  0
LINE
  5
39C
  8
0
  6
CONTINUOUS
 62
     7
 10
73.54184649696941
 20
581.2820261038614
 30
0.0
 11
73.55336884710795
 21
581.2841931095064
 31
0.0
  0
LINE
  5
39D
  8
0
  6
CONTINUOUS
 62
     7
 10
73.55336884710795
 20
581.2841931095064
 30
0.0
 11
73.56497236740476
 21
581.2858705717149
 31
0.0
  0
LINE
  5
39E
  8
0
  6
CONTINUOUS
 62
     7
 10
73.56497236740476
 20
581.2858705717149
 30
0.0
 11
73.57662631423155
 21
581.2870506612178
 31
0.0
  0
LINE
  5
39F
  8
0
  6
CONTINUOUS
 62
     7
 10
73.57662631423155
 20
581.2870506612178
 30
0.0
 11
73.58868277769643
 21
581.2877405893146
 31
0.0
  0
LINE
  5
3A0
  8
0
  6
CONTINUOUS
 62
     7
 10
73.58868277769643
 20
581.2877405893146
 30
0.0
 11
73.60077013900877
 21
581.2878930311628
 31
0.0
  0
LINE
  5
3A1
  8
0
  6
CONTINUOUS
 62
     7
 10
73.60077013900877
 20
581.2878930311628
 30
0.0
 11
73.61285187560937
 21
581.2875042993073
 31
0.0
  0
LINE
  5
3A2
  8
0
  6
CONTINUOUS
 62
     7
 10
73.61285187560937
 20
581.2875042993073
 30
0.0
 11
73.6248914649391
 21
581.2865707062928
 31
0.0
  0
LINE
  5
3A3
  8
0
  6
CONTINUOUS
 62
     7
 10
73.6248914649391
 20
581.2865707062928
 30
0.0
 11
73.6361357203075
 21
581.2851950224591
 31
0.0
  0
LINE
  5
3A4
  8
0
  6
CONTINUOUS
 62
     7
 10
73.6361357203075
 20
581.2851950224591
 30
0.0
 11
73.64732077603483
 21
581.2833343978823
 31
0.0
  0
LINE
  5
3A5
  8
0
  6
CONTINUOUS
 62
     7
 10
73.64732077603483
 20
581.2833343978823
 30
0.0
 11
73.65841439368467
 21
581.2809909135892
 31
0.0
  0
LINE
  5
3A6
  8
0
  6
CONTINUOUS
 62
     7
 10
73.65841439368467
 20
581.2809909135892
 30
0.0
 11
73.66938433482053
 21
581.278166650607
 31
0.0
  0
LINE
  5
3A7
  8
0
  6
CONTINUOUS
 62
     7
 10
73.66938433482053
 20
581.278166650607
 30
0.0
 11
73.68057075623254
 21
581.2747421917837
 31
0.0
  0
LINE
  5
3A8
  8
0
  6
CONTINUOUS
 62
     7
 10
73.68057075623254
 20
581.2747421917837
 30
0.0
 11
73.69159973006614
 21
581.2708028656419
 31
0.0
  0
LINE
  5
3A9
  8
0
  6
CONTINUOUS
 62
     7
 10
73.69159973006614
 20
581.2708028656419
 30
0.0
 11
73.70243443153456
 21
581.2663579974994
 31
0.0
  0
LINE
  5
3AA
  8
0
  6
CONTINUOUS
 62
     7
 10
73.70243443153456
 20
581.2663579974994
 30
0.0
 11
73.71303803585097
 21
581.2614169126746
 31
0.0
  0
LINE
  5
3AB
  8
0
  6
CONTINUOUS
 62
     7
 10
73.71303803585097
 20
581.2614169126746
 30
0.0
 11
73.72248645889078
 21
581.2564822495392
 31
0.0
  0
LINE
  5
3AC
  8
0
  6
CONTINUOUS
 62
     7
 10
73.72248645889078
 20
581.2564822495392
 30
0.0
 11
73.7317214013802
 21
581.2511386113232
 31
0.0
  0
LINE
  5
3AD
  8
0
  6
CONTINUOUS
 62
     7
 10
73.7317214013802
 20
581.2511386113232
 30
0.0
 11
73.7407153927936
 21
581.2453991381527
 31
0.0
  0
LINE
  5
3AE
  8
0
  6
CONTINUOUS
 62
     7
 10
73.7407153927936
 20
581.2453991381527
 30
0.0
 11
73.74944096260536
 21
581.2392769701543
 31
0.0
  0
LINE
  5
3AF
  8
0
  6
CONTINUOUS
 62
     7
 10
73.74944096260536
 20
581.2392769701543
 30
0.0
 11
73.75815791318317
 21
581.2325555229096
 31
0.0
  0
LINE
  5
3B0
  8
0
  6
CONTINUOUS
 62
     7
 10
73.75815791318317
 20
581.2325555229096
 30
0.0
 11
73.76656692809766
 21
581.2254345634675
 31
0.0
  0
LINE
  5
3B1
  8
0
  6
CONTINUOUS
 62
     7
 10
73.76656692809766
 20
581.2254345634675
 30
0.0
 11
73.77464022642805
 21
581.2179354399584
 31
0.0
  0
LINE
  5
3B2
  8
0
  6
CONTINUOUS
 62
     7
 10
73.77464022642805
 20
581.2179354399584
 30
0.0
 11
73.78235002725353
 21
581.2100795005131
 31
0.0
  0
LINE
  5
3B3
  8
0
  6
CONTINUOUS
 62
     7
 10
73.78235002725353
 20
581.2100795005131
 30
0.0
 11
73.78954024465112
 21
581.2020404205231
 31
0.0
  0
LINE
  5
3B4
  8
0
  6
CONTINUOUS
 62
     7
 10
73.78954024465112
 20
581.2020404205231
 30
0.0
 11
73.79636618417952
 21
581.1936678655684
 31
0.0
  0
LINE
  5
3B5
  8
0
  6
CONTINUOUS
 62
     7
 10
73.79636618417952
 20
581.1936678655684
 30
0.0
 11
73.8028069245557
 21
581.1849885183931
 31
0.0
  0
LINE
  5
3B6
  8
0
  6
CONTINUOUS
 62
     7
 10
73.8028069245557
 20
581.1849885183931
 30
0.0
 11
73.80884154449656
 21
581.1760290617407
 31
0.0
  0
LINE
  5
3B7
  8
0
  6
CONTINUOUS
 62
     7
 10
73.80884154449656
 20
581.1760290617407
 30
0.0
 11
73.8144491227177
 21
581.1668161783542
 31
0.0
  0
LINE
  5
3B8
  8
0
  6
CONTINUOUS
 62
     7
 10
73.3814364208255
 20
580.9168161783542
 30
0.0
 11
73.37665859919647
 21
580.9255125424468
 31
0.0
  0
LINE
  5
3B9
  8
0
  6
CONTINUOUS
 62
     7
 10
73.37665859919647
 20
580.9255125424468
 30
0.0
 11
73.37224817440719
 21
580.9344107525698
 31
0.0
  0
LINE
  5
3BA
  8
0
  6
CONTINUOUS
 62
     7
 10
73.37224817440719
 20
580.9344107525698
 30
0.0
 11
73.36821592009507
 21
580.943486639426
 31
0.0
  0
LINE
  5
3BB
  8
0
  6
CONTINUOUS
 62
     7
 10
73.36821592009507
 20
580.943486639426
 30
0.0
 11
73.36457260989755
 21
580.9527160337184
 31
0.0
  0
LINE
  5
3BC
  8
0
  6
CONTINUOUS
 62
     7
 10
73.36457260989755
 20
580.9527160337184
 30
0.0
 11
73.36123141812442
 21
580.9623719365135
 31
0.0
  0
LINE
  5
3BD
  8
0
  6
CONTINUOUS
 62
     7
 10
73.36123141812442
 20
580.9623719365135
 30
0.0
 11
73.3583071685134
 21
580.9721720765612
 31
0.0
  0
LINE
  5
3BE
  8
0
  6
CONTINUOUS
 62
     7
 10
73.3583071685134
 20
580.9721720765612
 30
0.0
 11
73.35580580995718
 21
580.9820887196026
 31
0.0
  0
LINE
  5
3BF
  8
0
  6
CONTINUOUS
 62
     7
 10
73.35580580995718
 20
580.9820887196026
 30
0.0
 11
73.35373329134843
 21
580.9920941313794
 31
0.0
  0
LINE
  5
3C0
  8
0
  6
CONTINUOUS
 62
     7
 10
73.35373329134843
 20
580.9920941313794
 30
0.0
 11
73.35213277657144
 21
581.0018843330986
 31
0.0
  0
LINE
  5
3C1
  8
0
  6
CONTINUOUS
 62
     7
 10
73.35213277657144
 20
581.0018843330986
 30
0.0
 11
73.3509358250702
 21
581.0117404589927
 31
0.0
  0
LINE
  5
3C2
  8
0
  6
CONTINUOUS
 62
     7
 10
73.3509358250702
 20
581.0117404589927
 30
0.0
 11
73.35014273407029
 21
581.0216374399699
 31
0.0
  0
LINE
  5
3C3
  8
0
  6
CONTINUOUS
 62
     7
 10
73.35014273407029
 20
581.0216374399699
 30
0.0
 11
73.34975380079727
 21
581.0315502069385
 31
0.0
  0
LINE
  5
3C4
  8
0
  6
CONTINUOUS
 62
     7
 10
73.34975380079727
 20
581.0315502069385
 30
0.0
 11
73.34977429983904
 21
581.0417450011689
 31
0.0
  0
LINE
  5
3C5
  8
0
  6
CONTINUOUS
 62
     7
 10
73.34977429983904
 20
581.0417450011689
 30
0.0
 11
73.35021664621333
 21
581.0519388795125
 31
0.0
  0
LINE
  5
3C6
  8
0
  6
CONTINUOUS
 62
     7
 10
73.35021664621333
 20
581.0519388795125
 30
0.0
 11
73.35107633637158
 21
581.0621062867544
 31
0.0
  0
LINE
  5
3C7
  8
0
  6
CONTINUOUS
 62
     7
 10
73.35107633637158
 20
581.0621062867544
 30
0.0
 11
73.35234886676531
 21
581.0722216676801
 31
0.0
  0
LINE
  5
3C8
  8
0
  6
CONTINUOUS
 62
     7
 10
73.35234886676531
 20
581.0722216676801
 30
0.0
 11
73.3540288509713
 21
581.0822631715697
 31
0.0
  0
LINE
  5
3C9
  8
0
  6
CONTINUOUS
 62
     7
 10
73.3540288509713
 20
581.0822631715697
 30
0.0
 11
73.35611223358318
 21
581.0922371150343
 31
0.0
  0
LINE
  5
3CA
  8
0
  6
CONTINUOUS
 62
     7
 10
73.35611223358318
 20
581.0922371150343
 30
0.0
 11
73.35859069300145
 21
581.1021205201653
 31
0.0
  0
LINE
  5
3CB
  8
0
  6
CONTINUOUS
 62
     7
 10
73.35859069300145
 20
581.1021205201653
 30
0.0
 11
73.36145590762662
 21
581.111890409054
 31
0.0
  0
LINE
  5
3CC
  8
0
  6
CONTINUOUS
 62
     7
 10
73.36145590762662
 20
581.111890409054
 30
0.0
 11
73.36479339637013
 21
581.1217890502736
 31
0.0
  0
LINE
  5
3CD
  8
0
  6
CONTINUOUS
 62
     7
 10
73.36479339637013
 20
581.1217890502736
 30
0.0
 11
73.3685270411287
 21
581.1315540475493
 31
0.0
  0
LINE
  5
3CE
  8
0
  6
CONTINUOUS
 62
     7
 10
73.3685270411287
 20
581.1315540475493
 30
0.0
 11
73.37264478816601
 21
581.1411636261973
 31
0.0
  0
LINE
  5
3CF
  8
0
  6
CONTINUOUS
 62
     7
 10
73.37264478816601
 20
581.1411636261973
 30
0.0
 11
73.37713458374579
 21
581.1505960115343
 31
0.0
  0
LINE
  5
3D0
  8
0
  6
CONTINUOUS
 62
     7
 10
73.37713458374579
 20
581.1505960115343
 30
0.0
 11
73.38214471746683
 21
581.1601230687011
 31
0.0
  0
LINE
  5
3D1
  8
0
  6
CONTINUOUS
 62
     7
 10
73.38214471746683
 20
581.1601230687011
 30
0.0
 11
73.38753674612722
 21
581.1694492220305
 31
0.0
  0
LINE
  5
3D2
  8
0
  6
CONTINUOUS
 62
     7
 10
73.38753674612722
 20
581.1694492220305
 30
0.0
 11
73.39329507492648
 21
581.1785540060623
 31
0.0
  0
LINE
  5
3D3
  8
0
  6
CONTINUOUS
 62
     7
 10
73.39329507492648
 20
581.1785540060623
 30
0.0
 11
73.3994041090641
 21
581.1874169553363
 31
0.0
  0
LINE
  5
3D4
  8
0
  6
CONTINUOUS
 62
     7
 10
73.3994041090641
 20
581.1874169553363
 30
0.0
 11
73.4060306180425
 21
581.1962531773196
 31
0.0
  0
LINE
  5
3D5
  8
0
  6
CONTINUOUS
 62
     7
 10
73.4060306180425
 20
581.1962531773196
 30
0.0
 11
73.41301179944463
 21
581.2048233623498
 31
0.0
  0
LINE
  5
3D6
  8
0
  6
CONTINUOUS
 62
     7
 10
73.41301179944463
 20
581.2048233623498
 30
0.0
 11
73.42032892530246
 21
581.2131087800313
 31
0.0
  0
LINE
  5
3D7
  8
0
  6
CONTINUOUS
 62
     7
 10
73.42032892530246
 20
581.2131087800313
 30
0.0
 11
73.42796326764785
 21
581.2210906999692
 31
0.0
  0
LINE
  5
3D8
  8
0
  6
CONTINUOUS
 62
     7
 10
73.42796326764785
 20
581.2210906999692
 30
0.0
 11
73.43852543084692
 21
581.2311608131845
 31
0.0
  0
LINE
  5
3D9
  8
0
  6
CONTINUOUS
 62
     7
 10
73.43852543084692
 20
581.2311608131845
 30
0.0
 11
73.44961200430552
 21
581.2406808276093
 31
0.0
  0
LINE
  5
3DA
  8
0
  6
CONTINUOUS
 62
     7
 10
73.44961200430552
 20
581.2406808276093
 30
0.0
 11
73.46117583245075
 21
581.2496154468869
 31
0.0
  0
LINE
  5
3DB
  8
0
  6
CONTINUOUS
 62
     7
 10
73.46117583245075
 20
581.2496154468869
 30
0.0
 11
73.47316975970972
 21
581.2579293746608
 31
0.0
  0
LINE
  5
3DC
  8
0
  6
CONTINUOUS
 62
     7
 10
66.97340120473093
 20
570.000000000001
 30
0.0
 11
66.97435972082812
 21
570.0122042596439
 31
0.0
  0
LINE
  5
3DD
  8
0
  6
CONTINUOUS
 62
     7
 10
66.97435972082812
 20
570.0122042596439
 30
0.0
 11
66.97584910678565
 21
570.0243727471918
 31
0.0
  0
LINE
  5
3DE
  8
0
  6
CONTINUOUS
 62
     7
 10
66.97584910678565
 20
570.0243727471918
 30
0.0
 11
66.97786509764092
 21
570.0364709125245
 31
0.0
  0
LINE
  5
3DF
  8
0
  6
CONTINUOUS
 62
     7
 10
66.97786509764092
 20
570.0364709125245
 30
0.0
 11
66.98040342843125
 21
570.0484642055213
 31
0.0
  0
LINE
  5
3E0
  8
0
  6
CONTINUOUS
 62
     7
 10
66.98040342843125
 20
570.0484642055213
 30
0.0
 11
66.983459834194
 21
570.060318076062
 31
0.0
  0
LINE
  5
3E1
  8
0
  6
CONTINUOUS
 62
     7
 10
66.983459834194
 20
570.060318076062
 30
0.0
 11
66.98687119372488
 21
570.0715241637173
 31
0.0
  0
LINE
  5
3E2
  8
0
  6
CONTINUOUS
 62
     7
 10
66.98687119372488
 20
570.0715241637173
 30
0.0
 11
66.99075568685548
 21
570.0825863144711
 31
0.0
  0
LINE
  5
3E3
  8
0
  6
CONTINUOUS
 62
     7
 10
66.99075568685548
 20
570.0825863144711
 30
0.0
 11
66.9951047221175
 21
570.0934739889257
 31
0.0
  0
LINE
  5
3E4
  8
0
  6
CONTINUOUS
 62
     7
 10
66.9951047221175
 20
570.0934739889257
 30
0.0
 11
66.99990970804265
 21
570.1041566476835
 31
0.0
  0
LINE
  5
3E5
  8
0
  6
CONTINUOUS
 62
     7
 10
66.99990970804265
 20
570.1041566476835
 30
0.0
 11
67.00534044451656
 21
570.1149428153722
 31
0.0
  0
LINE
  5
3E6
  8
0
  6
CONTINUOUS
 62
     7
 10
67.00534044451656
 20
570.1149428153722
 30
0.0
 11
67.01125210665953
 21
570.1254869982574
 31
0.0
  0
LINE
  5
3E7
  8
0
  6
CONTINUOUS
 62
     7
 10
67.01125210665953
 20
570.1254869982574
 30
0.0
 11
67.01762962662193
 21
570.1357557231478
 31
0.0
  0
LINE
  5
3E8
  8
0
  6
CONTINUOUS
 62
     7
 10
67.01762962662193
 20
570.1357557231478
 30
0.0
 11
67.02445793655417
 21
570.1457155168512
 31
0.0
  0
LINE
  5
3E9
  8
0
  6
CONTINUOUS
 62
     7
 10
67.02445793655417
 20
570.1457155168512
 30
0.0
 11
67.03127144138588
 21
570.1547654857301
 31
0.0
  0
LINE
  5
3EA
  8
0
  6
CONTINUOUS
 62
     7
 10
67.03127144138588
 20
570.1547654857301
 30
0.0
 11
67.03847531740004
 21
570.1635217158441
 31
0.0
  0
LINE
  5
3EB
  8
0
  6
CONTINUOUS
 62
     7
 10
67.03847531740004
 20
570.1635217158441
 30
0.0
 11
67.04605164315612
 21
570.1719573284023
 31
0.0
  0
LINE
  5
3EC
  8
0
  6
CONTINUOUS
 62
     7
 10
67.04605164315612
 20
570.1719573284023
 30
0.0
 11
67.05398249721365
 21
570.1800454446129
 31
0.0
  0
LINE
  5
3ED
  8
0
  6
CONTINUOUS
 62
     7
 10
67.05398249721365
 20
570.1800454446129
 30
0.0
 11
67.06254137625473
 21
570.1880209403215
 31
0.0
  0
LINE
  5
3EE
  8
0
  6
CONTINUOUS
 62
     7
 10
67.06254137625473
 20
570.1880209403215
 30
0.0
 11
67.07146741968414
 21
570.1956026487682
 31
0.0
  0
LINE
  5
3EF
  8
0
  6
CONTINUOUS
 62
     7
 10
67.07146741968414
 20
570.1956026487682
 30
0.0
 11
67.08073413914616
 21
570.202763341411
 31
0.0
  0
LINE
  5
3F0
  8
0
  6
CONTINUOUS
 62
     7
 10
67.08073413914616
 20
570.202763341411
 30
0.0
 11
67.09031504628497
 21
570.2094757897082
 31
0.0
  0
LINE
  5
3F1
  8
0
  6
CONTINUOUS
 62
     7
 10
67.09031504628497
 20
570.2094757897082
 30
0.0
 11
67.09931280143921
 21
570.2151910325188
 31
0.0
  0
LINE
  5
3F2
  8
0
  6
CONTINUOUS
 62
     7
 10
67.09931280143921
 20
570.2151910325188
 30
0.0
 11
67.10855799912765
 21
570.2205169082091
 31
0.0
  0
LINE
  5
3F3
  8
0
  6
CONTINUOUS
 62
     7
 10
67.10855799912765
 20
570.2205169082091
 30
0.0
 11
67.11802552440427
 21
570.2254361966693
 31
0.0
  0
LINE
  5
3F4
  8
0
  6
CONTINUOUS
 62
     7
 10
67.11802552440427
 20
570.2254361966693
 30
0.0
 11
67.1276902623231
 21
570.2299316777895
 31
0.0
  0
LINE
  5
3F5
  8
0
  6
CONTINUOUS
 62
     7
 10
67.1276902623231
 20
570.2299316777895
 30
0.0
 11
67.13786968167608
 21
570.2341200548111
 31
0.0
  0
LINE
  5
3F6
  8
0
  6
CONTINUOUS
 62
     7
 10
67.13786968167608
 20
570.2341200548111
 30
0.0
 11
67.14824112090952
 21
570.2378419956268
 31
0.0
  0
LINE
  5
3F7
  8
0
  6
CONTINUOUS
 62
     7
 10
67.14824112090952
 20
570.2378419956268
 30
0.0
 11
67.15877220153963
 21
570.2410841153187
 31
0.0
  0
LINE
  5
3F8
  8
0
  6
CONTINUOUS
 62
     7
 10
67.15877220153963
 20
570.2410841153187
 30
0.0
 11
67.1694305450827
 21
570.243833028969
 31
0.0
  0
LINE
  5
3F9
  8
0
  6
CONTINUOUS
 62
     7
 10
67.1694305450827
 20
570.243833028969
 30
0.0
 11
67.17998770127589
 21
570.246040399899
 31
0.0
  0
LINE
  5
3FA
  8
0
  6
CONTINUOUS
 62
     7
 10
67.17998770127589
 20
570.246040399899
 30
0.0
 11
67.1906515163254
 21
570.247765559458
 31
0.0
  0
LINE
  5
3FB
  8
0
  6
CONTINUOUS
 62
     7
 10
67.1906515163254
 20
570.247765559458
 30
0.0
 11
67.20138842165564
 21
570.2490037306552
 31
0.0
  0
LINE
  5
3FC
  8
0
  6
CONTINUOUS
 62
     7
 10
67.20138842165564
 20
570.2490037306552
 30
0.0
 11
67.21216484869105
 21
570.2497501365001
 31
0.0
  0
LINE
  5
3FD
  8
0
  6
CONTINUOUS
 62
     7
 10
67.21216484869105
 20
570.2497501365001
 30
0.0
 11
67.22294722885648
 21
570.25
 31
0.0
  0
LINE
  5
3FE
  8
0
  6
CONTINUOUS
 62
     7
 10
67.22294722885648
 20
569.7500000000001
 30
0.0
 11
67.21302704581726
 21
569.750210467141
 31
0.0
  0
LINE
  5
3FF
  8
0
  6
CONTINUOUS
 62
     7
 10
67.21302704581726
 20
569.750210467141
 30
0.0
 11
67.20311575740787
 21
569.7508400322934
 31
0.0
  0
LINE
  5
400
  8
0
  6
CONTINUOUS
 62
     7
 10
67.20311575740787
 20
569.7508400322934
 30
0.0
 11
67.19323968167238
 21
569.7518859410527
 31
0.0
  0
LINE
  5
401
  8
0
  6
CONTINUOUS
 62
     7
 10
67.19323968167238
 20
569.7518859410527
 30
0.0
 11
67.18342513665488
 21
569.753345439014
 31
0.0
  0
LINE
  5
402
  8
0
  6
CONTINUOUS
 62
     7
 10
67.18342513665488
 20
569.753345439014
 30
0.0
 11
67.17339228365137
 21
569.755279833457
 31
0.0
  0
LINE
  5
403
  8
0
  6
CONTINUOUS
 62
     7
 10
67.17339228365137
 20
569.755279833457
 30
0.0
 11
67.16344298860392
 21
569.7576474290306
 31
0.0
  0
LINE
  5
404
  8
0
  6
CONTINUOUS
 62
     7
 10
67.16344298860392
 20
569.7576474290306
 30
0.0
 11
67.15360424453156
 21
569.7604395104978
 31
0.0
  0
LINE
  5
405
  8
0
  6
CONTINUOUS
 62
     7
 10
67.15360424453156
 20
569.7604395104978
 30
0.0
 11
67.14390304445325
 21
569.7636473626212
 31
0.0
  0
LINE
  5
406
  8
0
  6
CONTINUOUS
 62
     7
 10
67.14390304445325
 20
569.7636473626212
 30
0.0
 11
67.1346242236677
 21
569.7671563770248
 31
0.0
  0
LINE
  5
407
  8
0
  6
CONTINUOUS
 62
     7
 10
67.1346242236677
 20
569.7671563770248
 30
0.0
 11
67.1254900925099
 21
569.7710478495646
 31
0.0
  0
LINE
  5
408
  8
0
  6
CONTINUOUS
 62
     7
 10
67.1254900925099
 20
569.7710478495646
 30
0.0
 11
67.11652251006294
 21
569.7753095030998
 31
0.0
  0
LINE
  5
409
  8
0
  6
CONTINUOUS
 62
     7
 10
67.11652251006294
 20
569.7753095030998
 30
0.0
 11
67.10774333540976
 21
569.7799290604894
 31
0.0
  0
LINE
  5
40A
  8
0
  6
CONTINUOUS
 62
     7
 10
67.10774333540976
 20
569.7799290604894
 30
0.0
 11
67.09892463414089
 21
569.7850442102954
 31
0.0
  0
LINE
  5
40B
  8
0
  6
CONTINUOUS
 62
     7
 10
67.09892463414089
 20
569.7850442102954
 30
0.0
 11
67.0903176497194
 21
569.7905242326647
 31
0.0
  0
LINE
  5
40C
  8
0
  6
CONTINUOUS
 62
     7
 10
67.0903176497194
 20
569.7905242326647
 30
0.0
 11
67.0819422618363
 21
569.796352449802
 31
0.0
  0
LINE
  5
40D
  8
0
  6
CONTINUOUS
 62
     7
 10
67.0819422618363
 20
569.796352449802
 30
0.0
 11
67.07381835018256
 21
569.802512183913
 31
0.0
  0
LINE
  5
40E
  8
0
  6
CONTINUOUS
 62
     7
 10
67.07381835018256
 20
569.802512183913
 30
0.0
 11
67.06596214482492
 21
569.808987844858
 31
0.0
  0
LINE
  5
40F
  8
0
  6
CONTINUOUS
 62
     7
 10
67.06596214482492
 20
569.808987844858
 30
0.0
 11
67.05836614771464
 21
569.8157790788581
 31
0.0
  0
LINE
  5
410
  8
0
  6
CONTINUOUS
 62
     7
 10
67.05836614771464
 20
569.8157790788581
 30
0.0
 11
67.05104609750452
 21
569.8228671902419
 31
0.0
  0
LINE
  5
411
  8
0
  6
CONTINUOUS
 62
     7
 10
67.05104609750452
 20
569.8228671902419
 30
0.0
 11
67.04401773284738
 21
569.830233483339
 31
0.0
  0
LINE
  5
412
  8
0
  6
CONTINUOUS
 62
     7
 10
67.04401773284738
 20
569.830233483339
 30
0.0
 11
67.03711400245987
 21
569.8380731539856
 31
0.0
  0
LINE
  5
413
  8
0
  6
CONTINUOUS
 62
     7
 10
67.03711400245987
 20
569.8380731539856
 30
0.0
 11
67.03052408913052
 21
569.8461890838331
 31
0.0
  0
LINE
  5
414
  8
0
  6
CONTINUOUS
 62
     7
 10
67.03052408913052
 20
569.8461890838331
 30
0.0
 11
67.02426082342029
 21
569.8545599466978
 31
0.0
  0
LINE
  5
415
  8
0
  6
CONTINUOUS
 62
     7
 10
67.02426082342029
 20
569.8545599466978
 30
0.0
 11
67.01833703589017
 21
569.8631644163962
 31
0.0
  0
LINE
  5
416
  8
0
  6
CONTINUOUS
 62
     7
 10
67.01833703589017
 20
569.8631644163962
 30
0.0
 11
67.01259142922095
 21
569.8722668480583
 31
0.0
  0
LINE
  5
417
  8
0
  6
CONTINUOUS
 62
     7
 10
67.01259142922095
 20
569.8722668480583
 30
0.0
 11
67.00721075784828
 21
569.8815995585209
 31
0.0
  0
LINE
  5
418
  8
0
  6
CONTINUOUS
 62
     7
 10
67.00721075784828
 20
569.8815995585209
 30
0.0
 11
67.00220494798039
 21
569.8911388095603
 31
0.0
  0
LINE
  5
419
  8
0
  6
CONTINUOUS
 62
     7
 10
67.00220494798039
 20
569.8911388095603
 30
0.0
 11
66.99758392582548
 21
569.900860862953
 31
0.0
  0
LINE
  5
41A
  8
0
  6
CONTINUOUS
 62
     7
 10
66.99758392582548
 20
569.900860862953
 30
0.0
 11
66.99324478760362
 21
569.9110176990583
 31
0.0
  0
LINE
  5
41B
  8
0
  6
CONTINUOUS
 62
     7
 10
66.99324478760362
 20
569.9110176990583
 30
0.0
 11
66.98931338035342
 21
569.9213486720162
 31
0.0
  0
LINE
  5
41C
  8
0
  6
CONTINUOUS
 62
     7
 10
66.98931338035342
 20
569.9213486720162
 30
0.0
 11
66.98579656108906
 21
569.9318281977326
 31
0.0
  0
LINE
  5
41D
  8
0
  6
CONTINUOUS
 62
     7
 10
66.98579656108906
 20
569.9318281977326
 30
0.0
 11
66.98270118682467
 21
569.9424306921137
 31
0.0
  0
LINE
  5
41E
  8
0
  6
CONTINUOUS
 62
     7
 10
66.98270118682467
 20
569.9424306921137
 30
0.0
 11
66.97926129456081
 21
569.9566128503707
 31
0.0
  0
LINE
  5
41F
  8
0
  6
CONTINUOUS
 62
     7
 10
66.97926129456081
 20
569.9566128503707
 30
0.0
 11
66.97656000695386
 21
569.9709741118392
 31
0.0
  0
LINE
  5
420
  8
0
  6
CONTINUOUS
 62
     7
 10
66.97656000695386
 20
569.9709741118392
 30
0.0
 11
66.97460431375886
 21
569.9854559904168
 31
0.0
  0
LINE
  5
421
  8
0
  6
CONTINUOUS
 62
     7
 10
66.97460431375886
 20
569.9854559904168
 30
0.0
 11
66.97340120473093
 21
570.000000000001
 31
0.0
  0
LINE
  5
422
  8
0
  6
CONTINUOUS
 62
     7
 10
73.47316975970793
 20
558.7420706253403
 30
0.0
 11
73.46307981887142
 21
558.7490028544519
 31
0.0
  0
LINE
  5
423
  8
0
  6
CONTINUOUS
 62
     7
 10
73.46307981887142
 20
558.7490028544519
 30
0.0
 11
73.45328629250804
 21
558.7563769443011
 31
0.0
  0
LINE
  5
424
  8
0
  6
CONTINUOUS
 62
     7
 10
73.45328629250804
 20
558.7563769443011
 30
0.0
 11
73.44381696941844
 21
558.7641719262618
 31
0.0
  0
LINE
  5
425
  8
0
  6
CONTINUOUS
 62
     7
 10
73.44381696941844
 20
558.7641719262618
 30
0.0
 11
73.43469963840329
 21
558.7723668317079
 31
0.0
  0
LINE
  5
426
  8
0
  6
CONTINUOUS
 62
     7
 10
73.43469963840329
 20
558.7723668317079
 30
0.0
 11
73.42596208826325
 21
558.7809406920131
 31
0.0
  0
LINE
  5
427
  8
0
  6
CONTINUOUS
 62
     7
 10
73.42596208826325
 20
558.7809406920131
 30
0.0
 11
73.41796301144218
 21
558.7894980598559
 31
0.0
  0
LINE
  5
428
  8
0
  6
CONTINUOUS
 62
     7
 10
73.41796301144218
 20
558.7894980598559
 30
0.0
 11
73.41032515443425
 21
558.7983932049647
 31
0.0
  0
LINE
  5
429
  8
0
  6
CONTINUOUS
 62
     7
 10
73.41032515443425
 20
558.7983932049647
 30
0.0
 11
73.40307066939945
 21
558.8076034172109
 31
0.0
  0
LINE
  5
42A
  8
0
  6
CONTINUOUS
 62
     7
 10
73.40307066939945
 20
558.8076034172109
 30
0.0
 11
73.39622170849782
 21
558.8171059864657
 31
0.0
  0
LINE
  5
42B
  8
0
  6
CONTINUOUS
 62
     7
 10
73.39622170849782
 20
558.8171059864657
 30
0.0
 11
73.38959598150684
 21
558.8272022260578
 31
0.0
  0
LINE
  5
42C
  8
0
  6
CONTINUOUS
 62
     7
 10
73.38959598150684
 20
558.8272022260578
 30
0.0
 11
73.38342028233748
 21
558.8375939670949
 31
0.0
  0
LINE
  5
42D
  8
0
  6
CONTINUOUS
 62
     7
 10
73.38342028233748
 20
558.8375939670949
 30
0.0
 11
73.37771606569929
 21
558.8482514238406
 31
0.0
  0
LINE
  5
42E
  8
0
  6
CONTINUOUS
 62
     7
 10
73.37771606569929
 20
558.8482514238406
 30
0.0
 11
73.3725047863018
 21
558.8591448105585
 31
0.0
  0
LINE
  5
42F
  8
0
  6
CONTINUOUS
 62
     7
 10
73.3725047863018
 20
558.8591448105585
 30
0.0
 11
73.36807403576512
 21
558.869570463271
 31
0.0
  0
LINE
  5
430
  8
0
  6
CONTINUOUS
 62
     7
 10
73.36807403576512
 20
558.869570463271
 30
0.0
 11
73.36409285605193
 21
558.880187317962
 31
0.0
  0
LINE
  5
431
  8
0
  6
CONTINUOUS
 62
     7
 10
73.36409285605193
 20
558.880187317962
 30
0.0
 11
73.36057556415818
 21
558.8909664148132
 31
0.0
  0
LINE
  5
432
  8
0
  6
CONTINUOUS
 62
     7
 10
73.36057556415818
 20
558.8909664148132
 30
0.0
 11
73.35753647707985
 21
558.9018787940059
 31
0.0
  0
LINE
  5
433
  8
0
  6
CONTINUOUS
 62
     7
 10
73.35753647707985
 20
558.9018787940059
 30
0.0
 11
73.35490893470893
 21
558.9132787485378
 31
0.0
  0
LINE
  5
434
  8
0
  6
CONTINUOUS
 62
     7
 10
73.35490893470893
 20
558.9132787485378
 30
0.0
 11
73.35280600430474
 21
558.9247997831263
 31
0.0
  0
LINE
  5
435
  8
0
  6
CONTINUOUS
 62
     7
 10
73.35280600430474
 20
558.9247997831263
 30
0.0
 11
73.35123802229835
 21
558.9364053439116
 31
0.0
  0
LINE
  5
436
  8
0
  6
CONTINUOUS
 62
     7
 10
73.35123802229835
 20
558.9364053439116
 30
0.0
 11
73.35021532512074
 21
558.9480588770336
 31
0.0
  0
LINE
  5
437
  8
0
  6
CONTINUOUS
 62
     7
 10
73.35021532512074
 20
558.9480588770336
 30
0.0
 11
73.34976465723517
 21
558.9587087829796
 31
0.0
  0
LINE
  5
438
  8
0
  6
CONTINUOUS
 62
     7
 10
73.34976465723517
 20
558.9587087829796
 30
0.0
 11
73.34977491243419
 21
558.969378296886
 31
0.0
  0
LINE
  5
439
  8
0
  6
CONTINUOUS
 62
     7
 10
73.34977491243419
 20
558.969378296886
 30
0.0
 11
73.35024844629743
 21
558.9800370585166
 31
0.0
  0
LINE
  5
43A
  8
0
  6
CONTINUOUS
 62
     7
 10
73.35024844629743
 20
558.9800370585166
 30
0.0
 11
73.35118761440445
 21
558.9906547076353
 31
0.0
  0
LINE
  5
43B
  8
0
  6
CONTINUOUS
 62
     7
 10
73.35118761440445
 20
558.9906547076353
 30
0.0
 11
73.35265008317965
 21
559.0015645319015
 31
0.0
  0
LINE
  5
43C
  8
0
  6
CONTINUOUS
 62
     7
 10
73.35265008317965
 20
559.0015645319015
 30
0.0
 11
73.35461250749859
 21
559.0124074321594
 31
0.0
  0
LINE
  5
43D
  8
0
  6
CONTINUOUS
 62
     7
 10
73.35461250749859
 20
559.0124074321594
 30
0.0
 11
73.35707028979832
 21
559.0231486753603
 31
0.0
  0
LINE
  5
43E
  8
0
  6
CONTINUOUS
 62
     7
 10
73.35707028979832
 20
559.0231486753603
 30
0.0
 11
73.36001883251592
 21
559.033753528456
 31
0.0
  0
LINE
  5
43F
  8
0
  6
CONTINUOUS
 62
     7
 10
73.36001883251592
 20
559.033753528456
 30
0.0
 11
73.3633857713115
 21
559.043999979376
 31
0.0
  0
LINE
  5
440
  8
0
  6
CONTINUOUS
 62
     7
 10
73.3633857713115
 20
559.043999979376
 30
0.0
 11
73.36722364683261
 21
559.0540976938897
 31
0.0
  0
LINE
  5
441
  8
0
  6
CONTINUOUS
 62
     7
 10
73.36722364683261
 20
559.0540976938897
 30
0.0
 11
73.37151981178668
 21
559.0640152122623
 31
0.0
  0
LINE
  5
442
  8
0
  6
CONTINUOUS
 62
     7
 10
73.37151981178668
 20
559.0640152122623
 30
0.0
 11
73.37626161888122
 21
559.0737210747594
 31
0.0
  0
LINE
  5
443
  8
0
  6
CONTINUOUS
 62
     7
 10
73.37626161888122
 20
559.0737210747594
 30
0.0
 11
73.38143642082551
 21
559.0831838216459
 31
0.0
  0
LINE
  5
444
  8
0
  6
CONTINUOUS
 62
     7
 10
73.81444912271772
 20
558.8331838216459
 30
0.0
 11
73.80930676130751
 21
558.8246979246941
 31
0.0
  0
LINE
  5
445
  8
0
  6
CONTINUOUS
 62
     7
 10
73.80930676130751
 20
558.8246979246941
 30
0.0
 11
73.8038058976874
 21
558.8164292797236
 31
0.0
  0
LINE
  5
446
  8
0
  6
CONTINUOUS
 62
     7
 10
73.8038058976874
 20
558.8164292797236
 30
0.0
 11
73.79796207626403
 21
558.8083993016268
 31
0.0
  0
LINE
  5
447
  8
0
  6
CONTINUOUS
 62
     7
 10
73.79796207626403
 20
558.8083993016268
 30
0.0
 11
73.79179084144404
 21
558.8006294052956
 31
0.0
  0
LINE
  5
448
  8
0
  6
CONTINUOUS
 62
     7
 10
73.79179084144404
 20
558.8006294052956
 30
0.0
 11
73.78509918021366
 21
558.7929078969436
 31
0.0
  0
LINE
  5
449
  8
0
  6
CONTINUOUS
 62
     7
 10
73.78509918021366
 20
558.7929078969436
 30
0.0
 11
73.77807413477724
 21
558.7854753524697
 31
0.0
  0
LINE
  5
44A
  8
0
  6
CONTINUOUS
 62
     7
 10
73.77807413477724
 20
558.7854753524697
 30
0.0
 11
73.7707367492611
 21
558.7783507908952
 31
0.0
  0
LINE
  5
44B
  8
0
  6
CONTINUOUS
 62
     7
 10
73.7707367492611
 20
558.7783507908952
 30
0.0
 11
73.76310806779155
 21
558.7715532312418
 31
0.0
  0
LINE
  5
44C
  8
0
  6
CONTINUOUS
 62
     7
 10
73.76310806779155
 20
558.7715532312418
 30
0.0
 11
73.75542976178298
 21
558.7652720439262
 31
0.0
  0
LINE
  5
44D
  8
0
  6
CONTINUOUS
 62
     7
 10
73.75542976178298
 20
558.7652720439262
 30
0.0
 11
73.74749258212644
 21
558.759307390572
 31
0.0
  0
LINE
  5
44E
  8
0
  6
CONTINUOUS
 62
     7
 10
73.74749258212644
 20
558.759307390572
 30
0.0
 11
73.73931809067938
 21
558.75367206313
 31
0.0
  0
LINE
  5
44F
  8
0
  6
CONTINUOUS
 62
     7
 10
73.73931809067938
 20
558.75367206313
 30
0.0
 11
73.73092784929922
 21
558.7483788535509
 31
0.0
  0
LINE
  5
450
  8
0
  6
CONTINUOUS
 62
     7
 10
73.73092784929922
 20
558.7483788535509
 30
0.0
 11
73.72208864898856
 21
558.7432992091267
 31
0.0
  0
LINE
  5
451
  8
0
  6
CONTINUOUS
 62
     7
 10
73.72208864898856
 20
558.7432992091267
 30
0.0
 11
73.7130393181928
 21
558.7385853531522
 31
0.0
  0
LINE
  5
452
  8
0
  6
CONTINUOUS
 62
     7
 10
73.7130393181928
 20
558.7385853531522
 30
0.0
 11
73.70380424015144
 21
558.7342461630477
 31
0.0
  0
LINE
  5
453
  8
0
  6
CONTINUOUS
 62
     7
 10
73.70380424015144
 20
558.7342461630477
 30
0.0
 11
73.69440779810397
 21
558.7302905162329
 31
0.0
  0
LINE
  5
454
  8
0
  6
CONTINUOUS
 62
     7
 10
73.69440779810397
 20
558.7302905162329
 30
0.0
 11
73.68487160854033
 21
558.7267246732885
 31
0.0
  0
LINE
  5
455
  8
0
  6
CONTINUOUS
 62
     7
 10
73.68487160854033
 20
558.7267246732885
 30
0.0
 11
73.67519222881819
 21
558.7235419638238
 31
0.0
  0
LINE
  5
456
  8
0
  6
CONTINUOUS
 62
     7
 10
73.67519222881819
 20
558.7235419638238
 30
0.0
 11
73.6653937191898
 21
558.7207466700769
 31
0.0
  0
LINE
  5
457
  8
0
  6
CONTINUOUS
 62
     7
 10
73.6653937191898
 20
558.7207466700769
 30
0.0
 11
73.65550013990747
 21
558.7183430742853
 31
0.0
  0
LINE
  5
458
  8
0
  6
CONTINUOUS
 62
     7
 10
73.65550013990747
 20
558.7183430742853
 30
0.0
 11
73.64525892077647
 21
558.7162841037119
 31
0.0
  0
LINE
  5
459
  8
0
  6
CONTINUOUS
 62
     7
 10
73.64525892077647
 20
558.7162841037119
 30
0.0
 11
73.63493536268854
 21
558.7146350362838
 31
0.0
  0
LINE
  5
45A
  8
0
  6
CONTINUOUS
 62
     7
 10
73.63493536268854
 20
558.7146350362838
 30
0.0
 11
73.624554349941
 21
558.7133963205005
 31
0.0
  0
LINE
  5
45B
  8
0
  6
CONTINUOUS
 62
     7
 10
73.624554349941
 20
558.7133963205005
 30
0.0
 11
73.6141407668311
 21
558.7125684048619
 31
0.0
  0
LINE
  5
45C
  8
0
  6
CONTINUOUS
 62
     7
 10
73.6141407668311
 20
558.7125684048619
 30
0.0
 11
73.60338502644085
 21
558.7121437793572
 31
0.0
  0
LINE
  5
45D
  8
0
  6
CONTINUOUS
 62
     7
 10
73.60338502644085
 20
558.7121437793572
 30
0.0
 11
73.59261232640777
 21
558.7121503364905
 31
0.0
  0
LINE
  5
45E
  8
0
  6
CONTINUOUS
 62
     7
 10
73.59261232640777
 20
558.7121503364905
 30
0.0
 11
73.58184818774062
 21
558.7125848034981
 31
0.0
  0
LINE
  5
45F
  8
0
  6
CONTINUOUS
 62
     7
 10
73.58184818774062
 20
558.7125848034981
 30
0.0
 11
73.57111813144812
 21
558.7134439076168
 31
0.0
  0
LINE
  5
460
  8
0
  6
CONTINUOUS
 62
     7
 10
73.57111813144812
 20
558.7134439076168
 30
0.0
 11
73.56015248424785
 21
558.7147645217389
 31
0.0
  0
LINE
  5
461
  8
0
  6
CONTINUOUS
 62
     7
 10
73.56015248424785
 20
558.7147645217389
 30
0.0
 11
73.54923989559552
 21
558.7165253096664
 31
0.0
  0
LINE
  5
462
  8
0
  6
CONTINUOUS
 62
     7
 10
73.54923989559552
 20
558.7165253096664
 30
0.0
 11
73.53840595047333
 21
558.7187194177011
 31
0.0
  0
LINE
  5
463
  8
0
  6
CONTINUOUS
 62
     7
 10
73.53840595047333
 20
558.7187194177011
 30
0.0
 11
73.52767623386355
 21
558.7213399921445
 31
0.0
  0
LINE
  5
464
  8
0
  6
CONTINUOUS
 62
     7
 10
73.52767623386355
 20
558.7213399921445
 30
0.0
 11
73.51367417840062
 21
558.7254520371863
 31
0.0
  0
LINE
  5
465
  8
0
  6
CONTINUOUS
 62
     7
 10
73.51367417840062
 20
558.7254520371863
 30
0.0
 11
73.49988631733504
 21
558.7302932842299
 31
0.0
  0
LINE
  5
466
  8
0
  6
CONTINUOUS
 62
     7
 10
73.49988631733504
 20
558.7302932842299
 30
0.0
 11
73.48636679599481
 21
558.7358405435299
 31
0.0
  0
LINE
  5
467
  8
0
  6
CONTINUOUS
 62
     7
 10
73.48636679599481
 20
558.7358405435299
 30
0.0
 11
73.47316975970793
 21
558.7420706253403
 31
0.0
  0
LINE
  5
468
  8
0
  6
CONTINUOUS
 62
     7
 10
86.47270686966372
 20
558.7420706253394
 30
0.0
 11
86.46165841273003
 21
558.736798594808
 31
0.0
  0
LINE
  5
469
  8
0
  6
CONTINUOUS
 62
     7
 10
86.46165841273003
 20
558.736798594808
 30
0.0
 11
86.45037550040911
 21
558.7320041971092
 31
0.0
  0
LINE
  5
46A
  8
0
  6
CONTINUOUS
 62
     7
 10
86.45037550040911
 20
558.7320041971092
 30
0.0
 11
86.43889018646426
 21
558.7277010137374
 31
0.0
  0
LINE
  5
46B
  8
0
  6
CONTINUOUS
 62
     7
 10
86.43889018646426
 20
558.7277010137374
 30
0.0
 11
86.42723452465877
 21
558.7239026261865
 31
0.0
  0
LINE
  5
46C
  8
0
  6
CONTINUOUS
 62
     7
 10
86.42723452465877
 20
558.7239026261865
 30
0.0
 11
86.41544056875598
 21
558.7206226159511
 31
0.0
  0
LINE
  5
46D
  8
0
  6
CONTINUOUS
 62
     7
 10
86.41544056875598
 20
558.7206226159511
 30
0.0
 11
86.40403013240403
 21
558.7179738961386
 31
0.0
  0
LINE
  5
46E
  8
0
  6
CONTINUOUS
 62
     7
 10
86.40403013240403
 20
558.7179738961386
 30
0.0
 11
86.39250778226551
 21
558.7158068904937
 31
0.0
  0
LINE
  5
46F
  8
0
  6
CONTINUOUS
 62
     7
 10
86.39250778226551
 20
558.7158068904937
 30
0.0
 11
86.3809042619687
 21
558.7141294282852
 31
0.0
  0
LINE
  5
470
  8
0
  6
CONTINUOUS
 62
     7
 10
86.3809042619687
 20
558.7141294282852
 30
0.0
 11
86.36925031514191
 21
558.7129493387823
 31
0.0
  0
LINE
  5
471
  8
0
  6
CONTINUOUS
 62
     7
 10
86.36925031514191
 20
558.7129493387823
 30
0.0
 11
86.35719385167702
 21
558.7122594106855
 31
0.0
  0
LINE
  5
472
  8
0
  6
CONTINUOUS
 62
     7
 10
86.35719385167702
 20
558.7122594106855
 30
0.0
 11
86.34510649036469
 21
558.7121069688374
 31
0.0
  0
LINE
  5
473
  8
0
  6
CONTINUOUS
 62
     7
 10
86.34510649036469
 20
558.7121069688374
 30
0.0
 11
86.33302475376408
 21
558.7124957006928
 31
0.0
  0
LINE
  5
474
  8
0
  6
CONTINUOUS
 62
     7
 10
86.33302475376408
 20
558.7124957006928
 30
0.0
 11
86.32098516443436
 21
558.7134292937073
 31
0.0
  0
LINE
  5
475
  8
0
  6
CONTINUOUS
 62
     7
 10
86.32098516443436
 20
558.7134292937073
 30
0.0
 11
86.30974090906595
 21
558.714804977541
 31
0.0
  0
LINE
  5
476
  8
0
  6
CONTINUOUS
 62
     7
 10
86.30974090906595
 20
558.714804977541
 30
0.0
 11
86.2985558533386
 21
558.7166656021178
 31
0.0
  0
LINE
  5
477
  8
0
  6
CONTINUOUS
 62
     7
 10
86.2985558533386
 20
558.7166656021178
 30
0.0
 11
86.28746223568878
 21
558.7190090864109
 31
0.0
  0
LINE
  5
478
  8
0
  6
CONTINUOUS
 62
     7
 10
86.28746223568878
 20
558.7190090864109
 30
0.0
 11
86.27649229455292
 21
558.7218333493931
 31
0.0
  0
LINE
  5
479
  8
0
  6
CONTINUOUS
 62
     7
 10
86.27649229455292
 20
558.7218333493931
 30
0.0
 11
86.26530587314092
 21
558.7252578082164
 31
0.0
  0
LINE
  5
47A
  8
0
  6
CONTINUOUS
 62
     7
 10
86.26530587314092
 20
558.7252578082164
 30
0.0
 11
86.25427689930731
 21
558.7291971343582
 31
0.0
  0
LINE
  5
47B
  8
0
  6
CONTINUOUS
 62
     7
 10
86.25427689930731
 20
558.7291971343582
 30
0.0
 11
86.2434421978389
 21
558.7336420025006
 31
0.0
  0
LINE
  5
47C
  8
0
  6
CONTINUOUS
 62
     7
 10
86.2434421978389
 20
558.7336420025006
 30
0.0
 11
86.23283859352249
 21
558.7385830873254
 31
0.0
  0
LINE
  5
47D
  8
0
  6
CONTINUOUS
 62
     7
 10
86.23283859352249
 20
558.7385830873254
 30
0.0
 11
86.22339017048266
 21
558.7435177504608
 31
0.0
  0
LINE
  5
47E
  8
0
  6
CONTINUOUS
 62
     7
 10
86.22339017048266
 20
558.7435177504608
 30
0.0
 11
86.21415522799325
 21
558.7488613886769
 31
0.0
  0
LINE
  5
47F
  8
0
  6
CONTINUOUS
 62
     7
 10
86.21415522799325
 20
558.7488613886769
 30
0.0
 11
86.20516123657985
 21
558.7546008618474
 31
0.0
  0
LINE
  5
480
  8
0
  6
CONTINUOUS
 62
     7
 10
86.20516123657985
 20
558.7546008618474
 30
0.0
 11
86.19643566676808
 21
558.7607230298458
 31
0.0
  0
LINE
  5
481
  8
0
  6
CONTINUOUS
 62
     7
 10
86.19643566676808
 20
558.7607230298458
 30
0.0
 11
86.18771871619028
 21
558.7674444770905
 31
0.0
  0
LINE
  5
482
  8
0
  6
CONTINUOUS
 62
     7
 10
86.18771871619028
 20
558.7674444770905
 30
0.0
 11
86.1793097012758
 21
558.7745654365326
 31
0.0
  0
LINE
  5
483
  8
0
  6
CONTINUOUS
 62
     7
 10
86.1793097012758
 20
558.7745654365326
 30
0.0
 11
86.17123640294541
 21
558.7820645600416
 31
0.0
  0
LINE
  5
484
  8
0
  6
CONTINUOUS
 62
     7
 10
86.17123640294541
 20
558.7820645600416
 30
0.0
 11
86.16352660211993
 21
558.789920499487
 31
0.0
  0
LINE
  5
485
  8
0
  6
CONTINUOUS
 62
     7
 10
86.16352660211993
 20
558.789920499487
 30
0.0
 11
86.15633638472234
 21
558.797959579477
 31
0.0
  0
LINE
  5
486
  8
0
  6
CONTINUOUS
 62
     7
 10
86.15633638472234
 20
558.797959579477
 30
0.0
 11
86.14951044519393
 21
558.8063321344317
 31
0.0
  0
LINE
  5
487
  8
0
  6
CONTINUOUS
 62
     7
 10
86.14951044519393
 20
558.8063321344317
 30
0.0
 11
86.14306970481776
 21
558.815011481607
 31
0.0
  0
LINE
  5
488
  8
0
  6
CONTINUOUS
 62
     7
 10
86.14306970481776
 20
558.815011481607
 30
0.0
 11
86.13703508487689
 21
558.8239709382594
 31
0.0
  0
LINE
  5
489
  8
0
  6
CONTINUOUS
 62
     7
 10
86.13703508487689
 20
558.8239709382594
 30
0.0
 11
86.13142750665574
 21
558.8331838216459
 31
0.0
  0
LINE
  5
48A
  8
0
  6
CONTINUOUS
 62
     7
 10
86.56444020854796
 20
559.0831838216459
 30
0.0
 11
86.56921803017697
 21
559.0744874575533
 31
0.0
  0
LINE
  5
48B
  8
0
  6
CONTINUOUS
 62
     7
 10
86.56921803017697
 20
559.0744874575533
 30
0.0
 11
86.57362845496625
 21
559.0655892474304
 31
0.0
  0
LINE
  5
48C
  8
0
  6
CONTINUOUS
 62
     7
 10
86.57362845496625
 20
559.0655892474304
 30
0.0
 11
86.57766070927838
 21
559.0565133605741
 31
0.0
  0
LINE
  5
48D
  8
0
  6
CONTINUOUS
 62
     7
 10
86.57766070927838
 20
559.0565133605741
 30
0.0
 11
86.5813040194759
 21
559.0472839662816
 31
0.0
  0
LINE
  5
48E
  8
0
  6
CONTINUOUS
 62
     7
 10
86.5813040194759
 20
559.0472839662816
 30
0.0
 11
86.58464521124903
 21
559.0376280634866
 31
0.0
  0
LINE
  5
48F
  8
0
  6
CONTINUOUS
 62
     7
 10
86.58464521124903
 20
559.0376280634866
 30
0.0
 11
86.58756946086005
 21
559.027827923439
 31
0.0
  0
LINE
  5
490
  8
0
  6
CONTINUOUS
 62
     7
 10
86.58756946086005
 20
559.027827923439
 30
0.0
 11
86.59007081941625
 21
559.0179112803975
 31
0.0
  0
LINE
  5
491
  8
0
  6
CONTINUOUS
 62
     7
 10
86.59007081941625
 20
559.0179112803975
 30
0.0
 11
86.59214333802502
 21
559.0079058686207
 31
0.0
  0
LINE
  5
492
  8
0
  6
CONTINUOUS
 62
     7
 10
86.59214333802502
 20
559.0079058686207
 30
0.0
 11
86.593743852802
 21
558.9981156669015
 31
0.0
  0
LINE
  5
493
  8
0
  6
CONTINUOUS
 62
     7
 10
86.593743852802
 20
558.9981156669015
 30
0.0
 11
86.59494080430326
 21
558.9882595410074
 31
0.0
  0
LINE
  5
494
  8
0
  6
CONTINUOUS
 62
     7
 10
86.59494080430326
 20
558.9882595410074
 30
0.0
 11
86.59573389530317
 21
558.9783625600302
 31
0.0
  0
LINE
  5
495
  8
0
  6
CONTINUOUS
 62
     7
 10
86.59573389530317
 20
558.9783625600302
 30
0.0
 11
86.59612282857617
 21
558.9684497930616
 31
0.0
  0
LINE
  5
496
  8
0
  6
CONTINUOUS
 62
     7
 10
86.59612282857617
 20
558.9684497930616
 30
0.0
 11
86.5961023295344
 21
558.9582549988312
 31
0.0
  0
LINE
  5
497
  8
0
  6
CONTINUOUS
 62
     7
 10
86.5961023295344
 20
558.9582549988312
 30
0.0
 11
86.59565998316013
 21
558.9480611204876
 31
0.0
  0
LINE
  5
498
  8
0
  6
CONTINUOUS
 62
     7
 10
86.59565998316013
 20
558.9480611204876
 30
0.0
 11
86.59480029300185
 21
558.9378937132457
 31
0.0
  0
LINE
  5
499
  8
0
  6
CONTINUOUS
 62
     7
 10
86.59480029300185
 20
558.9378937132457
 30
0.0
 11
86.59352776260815
 21
558.92777833232
 31
0.0
  0
LINE
  5
49A
  8
0
  6
CONTINUOUS
 62
     7
 10
86.59352776260815
 20
558.92777833232
 30
0.0
 11
86.59184777840214
 21
558.9177368284304
 31
0.0
  0
LINE
  5
49B
  8
0
  6
CONTINUOUS
 62
     7
 10
86.59184777840214
 20
558.9177368284304
 30
0.0
 11
86.58976439579025
 21
558.9077628849658
 31
0.0
  0
LINE
  5
49C
  8
0
  6
CONTINUOUS
 62
     7
 10
86.58976439579025
 20
558.9077628849658
 30
0.0
 11
86.587285936372
 21
558.8978794798348
 31
0.0
  0
LINE
  5
49D
  8
0
  6
CONTINUOUS
 62
     7
 10
86.587285936372
 20
558.8978794798348
 30
0.0
 11
86.58442072174682
 21
558.8881095909461
 31
0.0
  0
LINE
  5
49E
  8
0
  6
CONTINUOUS
 62
     7
 10
86.58442072174682
 20
558.8881095909461
 30
0.0
 11
86.58108323300333
 21
558.8782109497264
 31
0.0
  0
LINE
  5
49F
  8
0
  6
CONTINUOUS
 62
     7
 10
86.58108323300333
 20
558.8782109497264
 30
0.0
 11
86.57734958824476
 21
558.8684459524508
 31
0.0
  0
LINE
  5
4A0
  8
0
  6
CONTINUOUS
 62
     7
 10
86.57734958824476
 20
558.8684459524508
 30
0.0
 11
86.57323184120742
 21
558.8588363738028
 31
0.0
  0
LINE
  5
4A1
  8
0
  6
CONTINUOUS
 62
     7
 10
86.57323184120742
 20
558.8588363738028
 30
0.0
 11
86.56874204562766
 21
558.8494039884658
 31
0.0
  0
LINE
  5
4A2
  8
0
  6
CONTINUOUS
 62
     7
 10
86.56874204562766
 20
558.8494039884658
 30
0.0
 11
86.56373191190663
 21
558.8398769312989
 31
0.0
  0
LINE
  5
4A3
  8
0
  6
CONTINUOUS
 62
     7
 10
86.56373191190663
 20
558.8398769312989
 30
0.0
 11
86.5583398832462
 21
558.8305507779696
 31
0.0
  0
LINE
  5
4A4
  8
0
  6
CONTINUOUS
 62
     7
 10
86.5583398832462
 20
558.8305507779696
 30
0.0
 11
86.55258155444695
 21
558.8214459939378
 31
0.0
  0
LINE
  5
4A5
  8
0
  6
CONTINUOUS
 62
     7
 10
86.55258155444695
 20
558.8214459939378
 30
0.0
 11
86.54647252030936
 21
558.8125830446638
 31
0.0
  0
LINE
  5
4A6
  8
0
  6
CONTINUOUS
 62
     7
 10
86.54647252030936
 20
558.8125830446638
 30
0.0
 11
86.53984601133097
 21
558.8037468226805
 31
0.0
  0
LINE
  5
4A7
  8
0
  6
CONTINUOUS
 62
     7
 10
86.53984601133097
 20
558.8037468226805
 30
0.0
 11
86.53286482992883
 21
558.7951766376503
 31
0.0
  0
LINE
  5
4A8
  8
0
  6
CONTINUOUS
 62
     7
 10
86.53286482992883
 20
558.7951766376503
 30
0.0
 11
86.525547704071
 21
558.7868912199687
 31
0.0
  0
LINE
  5
4A9
  8
0
  6
CONTINUOUS
 62
     7
 10
86.525547704071
 20
558.7868912199687
 30
0.0
 11
86.51791336172558
 21
558.7789093000308
 31
0.0
  0
LINE
  5
4AA
  8
0
  6
CONTINUOUS
 62
     7
 10
86.51791336172558
 20
558.7789093000308
 30
0.0
 11
86.50735119852652
 21
558.7688391868156
 31
0.0
  0
LINE
  5
4AB
  8
0
  6
CONTINUOUS
 62
     7
 10
86.50735119852652
 20
558.7688391868156
 30
0.0
 11
86.49626462506792
 21
558.7593191723909
 31
0.0
  0
LINE
  5
4AC
  8
0
  6
CONTINUOUS
 62
     7
 10
86.49626462506792
 20
558.7593191723909
 30
0.0
 11
86.4847007969227
 21
558.7503845531132
 31
0.0
  0
LINE
  5
4AD
  8
0
  6
CONTINUOUS
 62
     7
 10
86.4847007969227
 20
558.7503845531132
 30
0.0
 11
86.47270686966372
 21
558.7420706253394
 31
0.0
  0
LINE
  5
4AE
  8
0
  6
CONTINUOUS
 62
     7
 10
92.97247542464252
 20
569.9999999999991
 30
0.0
 11
92.97151690854534
 21
569.9877957403562
 31
0.0
  0
LINE
  5
4AF
  8
0
  6
CONTINUOUS
 62
     7
 10
92.97151690854534
 20
569.9877957403562
 30
0.0
 11
92.9700275225878
 21
569.9756272528083
 31
0.0
  0
LINE
  5
4B0
  8
0
  6
CONTINUOUS
 62
     7
 10
92.9700275225878
 20
569.9756272528083
 30
0.0
 11
92.96801153173253
 21
569.9635290874756
 31
0.0
  0
LINE
  5
4B1
  8
0
  6
CONTINUOUS
 62
     7
 10
92.96801153173253
 20
569.9635290874756
 30
0.0
 11
92.96547320094221
 21
569.9515357944788
 31
0.0
  0
LINE
  5
4B2
  8
0
  6
CONTINUOUS
 62
     7
 10
92.96547320094221
 20
569.9515357944788
 30
0.0
 11
92.96241679517945
 21
569.9396819239381
 31
0.0
  0
LINE
  5
4B3
  8
0
  6
CONTINUOUS
 62
     7
 10
92.96241679517945
 20
569.9396819239381
 30
0.0
 11
92.95900543564856
 21
569.9284758362828
 31
0.0
  0
LINE
  5
4B4
  8
0
  6
CONTINUOUS
 62
     7
 10
92.95900543564856
 20
569.9284758362828
 30
0.0
 11
92.95512094251796
 21
569.917413685529
 31
0.0
  0
LINE
  5
4B5
  8
0
  6
CONTINUOUS
 62
     7
 10
92.95512094251796
 20
569.917413685529
 30
0.0
 11
92.95077190725596
 21
569.9065260110744
 31
0.0
  0
LINE
  5
4B6
  8
0
  6
CONTINUOUS
 62
     7
 10
92.95077190725596
 20
569.9065260110744
 30
0.0
 11
92.94596692133081
 21
569.8958433523167
 31
0.0
  0
LINE
  5
4B7
  8
0
  6
CONTINUOUS
 62
     7
 10
92.94596692133081
 20
569.8958433523167
 30
0.0
 11
92.9405361848569
 21
569.8850571846278
 31
0.0
  0
LINE
  5
4B8
  8
0
  6
CONTINUOUS
 62
     7
 10
92.9405361848569
 20
569.8850571846278
 30
0.0
 11
92.93462452271393
 21
569.8745130017425
 31
0.0
  0
LINE
  5
4B9
  8
0
  6
CONTINUOUS
 62
     7
 10
92.93462452271393
 20
569.8745130017425
 30
0.0
 11
92.92824700275152
 21
569.8642442768523
 31
0.0
  0
LINE
  5
4BA
  8
0
  6
CONTINUOUS
 62
     7
 10
92.92824700275152
 20
569.8642442768523
 30
0.0
 11
92.92141869281927
 21
569.8542844831488
 31
0.0
  0
LINE
  5
4BB
  8
0
  6
CONTINUOUS
 62
     7
 10
92.92141869281927
 20
569.8542844831488
 30
0.0
 11
92.91460518798756
 21
569.84523451427
 31
0.0
  0
LINE
  5
4BC
  8
0
  6
CONTINUOUS
 62
     7
 10
92.91460518798756
 20
569.84523451427
 30
0.0
 11
92.90740131197342
 21
569.836478284156
 31
0.0
  0
LINE
  5
4BD
  8
0
  6
CONTINUOUS
 62
     7
 10
92.90740131197342
 20
569.836478284156
 30
0.0
 11
92.89982498621734
 21
569.8280426715978
 31
0.0
  0
LINE
  5
4BE
  8
0
  6
CONTINUOUS
 62
     7
 10
92.89982498621734
 20
569.8280426715978
 30
0.0
 11
92.89189413215979
 21
569.8199545553872
 31
0.0
  0
LINE
  5
4BF
  8
0
  6
CONTINUOUS
 62
     7
 10
92.89189413215979
 20
569.8199545553872
 30
0.0
 11
92.88333525311873
 21
569.8119790596786
 31
0.0
  0
LINE
  5
4C0
  8
0
  6
CONTINUOUS
 62
     7
 10
92.88333525311873
 20
569.8119790596786
 30
0.0
 11
92.8744092096893
 21
569.804397351232
 31
0.0
  0
LINE
  5
4C1
  8
0
  6
CONTINUOUS
 62
     7
 10
92.8744092096893
 20
569.804397351232
 30
0.0
 11
92.8651424902273
 21
569.7972366585891
 31
0.0
  0
LINE
  5
4C2
  8
0
  6
CONTINUOUS
 62
     7
 10
92.8651424902273
 20
569.7972366585891
 30
0.0
 11
92.85556158308849
 21
569.7905242102919
 31
0.0
  0
LINE
  5
4C3
  8
0
  6
CONTINUOUS
 62
     7
 10
92.85556158308849
 20
569.7905242102919
 30
0.0
 11
92.84656382793425
 21
569.7848089674812
 31
0.0
  0
LINE
  5
4C4
  8
0
  6
CONTINUOUS
 62
     7
 10
92.84656382793425
 20
569.7848089674812
 30
0.0
 11
92.8373186302458
 21
569.779483091791
 31
0.0
  0
LINE
  5
4C5
  8
0
  6
CONTINUOUS
 62
     7
 10
92.8373186302458
 20
569.779483091791
 30
0.0
 11
92.82785110496916
 21
569.7745638033308
 31
0.0
  0
LINE
  5
4C6
  8
0
  6
CONTINUOUS
 62
     7
 10
92.82785110496916
 20
569.7745638033308
 30
0.0
 11
92.81818636705036
 21
569.7700683222106
 31
0.0
  0
LINE
  5
4C7
  8
0
  6
CONTINUOUS
 62
     7
 10
92.81818636705036
 20
569.7700683222106
 30
0.0
 11
92.80800694769736
 21
569.765879945189
 31
0.0
  0
LINE
  5
4C8
  8
0
  6
CONTINUOUS
 62
     7
 10
92.80800694769736
 20
569.765879945189
 30
0.0
 11
92.79763550846394
 21
569.7621580043733
 31
0.0
  0
LINE
  5
4C9
  8
0
  6
CONTINUOUS
 62
     7
 10
92.79763550846394
 20
569.7621580043733
 30
0.0
 11
92.78710442783381
 21
569.7589158846814
 31
0.0
  0
LINE
  5
4CA
  8
0
  6
CONTINUOUS
 62
     7
 10
92.78710442783381
 20
569.7589158846814
 30
0.0
 11
92.77644608429074
 21
569.7561669710311
 31
0.0
  0
LINE
  5
4CB
  8
0
  6
CONTINUOUS
 62
     7
 10
92.77644608429074
 20
569.7561669710311
 30
0.0
 11
92.76588892809755
 21
569.7539596001011
 31
0.0
  0
LINE
  5
4CC
  8
0
  6
CONTINUOUS
 62
     7
 10
92.76588892809755
 20
569.7539596001011
 30
0.0
 11
92.75522511304806
 21
569.7522344405421
 31
0.0
  0
LINE
  5
4CD
  8
0
  6
CONTINUOUS
 62
     7
 10
92.75522511304806
 20
569.7522344405421
 30
0.0
 11
92.74448820771781
 21
569.7509962693449
 31
0.0
  0
LINE
  5
4CE
  8
0
  6
CONTINUOUS
 62
     7
 10
92.74448820771781
 20
569.7509962693449
 30
0.0
 11
92.7337117806824
 21
569.7502498635
 31
0.0
  0
LINE
  5
4CF
  8
0
  6
CONTINUOUS
 62
     7
 10
92.7337117806824
 20
569.7502498635
 30
0.0
 11
92.72292940051697
 21
569.7500000000001
 31
0.0
  0
LINE
  5
4D0
  8
0
  6
CONTINUOUS
 62
     7
 10
92.72292940051697
 20
570.25
 30
0.0
 11
92.73284958355619
 21
570.2497895328592
 31
0.0
  0
LINE
  5
4D1
  8
0
  6
CONTINUOUS
 62
     7
 10
92.73284958355619
 20
570.2497895328592
 30
0.0
 11
92.74276087196559
 21
570.2491599677068
 31
0.0
  0
LINE
  5
4D2
  8
0
  6
CONTINUOUS
 62
     7
 10
92.74276087196559
 20
570.2491599677068
 30
0.0
 11
92.75263694770106
 21
570.2481140589474
 31
0.0
  0
LINE
  5
4D3
  8
0
  6
CONTINUOUS
 62
     7
 10
92.75263694770106
 20
570.2481140589474
 30
0.0
 11
92.76245149271858
 21
570.2466545609861
 31
0.0
  0
LINE
  5
4D4
  8
0
  6
CONTINUOUS
 62
     7
 10
92.76245149271858
 20
570.2466545609861
 30
0.0
 11
92.77248434572209
 21
570.2447201665431
 31
0.0
  0
LINE
  5
4D5
  8
0
  6
CONTINUOUS
 62
     7
 10
92.77248434572209
 20
570.2447201665431
 30
0.0
 11
92.78243364076953
 21
570.2423525709694
 31
0.0
  0
LINE
  5
4D6
  8
0
  6
CONTINUOUS
 62
     7
 10
92.78243364076953
 20
570.2423525709694
 30
0.0
 11
92.7922723848419
 21
570.2395604895023
 31
0.0
  0
LINE
  5
4D7
  8
0
  6
CONTINUOUS
 62
     7
 10
92.7922723848419
 20
570.2395604895023
 30
0.0
 11
92.8019735849202
 21
570.2363526373789
 31
0.0
  0
LINE
  5
4D8
  8
0
  6
CONTINUOUS
 62
     7
 10
92.8019735849202
 20
570.2363526373789
 30
0.0
 11
92.81125240570576
 21
570.2328436229753
 31
0.0
  0
LINE
  5
4D9
  8
0
  6
CONTINUOUS
 62
     7
 10
92.81125240570576
 20
570.2328436229753
 30
0.0
 11
92.82038653686354
 21
570.2289521504355
 31
0.0
  0
LINE
  5
4DA
  8
0
  6
CONTINUOUS
 62
     7
 10
92.82038653686354
 20
570.2289521504355
 30
0.0
 11
92.82935411931052
 21
570.2246904969003
 31
0.0
  0
LINE
  5
4DB
  8
0
  6
CONTINUOUS
 62
     7
 10
92.82935411931052
 20
570.2246904969003
 30
0.0
 11
92.8381332939637
 21
570.2200709395107
 31
0.0
  0
LINE
  5
4DC
  8
0
  6
CONTINUOUS
 62
     7
 10
92.8381332939637
 20
570.2200709395107
 30
0.0
 11
92.84695199523257
 21
570.2149557897047
 31
0.0
  0
LINE
  5
4DD
  8
0
  6
CONTINUOUS
 62
     7
 10
92.84695199523257
 20
570.2149557897047
 30
0.0
 11
92.85555897965405
 21
570.2094757673354
 31
0.0
  0
LINE
  5
4DE
  8
0
  6
CONTINUOUS
 62
     7
 10
92.85555897965405
 20
570.2094757673354
 30
0.0
 11
92.86393436753714
 21
570.2036475501981
 31
0.0
  0
LINE
  5
4DF
  8
0
  6
CONTINUOUS
 62
     7
 10
92.86393436753714
 20
570.2036475501981
 30
0.0
 11
92.87205827919088
 21
570.1974878160871
 31
0.0
  0
LINE
  5
4E0
  8
0
  6
CONTINUOUS
 62
     7
 10
92.87205827919088
 20
570.1974878160871
 30
0.0
 11
92.87991448454854
 21
570.191012155142
 31
0.0
  0
LINE
  5
4E1
  8
0
  6
CONTINUOUS
 62
     7
 10
92.87991448454854
 20
570.191012155142
 30
0.0
 11
92.88751048165881
 21
570.1842209211419
 31
0.0
  0
LINE
  5
4E2
  8
0
  6
CONTINUOUS
 62
     7
 10
92.88751048165881
 20
570.1842209211419
 30
0.0
 11
92.89483053186893
 21
570.1771328097581
 31
0.0
  0
LINE
  5
4E3
  8
0
  6
CONTINUOUS
 62
     7
 10
92.89483053186893
 20
570.1771328097581
 30
0.0
 11
92.90185889652608
 21
570.1697665166611
 31
0.0
  0
LINE
  5
4E4
  8
0
  6
CONTINUOUS
 62
     7
 10
92.90185889652608
 20
570.1697665166611
 30
0.0
 11
92.90876262691359
 21
570.1619268460144
 31
0.0
  0
LINE
  5
4E5
  8
0
  6
CONTINUOUS
 62
     7
 10
92.90876262691359
 20
570.1619268460144
 30
0.0
 11
92.91535254024292
 21
570.153810916167
 31
0.0
  0
LINE
  5
4E6
  8
0
  6
CONTINUOUS
 62
     7
 10
92.91535254024292
 20
570.153810916167
 30
0.0
 11
92.92161580595317
 21
570.1454400533022
 31
0.0
  0
LINE
  5
4E7
  8
0
  6
CONTINUOUS
 62
     7
 10
92.92161580595317
 20
570.1454400533022
 30
0.0
 11
92.92753959348327
 21
570.1368355836039
 31
0.0
  0
LINE
  5
4E8
  8
0
  6
CONTINUOUS
 62
     7
 10
92.92753959348327
 20
570.1368355836039
 30
0.0
 11
92.93328520015251
 21
570.1277331519417
 31
0.0
  0
LINE
  5
4E9
  8
0
  6
CONTINUOUS
 62
     7
 10
92.93328520015251
 20
570.1277331519417
 30
0.0
 11
92.93866587152517
 21
570.1184004414793
 31
0.0
  0
LINE
  5
4EA
  8
0
  6
CONTINUOUS
 62
     7
 10
92.93866587152517
 20
570.1184004414793
 30
0.0
 11
92.94367168139307
 21
570.1088611904398
 31
0.0
  0
LINE
  5
4EB
  8
0
  6
CONTINUOUS
 62
     7
 10
92.94367168139307
 20
570.1088611904398
 30
0.0
 11
92.94829270354796
 21
570.0991391370471
 31
0.0
  0
LINE
  5
4EC
  8
0
  6
CONTINUOUS
 62
     7
 10
92.94829270354796
 20
570.0991391370471
 30
0.0
 11
92.95263184176984
 21
570.0889823009418
 31
0.0
  0
LINE
  5
4ED
  8
0
  6
CONTINUOUS
 62
     7
 10
92.95263184176984
 20
570.0889823009418
 30
0.0
 11
92.95656324902004
 21
570.078651327984
 31
0.0
  0
LINE
  5
4EE
  8
0
  6
CONTINUOUS
 62
     7
 10
92.95656324902004
 20
570.078651327984
 30
0.0
 11
92.96008006828438
 21
570.0681718022676
 31
0.0
  0
LINE
  5
4EF
  8
0
  6
CONTINUOUS
 62
     7
 10
92.96008006828438
 20
570.0681718022676
 30
0.0
 11
92.96317544254879
 21
570.0575693078864
 31
0.0
  0
LINE
  5
4F0
  8
0
  6
CONTINUOUS
 62
     7
 10
92.96317544254879
 20
570.0575693078864
 30
0.0
 11
92.96661533481263
 21
570.0433871496294
 31
0.0
  0
LINE
  5
4F1
  8
0
  6
CONTINUOUS
 62
     7
 10
92.96661533481263
 20
570.0433871496294
 30
0.0
 11
92.9693166224196
 21
570.029025888161
 31
0.0
  0
LINE
  5
4F2
  8
0
  6
CONTINUOUS
 62
     7
 10
92.9693166224196
 20
570.029025888161
 30
0.0
 11
92.9712723156146
 21
570.0145440095833
 31
0.0
  0
LINE
  5
4F3
  8
0
  6
CONTINUOUS
 62
     7
 10
92.9712723156146
 20
570.0145440095833
 30
0.0
 11
92.97247542464252
 21
569.9999999999991
 31
0.0
  0
LINE
  5
4F4
  8
0
  6
CONTINUOUS
 62
     7
 10
73.3814364208255
 20
580.9168161783542
 30
0.0
 11
79.5399256127945
 21
570.25
 31
0.0
  0
LINE
  5
4F5
  8
0
  6
CONTINUOUS
 62
     7
 10
86.13142750665574
 20
581.1668161783542
 30
0.0
 11
79.97293831468673
 21
570.5
 31
0.0
  0
LINE
  5
4F6
  8
0
  6
CONTINUOUS
 62
     7
 10
67.22294722885648
 20
569.7500000000001
 30
0.0
 11
79.5399256127945
 21
569.7500000000001
 31
0.0
  0
LINE
  5
4F7
  8
0
  6
CONTINUOUS
 62
     7
 10
86.56444020854796
 20
559.0831838216459
 30
0.0
 11
80.40595101657895
 21
569.7500000000001
 31
0.0
  0
LINE
  5
4F8
  8
0
  6
CONTINUOUS
 62
     7
 10
79.97293831468673
 20
570.5
 30
0.0
 11
73.8144491227177
 21
581.1668161783542
 31
0.0
  0
LINE
  5
4F9
  8
0
  6
CONTINUOUS
 62
     7
 10
79.5399256127945
 20
569.7500000000001
 30
0.0
 11
73.38143642082551
 21
559.0831838216459
 31
0.0
  0
LINE
  5
4FA
  8
0
  6
CONTINUOUS
 62
     7
 10
80.40595101657895
 20
569.7500000000001
 30
0.0
 11
92.72292940051697
 21
569.7500000000001
 31
0.0
  0
LINE
  5
4FB
  8
0
  6
CONTINUOUS
 62
     7
 10
79.5399256127945
 20
570.25
 30
0.0
 11
67.22294722885648
 21
570.25
 31
0.0
  0
LINE
  5
4FC
  8
0
  6
CONTINUOUS
 62
     7
 10
92.72292940051697
 20
570.25
 30
0.0
 11
80.40595101657895
 21
570.25
 31
0.0
  0
LINE
  5
4FD
  8
0
  6
CONTINUOUS
 62
     7
 10
73.81444912271772
 20
558.8331838216459
 30
0.0
 11
79.97293831468673
 21
569.5000000000001
 31
0.0
  0
LINE
  5
4FE
  8
0
  6
CONTINUOUS
 62
     7
 10
79.97293831468673
 20
569.5
 30
0.0
 11
86.13142750665574
 21
558.8331838216459
 31
0.0
  0
LINE
  5
4FF
  8
0
  6
CONTINUOUS
 62
     7
 10
80.40595101657895
 20
570.25
 30
0.0
 11
86.56444020854796
 21
580.9168161783542
 31
0.0
  0
LINE
  5
500
  8
0
  6
CONTINUOUS
 62
   253
 10
106.7781868490635
 20
587.0000000000001
 30
0.0
 11
106.7781868490635
 21
570.2765973084513
 31
0.0
  0
LINE
  5
501
  8
0
  6
CONTINUOUS
 62
     7
 10
105.7781868490635
 20
554.0
 30
0.0
 11
105.7781868490635
 21
569.7321294909315
 31
0.0
  0
LINE
  5
502
  8
0
  6
CONTINUOUS
 62
     7
 10
105.7781868490635
 20
570.2678705090686
 30
0.0
 11
105.7781868490635
 21
586.0000000000001
 31
0.0
  0
LINE
  5
503
  8
0
  6
CONTINUOUS
 62
     7
 10
106.7781868490635
 20
569.7234026915488
 30
0.0
 11
105.7781868490635
 21
569.7321294909315
 31
0.0
  0
LINE
  5
504
  8
0
  6
CONTINUOUS
 62
   253
 10
106.7781868490635
 20
569.7234026915488
 30
0.0
 11
106.7781868490635
 21
553.0
 31
0.0
  0
LINE
  5
505
  8
0
  6
CONTINUOUS
 62
     7
 10
106.7781868490635
 20
570.2765973084513
 30
0.0
 11
105.783029942567
 21
570.2687283478632
 31
0.0
  0
LINE
  5
506
  8
0
  6
CONTINUOUS
 62
     7
 10
105.7830299425671
 20
570.2687283478632
 30
0.0
 11
105.7781868490635
 21
570.2678705090686
 31
0.0
  0
LINE
  5
507
  8
0
  6
CONTINUOUS
 62
     7
 10
106.7781868490635
 20
570.2765973084513
 30
0.0
 11
109.2781868490635
 21
570.2765973084513
 31
0.0
  0
LINE
  5
508
  8
0
  6
CONTINUOUS
 62
     7
 10
109.2781868490635
 20
570.2765973084513
 30
0.0
 11
109.2781868490635
 21
570.2569619595209
 31
0.0
  0
LINE
  5
509
  8
0
  6
CONTINUOUS
 62
     7
 10
109.2781868490635
 20
570.2569619595209
 30
0.0
 11
120.7781868490635
 21
570.2569619595209
 31
0.0
  0
LINE
  5
50A
  8
0
  6
CONTINUOUS
 62
     7
 10
120.7781868490635
 20
570.2569619595209
 30
0.0
 11
124.2781868490635
 21
570.2525985210254
 31
0.0
  0
LINE
  5
50B
  8
0
  6
CONTINUOUS
 62
     7
 10
124.2781868490635
 20
570.2525985210254
 30
0.0
 11
124.2781868490635
 21
570.25
 31
0.0
  0
LINE
  5
50C
  8
0
  6
CONTINUOUS
 62
     7
 10
124.2781868490635
 20
570.25
 30
0.0
 11
105.8329150042688
 21
570.25
 31
0.0
  0
LINE
  5
50D
  8
0
  6
CONTINUOUS
 62
     7
 10
105.7781868490635
 20
570.252537860144
 30
0.0
 11
105.8329150042688
 21
570.2500000000001
 31
0.0
  0
LINE
  5
50E
  8
0
  6
CONTINUOUS
 62
     7
 10
105.7781868490635
 20
570.252537860144
 30
0.0
 11
105.7781868490635
 21
570.2678705090688
 31
0.0
  0
LINE
  5
50F
  8
0
  6
CONTINUOUS
 62
     7
 10
105.7781868490635
 20
569.7474621398561
 30
0.0
 11
105.7781868490635
 21
569.7321294909314
 31
0.0
  0
LINE
  5
510
  8
0
  6
CONTINUOUS
 62
     7
 10
105.7781868490635
 20
569.7474621398561
 30
0.0
 11
105.8329150042685
 21
569.75
 31
0.0
  0
LINE
  5
511
  8
0
  6
CONTINUOUS
 62
     7
 10
124.2781868490635
 20
569.7500000000001
 30
0.0
 11
105.8329150042685
 21
569.7500000000001
 31
0.0
  0
LINE
  5
512
  8
0
  6
CONTINUOUS
 62
     7
 10
124.2781868490635
 20
569.7474014789747
 30
0.0
 11
124.2781868490635
 21
569.7500000000001
 31
0.0
  0
LINE
  5
513
  8
0
  6
CONTINUOUS
 62
     7
 10
120.7781868490635
 20
569.7430380404792
 30
0.0
 11
124.2781868490635
 21
569.7474014789747
 31
0.0
  0
LINE
  5
514
  8
0
  6
CONTINUOUS
 62
     7
 10
109.2781868490635
 20
569.7430380404792
 30
0.0
 11
120.7781868490635
 21
569.7430380404792
 31
0.0
  0
LINE
  5
515
  8
0
  6
CONTINUOUS
 62
     7
 10
109.2781868490635
 20
569.7234026915488
 30
0.0
 11
109.2781868490635
 21
569.7430380404792
 31
0.0
  0
LINE
  5
516
  8
0
  6
CONTINUOUS
 62
     7
 10
106.7781868490635
 20
569.7234026915488
 30
0.0
 11
109.2781868490635
 21
569.7234026915488
 31
0.0
  0
LINE
  5
517
  8
0
  6
CONTINUOUS
 62
     7
 10
109.2781868490635
 20
553.0
 30
0.0
 11
109.2781868490635
 21
569.7234026915488
 31
0.0
  0
LINE
  5
518
  8
0
  6
CONTINUOUS
 62
     7
 10
109.2781868490635
 20
570.2765973084513
 30
0.0
 11
109.2781868490635
 21
587.0
 31
0.0
  0
LINE
  5
519
  8
0
  6
CONTINUOUS
 62
     7
 10
124.2781868490635
 20
555.7500000000001
 30
0.0
 11
124.2781868490635
 21
569.7474014789747
 31
0.0
  0
LINE
  5
51A
  8
0
  6
CONTINUOUS
 62
     7
 10
120.7781868490635
 20
555.25
 30
0.0
 11
120.7781868490635
 21
569.7430380404791
 31
0.0
  0
LINE
  5
51B
  8
0
  6
CONTINUOUS
 62
     7
 10
124.2781868490635
 20
570.2525985210254
 30
0.0
 11
124.2781868490635
 21
584.25
 31
0.0
  0
LINE
  5
51C
  8
0
  6
CONTINUOUS
 62
     7
 10
120.7781868490635
 20
570.2569619595209
 30
0.0
 11
120.7781868490635
 21
584.75
 31
0.0
  0
LINE
  5
51D
  8
0
  6
CONTINUOUS
 62
     7
 10
105.8329150042685
 20
569.7500000000001
 30
0.0
 11
105.8329150042688
 21
570.25
 31
0.0
  0
LINE
  5
51E
  8
0
  6
CONTINUOUS
 62
     7
 10
124.2781868490635
 20
569.7500000000001
 30
0.0
 11
124.2781868490635
 21
570.25
 31
0.0
  0
ARC
  5
51F
  8
0
  6
CONTINUOUS
 62
     7
 10
106.7781868490635
 20
586.0000000000001
 30
0.0
 40
1.000000000000001
 50
90.0
 51
180.0
  0
ARC
  5
520
  8
0
  6
CONTINUOUS
 62
     7
 10
106.7781868490635
 20
554.0
 30
0.0
 40
0.9999999999999991
 50
180.0
 51
270.0
  0
LINE
  5
521
  8
0
  6
CONTINUOUS
 62
     7
 10
106.7781868490635
 20
553.0
 30
0.0
 11
109.2781868490635
 21
553.0
 31
0.0
  0
LINE
  5
522
  8
0
  6
CONTINUOUS
 62
     7
 10
109.2781868490635
 20
587.0000000000001
 30
0.0
 11
106.7781868490635
 21
587.0000000000001
 31
0.0
  0
LINE
  5
523
  8
0
  6
CONTINUOUS
 62
     7
 10
120.7781868490635
 20
555.25
 30
0.0
 11
124.2781868490635
 21
555.7500000000001
 31
0.0
  0
LINE
  5
524
  8
0
  6
CONTINUOUS
 62
     7
 10
124.2781868490635
 20
584.25
 30
0.0
 11
120.7781868490635
 21
584.7500000000001
 31
0.0
  0
LINE
  5
525
  8
0
  6
CONTINUOUS
 62
     7
 10
109.2781868490635
 20
555.25
 30
0.0
 11
120.7781868490635
 21
555.25
 31
0.0
  0
LINE
  5
526
  8
0
  6
CONTINUOUS
 62
     7
 10
120.7781868490635
 20
584.7500000000001
 30
0.0
 11
109.2781868490635
 21
584.7500000000001
 31
0.0
  0
ENDSEC
  0
EOF
