  0
SECTION
  2
HEADER
  9
$ACADVER
  1
AC1006
  9
$DWGCODEPAGE
  3
ansi_932
  9
$INSBASE
 10
0.0
 20
0.0
 30
0.0
  9
$EXTMIN
 10
54.47274404404327
 20
608.4795454545455
  9
$EXTMAX
 10
175.5272559559567
 20
660.5000000000001
  9
$LIMMIN
 10
0.0
 20
0.0
  9
$LIMMAX
 10
12.0
 20
9.0
  9
$ORTHOMODE
 70
     0
  9
$REGENMODE
 70
     1
  9
$FILLMODE
 70
     1
  9
$QTEXTMODE
 70
     0
  9
$MIRRTEXT
 70
     1
  9
$DRAGMODE
 70
     2
  9
$LTSCALE
 40
1.0
  9
$OSMODE
 70
    37
  9
$ATTMODE
 70
     1
  9
$TEXTSIZE
 40
0.2
  9
$TRACEWID
 40
0.05
  9
$TEXTSTYLE
  7
STANDARD
  9
$CLAYER
  8
0
  9
$CELTYPE
  6
BYLAYER
  9
$CECOLOR
 62
   256
  9
$DIMSCALE
 40
1.0
  9
$DIMASZ
 40
3.0
  9
$DIMEXO
 40
0.0625
  9
$DIMDLI
 40
0.38
  9
$DIMRND
 40
0.0
  9
$DIMDLE
 40
0.0
  9
$DIMEXE
 40
1.5
  9
$DIMTP
 40
0.0
  9
$DIMTM
 40
0.0
  9
$DIMTXT
 40
3.0
  9
$DIMCEN
 40
0.09
  9
$DIMTSZ
 40
0.0
  9
$DIMTOL
 70
     0
  9
$DIMLIM
 70
     0
  9
$DIMTIH
 70
     1
  9
$DIMTOH
 70
     1
  9
$DIMSE1
 70
     0
  9
$DIMSE2
 70
     0
  9
$DIMTAD
 70
     1
  9
$DIMZIN
 70
     0
  9
$DIMBLK
  1

  9
$DIMASO
 70
     1
  9
$DIMSHO
 70
     1
  9
$DIMPOST
  1

  9
$DIMAPOST
  1

  9
$DIMALT
 70
     0
  9
$DIMALTD
 70
     2
  9
$DIMALTF
 40
25.4
  9
$DIMLFAC
 40
1.0
  9
$DIMTOFL
 70
     0
  9
$DIMTVP
 40
0.0
  9
$DIMTIX
 70
     0
  9
$DIMSOXD
 70
     0
  9
$DIMSAH
 70
     0
  9
$DIMBLK1
  1

  9
$DIMBLK2
  1

  9
$LUNITS
 70
     2
  9
$LUPREC
 70
     4
  9
$SKETCHINC
 40
0.1
  9
$FILLETRAD
 40
0.5
  9
$AUNITS
 70
     0
  9
$AUPREC
 70
     0
  9
$MENU
  1
.
  9
$ELEVATION
 40
0.0
  9
$THICKNESS
 40
0.0
  9
$LIMCHECK
 70
     0
  9
$CHAMFERA
 40
0.0
  9
$CHAMFERB
 40
0.0
  9
$SKPOLY
 70
     0
  9
$TDCREATE
 40
2460741.750009097
  9
$TDUPDATE
 40
2460741.750009387
  9
$TDINDWG
 40
0.0000000116
  9
$TDUSRTIMER
 40
0.0000000116
  9
$USRTIMER
 70
     1
  9
$ANGBASE
 50
0.0
  9
$ANGDIR
 70
     0
  9
$PDMODE
 70
     0
  9
$PDSIZE
 40
0.0
  9
$PLINEWID
 40
0.0
  9
$COORDS
 70
     1
  9
$SPLFRAME
 70
     0
  9
$SPLINETYPE
 70
     6
  9
$SPLINESEGS
 70
     8
  9
$ATTDIA
 70
     0
  9
$ATTREQ
 70
     1
  9
$HANDLING
 70
     1
  9
$HANDSEED
  5
52D
  9
$SURFTAB1
 70
     6
  9
$SURFTAB2
 70
     6
  9
$SURFTYPE
 70
     6
  9
$SURFU
 70
     6
  9
$SURFV
 70
     6
  9
$UCSNAME
  2

  9
$UCSORG
 10
0.0
 20
0.0
 30
0.0
  9
$UCSXDIR
 10
1.0
 20
0.0
 30
0.0
  9
$UCSYDIR
 10
0.0
 20
1.0
 30
0.0
  9
$USERI1
 70
     0
  9
$USERI2
 70
     0
  9
$USERI3
 70
     0
  9
$USERI4
 70
     0
  9
$USERI5
 70
     0
  9
$USERR1
 40
0.0
  9
$USERR2
 40
0.0
  9
$USERR3
 40
0.0
  9
$USERR4
 40
0.0
  9
$USERR5
 40
0.0
  9
$WORLDVIEW
 70
     1
  0
ENDSEC
  0
SECTION
  2
TABLES
  0
TABLE
  2
VPORT
 70
     1
  0
VPORT
  2
*ACTIVE
 70
     0
 10
0.0
 20
0.0
 11
1.0
 21
1.0
 12
115.0
 22
634.4897727272728
 13
0.0
 23
0.0
 14
0.5
 24
0.5
 15
0.5
 25
0.5
 16
0.0
 26
0.0
 36
1.0
 17
0.0
 27
0.0
 37
0.0
 40
52.02045454545464
 41
1.6
 42
50.0
 43
0.0
 44
0.0
 50
0.0
 51
0.0
 71
     0
 72
   100
 73
     1
 74
     3
 75
     0
 76
     0
 77
     0
 78
     0
  0
ENDTAB
  0
TABLE
  2
LTYPE
 70
     1
  0
LTYPE
  2
CONTINUOUS
 70
     0
  3
Solid line
 72
    65
 73
     0
 40
0.0
  0
ENDTAB
  0
TABLE
  2
LAYER
 70
     1
  0
LAYER
  2
0
 70
     0
 62
     7
  6
CONTINUOUS
  0
ENDTAB
  0
TABLE
  2
STYLE
 70
     2
  0
STYLE
  2
STANDARD
 70
     0
 40
0.0
 41
1.0
 50
0.0
 71
     0
 42
0.2
  3
txt
  4

  0
STYLE
  2
ＭＳ_ゴシック
 70
     0
 40
0.0
 41
1.0
 50
0.0
 71
     0
 42
0.2
  3
ＭＳ ゴシック.shx
  4

  0
ENDTAB
  0
TABLE
  2
VIEW
 70
     0
  0
ENDTAB
  0
TABLE
  2
UCS
 70
     0
  0
ENDTAB
  0
ENDSEC
  0
SECTION
  2
BLOCKS
  0
ENDSEC
  0
SECTION
  2
ENTITIES
  0
TEXT
  5
6F
  8
0
  6
CONTINUOUS
 62
     7
 10
139.8635425784669
 20
608.1659090909092
 30
0.0
 40
3.0
  1
ＫＨＰＶ－３６
  0
ARC
  5
70
  8
0
  6
CONTINUOUS
 62
     7
 10
155.0272559559567
 20
640.0000000000001
 30
0.0
 40
17.74999999999999
 50
180.8140021647338
 51
179.1859978352662
  0
LINE
  5
71
  8
0
  6
CONTINUOUS
 62
     7
 10
136.5290650017895
 20
640.258711080487
 30
0.0
 11
137.2790472501239
 21
640.2521660845605
 31
0.0
  0
ARC
  5
72
  8
0
  6
CONTINUOUS
 62
     7
 10
155.0272559559567
 20
640.0000000000001
 30
0.0
 40
18.49999999999999
 50
180.8012722274441
 51
179.1987277725559
  0
LINE
  5
73
  8
0
  6
CONTINUOUS
 62
     7
 10
136.5290650017895
 20
639.7412889195132
 30
0.0
 11
137.2790472501239
 21
639.7478339154397
 31
0.0
  0
LINE
  5
74
  8
0
  6
CONTINUOUS
 62
     7
 10
137.5272559559567
 20
639.7500000000001
 30
0.0
 11
137.5272559559567
 21
640.2500000000001
 31
0.0
  0
LINE
  5
75
  8
0
  6
CONTINUOUS
 62
     7
 10
137.2790472501239
 20
640.2521660845605
 30
0.0
 11
137.5272559559567
 21
640.2500000000001
 31
0.0
  0
LINE
  5
76
  8
0
  6
CONTINUOUS
 62
     7
 10
137.2790472501239
 20
639.7478339154397
 30
0.0
 11
137.5272559559567
 21
639.7500000000001
 31
0.0
  0
CIRCLE
  5
77
  8
0
  6
CONTINUOUS
 62
   253
 10
155.0272559559567
 20
640.0000000000001
 30
0.0
 40
17.4956556052975
  0
CIRCLE
  5
78
  8
0
  6
CONTINUOUS
 62
   253
 10
155.0272559559567
 20
640.0000000000001
 30
0.0
 40
16.99567464376542
  0
CIRCLE
  5
79
  8
0
  6
CONTINUOUS
 62
   253
 10
155.0272559559567
 20
640.0000000000001
 30
0.0
 40
16.89494970252423
  0
ARC
  5
7A
  8
0
  6
CONTINUOUS
 62
   253
 10
-146.893084179756
 20
464.5911329019472
 30
0.0
 40
348.6078352524117
 50
27.48653460887931
 51
29.99437892658307
  0
LINE
  5
7B
  8
0
  6
CONTINUOUS
 62
   253
 10
162.363663919077
 20
625.4876417351338
 30
0.0
 11
162.3194171161721
 21
625.4769219349286
 31
0.0
  0
LINE
  5
7C
  8
0
  6
CONTINUOUS
 62
   253
 10
162.3194171161721
 20
625.4769219349286
 30
0.0
 11
162.2603686266418
 21
625.4570512477701
 31
0.0
  0
LINE
  5
7D
  8
0
  6
CONTINUOUS
 62
   253
 10
162.2603686266418
 20
625.4570512477701
 30
0.0
 11
162.1889285217023
 21
625.4288406981495
 31
0.0
  0
LINE
  5
7E
  8
0
  6
CONTINUOUS
 62
   253
 10
162.1889285217023
 20
625.4288406981495
 30
0.0
 11
162.1080126378459
 21
625.3934417030492
 31
0.0
  0
LINE
  5
7F
  8
0
  6
CONTINUOUS
 62
   253
 10
162.1080126378459
 20
625.3934417030492
 30
0.0
 11
162.0209235666237
 21
625.3522990767204
 31
0.0
  0
LINE
  5
80
  8
0
  6
CONTINUOUS
 62
   253
 10
162.0209235666237
 20
625.3522990767204
 30
0.0
 11
161.9312158589729
 21
625.3070920604148
 31
0.0
  0
ARC
  5
81
  8
0
  6
CONTINUOUS
 62
   253
 10
-142.4746717930332
 20
466.9769101231649
 30
0.0
 40
343.120082404817
 50
27.48022736869642
 51
29.88249458876354
  0
LINE
  5
82
  8
0
  6
CONTINUOUS
 62
     7
 10
155.0272559559567
 20
638.865431097947
 30
0.0
 11
155.0272559559567
 21
637.9271775553136
 31
0.0
  0
LINE
  5
83
  8
0
  6
CONTINUOUS
 62
     7
 10
162.9357461079137
 20
625.8020932456525
 30
0.0
 11
155.0272559559567
 21
639.5000000000001
 31
0.0
  0
ARC
  5
84
  8
0
  6
CONTINUOUS
 62
   253
 10
154.8238065356194
 20
639.8825384224018
 30
0.0
 40
16.25000000000001
 50
297.6449552919963
 51
299.9468406338739
  0
LINE
  5
85
  8
0
  6
CONTINUOUS
 62
     7
 10
155.0272559559567
 20
638.865431097947
 30
0.0
 11
155.0272559559567
 21
639.5000000000001
 31
0.0
  0
LINE
  5
86
  8
0
  6
CONTINUOUS
 62
     7
 10
163.3687588098059
 20
653.9479067543477
 30
0.0
 11
155.4602686578489
 21
640.2500000000001
 31
0.0
  0
ARC
  5
87
  8
0
  6
CONTINUOUS
 62
   253
 10
155.2307053762941
 20
639.8825384224018
 30
0.0
 40
16.25000000000001
 50
57.64495529199622
 51
59.94684063387391
  0
ARC
  5
88
  8
0
  6
CONTINUOUS
 62
   253
 10
457.8959609799508
 20
466.2337490721522
 30
0.0
 40
348.6078352526182
 50
147.4865346088798
 51
149.994378926582
  0
LINE
  5
89
  8
0
  6
CONTINUOUS
 62
     7
 10
156.0098214474785
 20
640.5672844510266
 30
0.0
 11
155.4602686578489
 21
640.2500000000001
 31
0.0
  0
ARC
  5
8A
  8
0
  6
CONTINUOUS
 62
   253
 10
453.6206111050744
 20
468.8673178329476
 30
0.0
 40
343.1200824048227
 50
147.4802273686966
 51
149.8824945887636
  0
LINE
  5
8B
  8
0
  6
CONTINUOUS
 62
     7
 10
156.8223728505899
 20
641.0364112223434
 30
0.0
 11
156.0098214474785
 21
640.5672844510266
 31
0.0
  0
LINE
  5
8C
  8
0
  6
CONTINUOUS
 62
   253
 10
163.9271229005919
 20
653.6096948010218
 30
0.0
 11
163.9585299213456
 21
653.5767358457726
 31
0.0
  0
LINE
  5
8D
  8
0
  6
CONTINUOUS
 62
   253
 10
163.9585299213456
 20
653.5767358457726
 30
0.0
 11
164.0052626859806
 21
653.5355336973636
 31
0.0
  0
LINE
  5
8E
  8
0
  6
CONTINUOUS
 62
   253
 10
164.0052626859806
 20
653.5355336973636
 30
0.0
 11
164.0654137910765
 21
653.4877700264473
 31
0.0
  0
LINE
  5
8F
  8
0
  6
CONTINUOUS
 62
   253
 10
164.0654137910765
 20
653.4877700264473
 30
0.0
 11
164.1365281620299
 21
653.435394313008
 31
0.0
  0
LINE
  5
90
  8
0
  6
CONTINUOUS
 62
   253
 10
164.1365281620299
 20
653.435394313008
 30
0.0
 11
164.2157032572202
 21
653.3805442781021
 31
0.0
  0
LINE
  5
91
  8
0
  6
CONTINUOUS
 62
   253
 10
164.2157032572202
 20
653.3805442781021
 30
0.0
 11
164.2997075355956
 21
653.3254586325141
 31
0.0
  0
LINE
  5
92
  8
0
  6
CONTINUOUS
 62
     7
 10
146.6857531021075
 20
626.0520932456525
 30
0.0
 11
154.5942432540645
 21
639.7500000000001
 31
0.0
  0
ARC
  5
93
  8
0
  6
CONTINUOUS
 62
   253
 10
154.8238065356194
 20
640.1174615775984
 30
0.0
 40
16.25000000000001
 50
237.6449552919963
 51
239.9468406338739
  0
ARC
  5
94
  8
0
  6
CONTINUOUS
 62
   253
 10
-147.841449068123
 20
813.7662509278999
 30
0.0
 40
348.6078352527184
 50
327.4865346088802
 51
329.9943789265818
  0
LINE
  5
95
  8
0
  6
CONTINUOUS
 62
     7
 10
154.044690464435
 20
639.4327155489736
 30
0.0
 11
154.5942432540645
 21
639.7500000000001
 31
0.0
  0
LINE
  5
96
  8
0
  6
CONTINUOUS
 62
   253
 10
146.1273890113215
 20
626.3903051989785
 30
0.0
 11
146.0959819905678
 21
626.4232641542276
 31
0.0
  0
LINE
  5
97
  8
0
  6
CONTINUOUS
 62
   253
 10
146.0959819905678
 20
626.4232641542276
 30
0.0
 11
146.0492492259328
 21
626.4644663026368
 31
0.0
  0
LINE
  5
98
  8
0
  6
CONTINUOUS
 62
   253
 10
146.0492492259328
 20
626.4644663026368
 30
0.0
 11
145.9890981208368
 21
626.5122299735532
 31
0.0
  0
LINE
  5
99
  8
0
  6
CONTINUOUS
 62
   253
 10
145.9890981208368
 20
626.5122299735532
 30
0.0
 11
145.9179837498835
 21
626.5646056869922
 31
0.0
  0
LINE
  5
9A
  8
0
  6
CONTINUOUS
 62
   253
 10
145.9179837498835
 20
626.5646056869922
 30
0.0
 11
145.8388086546932
 21
626.6194557218981
 31
0.0
  0
LINE
  5
9B
  8
0
  6
CONTINUOUS
 62
   253
 10
145.8388086546932
 20
626.6194557218981
 30
0.0
 11
145.7548043763178
 21
626.6745413674862
 31
0.0
  0
ARC
  5
9C
  8
0
  6
CONTINUOUS
 62
   253
 10
-143.566099193161
 20
811.1326821670526
 30
0.0
 40
343.1200824048227
 50
327.4802273686966
 51
329.8824945887636
  0
LINE
  5
9D
  8
0
  6
CONTINUOUS
 62
     7
 10
154.044690464435
 20
639.4327155489736
 30
0.0
 11
153.2321390613236
 21
638.9635887776568
 31
0.0
  0
ARC
  5
9E
  8
0
  6
CONTINUOUS
 62
   253
 10
452.5291837049467
 20
813.0230898768353
 30
0.0
 40
343.120082404817
 50
207.4802273686964
 51
209.8824945887635
  0
LINE
  5
9F
  8
0
  6
CONTINUOUS
 62
     7
 10
155.0272559559567
 20
642.0728224446866
 30
0.0
 11
155.0272559559567
 21
641.134568902053
 31
0.0
  0
ARC
  5
A0
  8
0
  6
CONTINUOUS
 62
   253
 10
456.9475960918301
 20
815.4088670981376
 30
0.0
 40
348.6078352525934
 50
207.4865346088794
 51
209.9943789265819
  0
LINE
  5
A1
  8
0
  6
CONTINUOUS
 62
   253
 10
147.6908479928365
 20
654.5123582648664
 30
0.0
 11
147.7350947957414
 21
654.5230780650718
 31
0.0
  0
LINE
  5
A2
  8
0
  6
CONTINUOUS
 62
   253
 10
147.7350947957414
 20
654.5230780650718
 30
0.0
 11
147.7941432852717
 21
654.5429487522301
 31
0.0
  0
LINE
  5
A3
  8
0
  6
CONTINUOUS
 62
   253
 10
147.7941432852717
 20
654.5429487522301
 30
0.0
 11
147.8655833902113
 21
654.5711593018508
 31
0.0
  0
LINE
  5
A4
  8
0
  6
CONTINUOUS
 62
   253
 10
147.8655833902113
 20
654.5711593018508
 30
0.0
 11
147.9464992740676
 21
654.606558296951
 31
0.0
  0
LINE
  5
A5
  8
0
  6
CONTINUOUS
 62
   253
 10
147.9464992740676
 20
654.606558296951
 30
0.0
 11
148.0335883452898
 21
654.6477009232798
 31
0.0
  0
LINE
  5
A6
  8
0
  6
CONTINUOUS
 62
   253
 10
148.0335883452898
 20
654.6477009232798
 30
0.0
 11
148.1232960529406
 21
654.6929079395856
 31
0.0
  0
LINE
  5
A7
  8
0
  6
CONTINUOUS
 62
     7
 10
155.0272559559567
 20
641.134568902053
 30
0.0
 11
155.0272559559567
 21
640.5
 31
0.0
  0
LINE
  5
A8
  8
0
  6
CONTINUOUS
 62
     7
 10
147.1187658039997
 20
654.1979067543477
 30
0.0
 11
155.0272559559567
 21
640.5
 31
0.0
  0
ARC
  5
A9
  8
0
  6
CONTINUOUS
 62
   253
 10
155.2307053762941
 20
640.1174615775984
 30
0.0
 40
16.25000000000001
 50
117.6449552919962
 51
119.9468406338738
  0
LINE
  5
AA
  8
0
  6
CONTINUOUS
 62
     7
 10
171.2772489617629
 20
639.7500000000001
 30
0.0
 11
155.4602686578489
 21
639.7500000000001
 31
0.0
  0
ARC
  5
AB
  8
0
  6
CONTINUOUS
 62
   253
 10
155.0272559559567
 20
639.7650768448036
 30
0.0
 40
16.25000000000001
 50
357.6449552919962
 51
359.9468406338738
  0
ARC
  5
AC
  8
0
  6
CONTINUOUS
 62
   253
 10
155.9756208440509
 20
290.8248819737677
 30
0.0
 40
348.6078352528523
 50
87.48653460888058
 51
89.99437892658115
  0
LINE
  5
AD
  8
0
  6
CONTINUOUS
 62
     7
 10
156.0098214474784
 20
639.4327155489736
 30
0.0
 11
155.4602686578489
 21
639.7500000000001
 31
0.0
  0
ARC
  5
AE
  8
0
  6
CONTINUOUS
 62
   253
 10
156.1186833560866
 20
295.8442279563703
 30
0.0
 40
343.1200824045612
 50
87.4802273686958
 51
89.88249458876469
  0
LINE
  5
AF
  8
0
  6
CONTINUOUS
 62
     7
 10
156.8223728505898
 20
638.9635887776568
 30
0.0
 11
156.0098214474784
 21
639.4327155489736
 31
0.0
  0
LINE
  5
B0
  8
0
  6
CONTINUOUS
 62
   253
 10
171.2635308637121
 20
639.0973365361552
 30
0.0
 11
171.250691081561
 21
639.0536577807009
 31
0.0
  0
LINE
  5
B1
  8
0
  6
CONTINUOUS
 62
   253
 10
171.250691081561
 20
639.0536577807009
 30
0.0
 11
171.2383753566657
 21
638.9925849451332
 31
0.0
  0
LINE
  5
B2
  8
0
  6
CONTINUOUS
 62
   253
 10
171.2383753566657
 20
638.9925849451332
 30
0.0
 11
171.227086356822
 21
638.9166107245964
 31
0.0
  0
LINE
  5
B3
  8
0
  6
CONTINUOUS
 62
   253
 10
171.227086356822
 20
638.9166107245964
 30
0.0
 11
171.2172848439191
 21
638.8288360160569
 31
0.0
  0
LINE
  5
B4
  8
0
  6
CONTINUOUS
 62
   253
 10
171.2172848439191
 20
638.8288360160569
 30
0.0
 11
171.2093708678872
 21
638.7328433548222
 31
0.0
  0
LINE
  5
B5
  8
0
  6
CONTINUOUS
 62
   253
 10
171.2093708678872
 20
638.7328433548222
 30
0.0
 11
171.2036674386119
 21
638.6325506929286
 31
0.0
  0
ARC
  5
B6
  8
0
  6
CONTINUOUS
 62
   253
 10
-147.8308746541371
 20
466.2401681940964
 30
0.0
 40
348.5954679540666
 50
30.00557658028089
 51
32.51350988425844
  0
LINE
  5
B7
  8
0
  6
CONTINUOUS
 62
     7
 10
154.0446904644352
 20
640.5672844510265
 30
0.0
 11
153.2321390613236
 21
641.0364112223434
 31
0.0
  0
ARC
  5
B8
  8
0
  6
CONTINUOUS
 62
   253
 10
-143.4900321314368
 20
468.9136012314921
 30
0.0
 40
343.0310606876475
 50
30.11719365331804
 51
32.52008438922176
  0
LINE
  5
B9
  8
0
  6
CONTINUOUS
 62
   253
 10
145.7548043763178
 20
653.3254586325141
 30
0.0
 11
145.8388086546932
 21
653.3805442781021
 31
0.0
  0
LINE
  5
BA
  8
0
  6
CONTINUOUS
 62
   253
 10
145.8388086546932
 20
653.3805442781021
 30
0.0
 11
145.9179837498834
 21
653.435394313008
 31
0.0
  0
LINE
  5
BB
  8
0
  6
CONTINUOUS
 62
   253
 10
145.9179837498834
 20
653.435394313008
 30
0.0
 11
145.9890981208368
 21
653.4877700264472
 31
0.0
  0
LINE
  5
BC
  8
0
  6
CONTINUOUS
 62
   253
 10
145.9890981208368
 20
653.4877700264472
 30
0.0
 11
146.0492492259327
 21
653.5355336973636
 31
0.0
  0
LINE
  5
BD
  8
0
  6
CONTINUOUS
 62
   253
 10
146.0492492259327
 20
653.5355336973636
 30
0.0
 11
146.0959819905677
 21
653.5767358457725
 31
0.0
  0
LINE
  5
BE
  8
0
  6
CONTINUOUS
 62
   253
 10
146.0959819905677
 20
653.5767358457725
 30
0.0
 11
146.1273890113214
 21
653.6096948010218
 31
0.0
  0
LINE
  5
BF
  8
0
  6
CONTINUOUS
 62
     7
 10
154.5942432540645
 20
640.2500000000001
 30
0.0
 11
146.6857531021075
 21
653.9479067543477
 31
0.0
  0
LINE
  5
C0
  8
0
  6
CONTINUOUS
 62
     7
 10
154.5942432540645
 20
640.2500000000001
 30
0.0
 11
154.0446904644352
 21
640.5672844510265
 31
0.0
  0
ARC
  5
C1
  8
0
  6
CONTINUOUS
 62
   253
 10
154.8238065356194
 20
639.8825384224018
 30
0.0
 40
16.25000000000001
 50
120.0531593661261
 51
122.3550447080038
  0
LINE
  5
C2
  8
0
  6
CONTINUOUS
 62
     7
 10
138.7772629501505
 20
640.2500000000001
 30
0.0
 11
154.5942432540645
 21
640.2500000000001
 31
0.0
  0
ARC
  5
C3
  8
0
  6
CONTINUOUS
 62
   253
 10
155.0272559559567
 20
640.2349231551966
 30
0.0
 40
16.25000000000001
 50
177.6449552919962
 51
179.9468406338738
  0
ARC
  5
C4
  8
0
  6
CONTINUOUS
 62
   253
 10
154.0788910678712
 20
989.1751180265127
 30
0.0
 40
348.6078352531325
 50
267.4865346088812
 51
269.9943789265798
  0
LINE
  5
C5
  8
0
  6
CONTINUOUS
 62
   253
 10
138.7909810482013
 20
640.9026634638449
 30
0.0
 11
138.8038208303525
 21
640.9463422192993
 31
0.0
  0
LINE
  5
C6
  8
0
  6
CONTINUOUS
 62
   253
 10
138.8038208303525
 20
640.9463422192993
 30
0.0
 11
138.8161365552477
 21
641.0074150548669
 31
0.0
  0
LINE
  5
C7
  8
0
  6
CONTINUOUS
 62
   253
 10
138.8161365552477
 20
641.0074150548669
 30
0.0
 11
138.8274255550914
 21
641.0833892754038
 31
0.0
  0
LINE
  5
C8
  8
0
  6
CONTINUOUS
 62
   253
 10
138.8274255550914
 20
641.0833892754038
 30
0.0
 11
138.8372270679943
 21
641.1711639839432
 31
0.0
  0
LINE
  5
C9
  8
0
  6
CONTINUOUS
 62
   253
 10
138.8372270679943
 20
641.1711639839432
 30
0.0
 11
138.8451410440262
 21
641.267156645178
 31
0.0
  0
LINE
  5
CA
  8
0
  6
CONTINUOUS
 62
   253
 10
138.8451410440262
 20
641.267156645178
 30
0.0
 11
138.8508444733015
 21
641.3674493070716
 31
0.0
  0
ARC
  5
CB
  8
0
  6
CONTINUOUS
 62
   253
 10
153.9358285558268
 20
984.15577204363
 30
0.0
 40
343.1200824045612
 50
267.4802273686958
 51
269.8824945887646
  0
ARC
  5
CC
  8
0
  6
CONTINUOUS
 62
   253
 10
154.8238065356194
 20
640.1174615775984
 30
0.0
 40
16.25000000000001
 50
60.05315936612607
 51
62.35504470800374
  0
LINE
  5
CD
  8
0
  6
CONTINUOUS
 62
     7
 10
155.0272559559567
 20
640.5
 30
0.0
 11
162.9357461079137
 21
654.1979067543477
 31
0.0
  0
ARC
  5
CE
  8
0
  6
CONTINUOUS
 62
   253
 10
-146.8822378501037
 20
815.402918947943
 30
0.0
 40
348.5954679538282
 50
330.0055765802796
 51
332.5135098842589
  0
ARC
  5
CF
  8
0
  6
CONTINUOUS
 62
   253
 10
-142.3965556633051
 20
812.9803555682889
 30
0.0
 40
343.0310606876953
 50
330.1171936533183
 51
332.5200843892217
  0
LINE
  5
D0
  8
0
  6
CONTINUOUS
 62
   253
 10
161.9312158589729
 20
654.6929079395854
 30
0.0
 11
162.0209235666237
 21
654.6477009232798
 31
0.0
  0
LINE
  5
D1
  8
0
  6
CONTINUOUS
 62
   253
 10
162.0209235666237
 20
654.6477009232798
 30
0.0
 11
162.1080126378459
 21
654.606558296951
 31
0.0
  0
LINE
  5
D2
  8
0
  6
CONTINUOUS
 62
   253
 10
162.1080126378459
 20
654.606558296951
 30
0.0
 11
162.1889285217023
 21
654.5711593018507
 31
0.0
  0
LINE
  5
D3
  8
0
  6
CONTINUOUS
 62
   253
 10
162.1889285217023
 20
654.5711593018507
 30
0.0
 11
162.2603686266418
 21
654.5429487522301
 31
0.0
  0
LINE
  5
D4
  8
0
  6
CONTINUOUS
 62
   253
 10
162.2603686266418
 20
654.5429487522301
 30
0.0
 11
162.3194171161721
 21
654.5230780650717
 31
0.0
  0
LINE
  5
D5
  8
0
  6
CONTINUOUS
 62
   253
 10
162.3194171161721
 20
654.5230780650717
 30
0.0
 11
162.363663919077
 21
654.5123582648664
 31
0.0
  0
ARC
  5
D6
  8
0
  6
CONTINUOUS
 62
   253
 10
154.0786191521251
 20
290.8372492462731
 30
0.0
 40
348.5954679538348
 50
90.00557658027951
 51
92.51350988425871
  0
ARC
  5
D7
  8
0
  6
CONTINUOUS
 62
   253
 10
153.9337794877774
 20
295.9332456634226
 30
0.0
 40
343.0310606874503
 50
90.11719365331723
 51
92.52008438922233
  0
LINE
  5
D8
  8
0
  6
CONTINUOUS
 62
   253
 10
138.8508444733016
 20
638.6325506929286
 30
0.0
 11
138.8451410440262
 21
638.7328433548222
 31
0.0
  0
LINE
  5
D9
  8
0
  6
CONTINUOUS
 62
   253
 10
138.8451410440262
 20
638.7328433548222
 30
0.0
 11
138.8372270679943
 21
638.828836016057
 31
0.0
  0
LINE
  5
DA
  8
0
  6
CONTINUOUS
 62
   253
 10
138.8372270679943
 20
638.828836016057
 30
0.0
 11
138.8274255550914
 21
638.9166107245965
 31
0.0
  0
LINE
  5
DB
  8
0
  6
CONTINUOUS
 62
   253
 10
138.8274255550914
 20
638.9166107245965
 30
0.0
 11
138.8161365552478
 21
638.9925849451334
 31
0.0
  0
LINE
  5
DC
  8
0
  6
CONTINUOUS
 62
   253
 10
138.8161365552478
 20
638.9925849451334
 30
0.0
 11
138.8038208303525
 21
639.053657780701
 31
0.0
  0
LINE
  5
DD
  8
0
  6
CONTINUOUS
 62
   253
 10
138.8038208303525
 20
639.053657780701
 30
0.0
 11
138.7909810482013
 21
639.0973365361555
 31
0.0
  0
ARC
  5
DE
  8
0
  6
CONTINUOUS
 62
   253
 10
453.5445440432472
 20
811.0863987684454
 30
0.0
 40
343.0310606875269
 50
210.1171936533177
 51
212.5200843892223
  0
LINE
  5
DF
  8
0
  6
CONTINUOUS
 62
   253
 10
164.2997075355957
 20
626.6745413674863
 30
0.0
 11
164.2157032572202
 21
626.6194557218981
 31
0.0
  0
LINE
  5
E0
  8
0
  6
CONTINUOUS
 62
   253
 10
164.2157032572202
 20
626.6194557218981
 30
0.0
 11
164.1365281620299
 21
626.5646056869922
 31
0.0
  0
LINE
  5
E1
  8
0
  6
CONTINUOUS
 62
   253
 10
164.1365281620299
 20
626.5646056869922
 30
0.0
 11
164.0654137910765
 21
626.5122299735532
 31
0.0
  0
LINE
  5
E2
  8
0
  6
CONTINUOUS
 62
   253
 10
164.0654137910765
 20
626.5122299735532
 30
0.0
 11
164.0052626859806
 21
626.4644663026368
 31
0.0
  0
LINE
  5
E3
  8
0
  6
CONTINUOUS
 62
   253
 10
164.0052626859806
 20
626.4644663026368
 30
0.0
 11
163.9585299213456
 21
626.4232641542276
 31
0.0
  0
LINE
  5
E4
  8
0
  6
CONTINUOUS
 62
   253
 10
163.9585299213456
 20
626.4232641542276
 30
0.0
 11
163.9271229005919
 21
626.3903051989784
 31
0.0
  0
ARC
  5
E5
  8
0
  6
CONTINUOUS
 62
   253
 10
457.8853865658048
 20
813.7598318057504
 30
0.0
 40
348.5954679537769
 50
210.0055765802792
 51
212.5135098842589
  0
LINE
  5
E6
  8
0
  6
CONTINUOUS
 62
     7
 10
155.4602686578489
 20
639.7500000000001
 30
0.0
 11
163.3687588098059
 21
626.0520932456525
 31
0.0
  0
ARC
  5
E7
  8
0
  6
CONTINUOUS
 62
   253
 10
155.2307053762941
 20
640.1174615775984
 30
0.0
 40
16.25000000000001
 50
300.0531593661261
 51
302.3550447080037
  0
LINE
  5
E8
  8
0
  6
CONTINUOUS
 62
     7
 10
154.5942432540645
 20
639.7500000000001
 30
0.0
 11
138.7772629501505
 21
639.7500000000001
 31
0.0
  0
ARC
  5
E9
  8
0
  6
CONTINUOUS
 62
   253
 10
155.0272559559567
 20
639.7650768448036
 30
0.0
 40
16.25000000000001
 50
180.0531593661262
 51
182.3550447080038
  0
LINE
  5
EA
  8
0
  6
CONTINUOUS
 62
     7
 10
155.4602686578489
 20
640.2500000000001
 30
0.0
 11
171.2772489617629
 21
640.2500000000001
 31
0.0
  0
ARC
  5
EB
  8
0
  6
CONTINUOUS
 62
   253
 10
155.9758927597883
 20
989.1627507537271
 30
0.0
 40
348.5954679538347
 50
270.0055765802796
 51
272.5135098842587
  0
ARC
  5
EC
  8
0
  6
CONTINUOUS
 62
   253
 10
155.0272559559567
 20
640.2349231551966
 30
0.0
 40
16.25000000000001
 50
0.053159366126177
 51
2.35504470800378
  0
ARC
  5
ED
  8
0
  6
CONTINUOUS
 62
   253
 10
156.120732424136
 20
984.0667543365777
 30
0.0
 40
343.0310606874503
 50
270.1171936533172
 51
272.5200843892223
  0
LINE
  5
EE
  8
0
  6
CONTINUOUS
 62
   253
 10
171.2036674386118
 20
641.3674493070716
 30
0.0
 11
171.2093708678872
 21
641.267156645178
 31
0.0
  0
LINE
  5
EF
  8
0
  6
CONTINUOUS
 62
   253
 10
171.2093708678872
 20
641.267156645178
 30
0.0
 11
171.2172848439191
 21
641.1711639839431
 31
0.0
  0
LINE
  5
F0
  8
0
  6
CONTINUOUS
 62
   253
 10
171.2172848439191
 20
641.1711639839431
 30
0.0
 11
171.227086356822
 21
641.0833892754036
 31
0.0
  0
LINE
  5
F1
  8
0
  6
CONTINUOUS
 62
   253
 10
171.227086356822
 20
641.0833892754036
 30
0.0
 11
171.2383753566656
 21
641.0074150548668
 31
0.0
  0
LINE
  5
F2
  8
0
  6
CONTINUOUS
 62
   253
 10
171.2383753566656
 20
641.0074150548668
 30
0.0
 11
171.2506910815609
 21
640.9463422192991
 31
0.0
  0
LINE
  5
F3
  8
0
  6
CONTINUOUS
 62
   253
 10
171.2506910815609
 20
640.9463422192991
 30
0.0
 11
171.2635308637121
 21
640.9026634638446
 31
0.0
  0
LINE
  5
F4
  8
0
  6
CONTINUOUS
 62
     7
 10
155.0272559559567
 20
639.5000000000001
 30
0.0
 11
147.1187658039997
 21
625.8020932456525
 31
0.0
  0
ARC
  5
F5
  8
0
  6
CONTINUOUS
 62
   253
 10
456.936749761812
 20
464.5970810521668
 30
0.0
 40
348.5954679535956
 50
150.0055765802784
 51
152.5135098842593
  0
ARC
  5
F6
  8
0
  6
CONTINUOUS
 62
   253
 10
155.2307053762941
 20
639.8825384224018
 30
0.0
 40
16.25000000000001
 50
240.0531593661262
 51
242.3550447080037
  0
ARC
  5
F7
  8
0
  6
CONTINUOUS
 62
   253
 10
452.4510675751119
 20
467.0196444317697
 30
0.0
 40
343.0310606875739
 50
150.1171936533179
 51
152.5200843892221
  0
LINE
  5
F8
  8
0
  6
CONTINUOUS
 62
   253
 10
148.1232960529405
 20
625.3070920604147
 30
0.0
 11
148.0335883452897
 21
625.3522990767204
 31
0.0
  0
LINE
  5
F9
  8
0
  6
CONTINUOUS
 62
   253
 10
148.0335883452897
 20
625.3522990767204
 30
0.0
 11
147.9464992740675
 21
625.3934417030492
 31
0.0
  0
LINE
  5
FA
  8
0
  6
CONTINUOUS
 62
   253
 10
147.9464992740675
 20
625.3934417030492
 30
0.0
 11
147.8655833902112
 21
625.4288406981495
 31
0.0
  0
LINE
  5
FB
  8
0
  6
CONTINUOUS
 62
   253
 10
147.8655833902112
 20
625.4288406981495
 30
0.0
 11
147.7941432852716
 21
625.4570512477701
 31
0.0
  0
LINE
  5
FC
  8
0
  6
CONTINUOUS
 62
   253
 10
147.7941432852716
 20
625.4570512477701
 30
0.0
 11
147.7350947957413
 21
625.4769219349286
 31
0.0
  0
LINE
  5
FD
  8
0
  6
CONTINUOUS
 62
   253
 10
147.7350947957413
 20
625.4769219349286
 30
0.0
 11
147.6908479928365
 21
625.4876417351338
 31
0.0
  0
LINE
  5
FE
  8
0
  6
CONTINUOUS
 62
   253
 10
147.8228135348882
 20
654.9905878794533
 30
0.0
 11
148.1232960529405
 21
654.6929079395856
 31
0.0
  0
ARC
  5
FF
  8
0
  6
CONTINUOUS
 62
   253
 10
155.0272559559567
 20
640.0000000000001
 30
0.0
 40
16.63194864019546
 50
64.33116656345143
 51
115.6688334365779
  0
LINE
  5
100
  8
0
  6
CONTINUOUS
 62
   253
 10
161.9312158589729
 20
654.6929079395856
 30
0.0
 11
162.2316983770176
 21
654.9905878794569
 31
0.0
  0
LINE
  5
101
  8
0
  6
CONTINUOUS
 62
   253
 10
138.4428048241529
 20
641.256063782979
 30
0.0
 11
138.8508444733015
 21
641.3674493070716
 31
0.0
  0
ARC
  5
102
  8
0
  6
CONTINUOUS
 62
   253
 10
155.0272559559567
 20
640.0000000000001
 30
0.0
 40
16.63194864019545
 50
124.3311665634515
 51
175.668833436578
  0
LINE
  5
103
  8
0
  6
CONTINUOUS
 62
   253
 10
145.7548043763178
 20
653.325458632514
 30
0.0
 11
145.6472472452144
 21
653.7345240964695
 31
0.0
  0
LINE
  5
104
  8
0
  6
CONTINUOUS
 62
   253
 10
145.6472472452215
 20
626.265475903526
 30
0.0
 11
145.7548043763177
 21
626.6745413674862
 31
0.0
  0
ARC
  5
105
  8
0
  6
CONTINUOUS
 62
   253
 10
155.0272559559567
 20
640.0000000000001
 30
0.0
 40
16.63194864019546
 50
184.3311665634516
 51
235.6688334365781
  0
LINE
  5
106
  8
0
  6
CONTINUOUS
 62
   253
 10
138.8508444733016
 20
638.6325506929286
 30
0.0
 11
138.4428048241535
 21
638.7439362170127
 31
0.0
  0
LINE
  5
107
  8
0
  6
CONTINUOUS
 62
   253
 10
164.407264666692
 20
653.7345240964743
 30
0.0
 11
164.2997075355957
 21
653.325458632514
 31
0.0
  0
ARC
  5
108
  8
0
  6
CONTINUOUS
 62
   253
 10
155.0272559559567
 20
640.0000000000001
 30
0.0
 40
16.63194864019546
 50
4.331166563451623
 51
55.668833436578
  0
LINE
  5
109
  8
0
  6
CONTINUOUS
 62
   253
 10
171.2036674386118
 20
641.3674493070716
 30
0.0
 11
171.6117070877598
 21
641.2560637829876
 31
0.0
  0
LINE
  5
10A
  8
0
  6
CONTINUOUS
 62
   253
 10
171.6117070877605
 20
638.7439362170212
 30
0.0
 11
171.2036674386118
 21
638.6325506929286
 31
0.0
  0
ARC
  5
10B
  8
0
  6
CONTINUOUS
 62
   253
 10
155.0272559559567
 20
640.0000000000001
 30
0.0
 40
16.63194864019545
 50
304.3311665634515
 51
355.6688334365779
  0
LINE
  5
10C
  8
0
  6
CONTINUOUS
 62
   253
 10
164.2997075355956
 20
626.6745413674862
 30
0.0
 11
164.407264666699
 21
626.2654759035307
 31
0.0
  0
LINE
  5
10D
  8
0
  6
CONTINUOUS
 62
   253
 10
148.1232960529405
 20
625.3070920604147
 30
0.0
 11
147.8228135348959
 21
625.0094121205433
 31
0.0
  0
LINE
  5
10E
  8
0
  6
CONTINUOUS
 62
   253
 10
162.2316983770252
 20
625.0094121205469
 30
0.0
 11
161.9312158589729
 21
625.3070920604147
 31
0.0
  0
ARC
  5
10F
  8
0
  6
CONTINUOUS
 62
   253
 10
155.0272559559567
 20
640.0000000000001
 30
0.0
 40
16.63194864019545
 50
244.3311665634515
 51
295.6688334365779
  0
LINE
  5
110
  8
0
  6
CONTINUOUS
 62
   253
 10
171.7615137909702
 20
639.3506748143568
 30
0.0
 11
171.6117070877605
 21
638.7439362170212
 31
0.0
  0
ARC
  5
111
  8
0
  6
CONTINUOUS
 62
   253
 10
155.0272559559567
 20
640.0000000000001
 30
0.0
 40
16.74685070350294
 50
357.777915306653
 51
2.222084693346858
  0
LINE
  5
112
  8
0
  6
CONTINUOUS
 62
   253
 10
171.6117070877598
 20
641.2560637829876
 30
0.0
 11
171.7615137909702
 21
640.6493251856434
 31
0.0
  0
LINE
  5
113
  8
0
  6
CONTINUOUS
 62
   253
 10
163.9567169795476
 20
654.167629805779
 30
0.0
 11
164.407264666692
 21
653.7345240964743
 31
0.0
  0
ARC
  5
114
  8
0
  6
CONTINUOUS
 62
   253
 10
155.0272559559567
 20
640.0000000000001
 30
0.0
 40
16.74685070350309
 50
57.77791530665315
 51
62.2220846933468
  0
LINE
  5
115
  8
0
  6
CONTINUOUS
 62
   253
 10
162.2316983770176
 20
654.9905878794569
 30
0.0
 11
162.8320527673794
 21
654.8169549914222
 31
0.0
  0
LINE
  5
116
  8
0
  6
CONTINUOUS
 62
   253
 10
147.222459144534
 20
654.8169549914222
 30
0.0
 11
147.8228135348882
 21
654.9905878794533
 31
0.0
  0
ARC
  5
117
  8
0
  6
CONTINUOUS
 62
   253
 10
155.0272559559567
 20
640.0000000000001
 30
0.0
 40
16.74685070350329
 50
117.7779153066533
 51
122.2220846933469
  0
LINE
  5
118
  8
0
  6
CONTINUOUS
 62
   253
 10
145.6472472452144
 20
653.7345240964695
 30
0.0
 11
146.0977949323658
 21
654.167629805779
 31
0.0
  0
LINE
  5
119
  8
0
  6
CONTINUOUS
 62
   253
 10
138.2929981209432
 20
640.6493251856434
 30
0.0
 11
138.4428048241529
 21
641.256063782979
 31
0.0
  0
ARC
  5
11A
  8
0
  6
CONTINUOUS
 62
   253
 10
155.0272559559567
 20
640.0000000000001
 30
0.0
 40
16.74685070350297
 50
177.7779153066532
 51
182.2220846933469
  0
LINE
  5
11B
  8
0
  6
CONTINUOUS
 62
   253
 10
138.4428048241535
 20
638.7439362170127
 30
0.0
 11
138.2929981209432
 21
639.3506748143568
 31
0.0
  0
LINE
  5
11C
  8
0
  6
CONTINUOUS
 62
   253
 10
146.0977949323658
 20
625.8323701942212
 30
0.0
 11
145.6472472452215
 21
626.265475903526
 31
0.0
  0
ARC
  5
11D
  8
0
  6
CONTINUOUS
 62
   253
 10
155.0272559559567
 20
640.0000000000001
 30
0.0
 40
16.74685070350308
 50
237.7779153066531
 51
242.2220846933469
  0
LINE
  5
11E
  8
0
  6
CONTINUOUS
 62
   253
 10
147.8228135348959
 20
625.0094121205433
 30
0.0
 11
147.222459144534
 21
625.183045008578
 31
0.0
  0
LINE
  5
11F
  8
0
  6
CONTINUOUS
 62
   253
 10
162.8320527673794
 20
625.183045008578
 30
0.0
 11
162.2316983770252
 21
625.0094121205469
 31
0.0
  0
ARC
  5
120
  8
0
  6
CONTINUOUS
 62
   253
 10
155.0272559559567
 20
640.0000000000001
 30
0.0
 40
16.74685070350329
 50
297.7779153066531
 51
302.2220846933468
  0
LINE
  5
121
  8
0
  6
CONTINUOUS
 62
   253
 10
164.407264666699
 20
626.2654759035307
 30
0.0
 11
163.9567169795476
 21
625.8323701942212
 31
0.0
  0
LINE
  5
122
  8
0
  6
CONTINUOUS
 62
   253
 10
171.7615137909702
 20
640.6493251856434
 30
0.0
 11
171.5148487079459
 21
640.639754050048
 31
0.0
  0
LINE
  5
123
  8
0
  6
CONTINUOUS
 62
   253
 10
171.5148487079459
 20
640.639754050048
 30
0.0
 11
171.4000605452363
 21
640.8658616488211
 31
0.0
  0
LINE
  5
124
  8
0
  6
CONTINUOUS
 62
   253
 10
171.6117070877598
 20
641.2560637829876
 30
0.0
 11
171.5590775710508
 21
641.1719202146878
 31
0.0
  0
LINE
  5
125
  8
0
  6
CONTINUOUS
 62
   253
 10
171.5590775710508
 20
641.1719202146878
 30
0.0
 11
171.5110840689965
 21
641.0913846789709
 31
0.0
  0
LINE
  5
126
  8
0
  6
CONTINUOUS
 62
   253
 10
171.5110840689965
 20
641.0913846789709
 30
0.0
 11
171.4696766244794
 21
641.0177294469048
 31
0.0
  0
LINE
  5
127
  8
0
  6
CONTINUOUS
 62
   253
 10
171.4696766244794
 20
641.0177294469048
 30
0.0
 11
171.4365376796846
 21
640.9539472332298
 31
0.0
  0
LINE
  5
128
  8
0
  6
CONTINUOUS
 62
   253
 10
171.4365376796846
 20
640.9539472332298
 30
0.0
 11
171.4130137161287
 21
640.9026295981884
 31
0.0
  0
LINE
  5
129
  8
0
  6
CONTINUOUS
 62
   253
 10
171.4130137161287
 20
640.9026295981884
 30
0.0
 11
171.4000605452389
 21
640.8658616488193
 31
0.0
  0
LINE
  5
12A
  8
0
  6
CONTINUOUS
 62
   253
 10
138.5396632039675
 20
639.3602459499522
 30
0.0
 11
138.6544513666771
 21
639.1341383511791
 31
0.0
  0
LINE
  5
12B
  8
0
  6
CONTINUOUS
 62
   253
 10
138.4428048241611
 20
638.7439362170077
 30
0.0
 11
138.4954343408699
 21
638.8280797853075
 31
0.0
  0
LINE
  5
12C
  8
0
  6
CONTINUOUS
 62
   253
 10
138.4954343408699
 20
638.8280797853075
 30
0.0
 11
138.5434278429238
 21
638.9086153210246
 31
0.0
  0
LINE
  5
12D
  8
0
  6
CONTINUOUS
 62
   253
 10
138.5434278429238
 20
638.9086153210246
 30
0.0
 11
138.5848352874401
 21
638.9822705530913
 31
0.0
  0
LINE
  5
12E
  8
0
  6
CONTINUOUS
 62
   253
 10
138.5848352874401
 20
638.9822705530913
 30
0.0
 11
138.6179742322339
 21
639.0460527667669
 31
0.0
  0
LINE
  5
12F
  8
0
  6
CONTINUOUS
 62
   253
 10
138.6179742322339
 20
639.0460527667669
 30
0.0
 11
138.6414981957887
 21
639.0973704018093
 31
0.0
  0
LINE
  5
130
  8
0
  6
CONTINUOUS
 62
   253
 10
138.6414981957887
 20
639.0973704018093
 30
0.0
 11
138.6544513666771
 21
639.1341383511791
 31
0.0
  0
LINE
  5
131
  8
0
  6
CONTINUOUS
 62
   253
 10
138.5396632039675
 20
639.3602459499522
 30
0.0
 11
138.2929981209432
 21
639.3506748143568
 31
0.0
  0
LINE
  5
132
  8
0
  6
CONTINUOUS
 62
   253
 10
163.9567169795476
 20
625.8323701942212
 30
0.0
 11
163.8250955914668
 21
626.0412028545492
 31
0.0
  0
LINE
  5
133
  8
0
  6
CONTINUOUS
 62
   253
 10
163.8250955914668
 20
626.0412028545492
 30
0.0
 11
163.9635164346381
 21
626.2536661188959
 31
0.0
  0
LINE
  5
134
  8
0
  6
CONTINUOUS
 62
   253
 10
164.407264666699
 20
626.2654759035308
 30
0.0
 11
164.3080794406318
 21
626.2689826178398
 31
0.0
  0
LINE
  5
135
  8
0
  6
CONTINUOUS
 62
   253
 10
164.3080794406318
 20
626.2689826178398
 30
0.0
 11
164.2143368697664
 21
626.270278441977
 31
0.0
  0
LINE
  5
136
  8
0
  6
CONTINUOUS
 62
   253
 10
164.2143368697664
 20
626.270278441977
 30
0.0
 11
164.1298458454169
 21
626.2693107248015
 31
0.0
  0
LINE
  5
137
  8
0
  6
CONTINUOUS
 62
   253
 10
164.1298458454169
 20
626.2693107248015
 30
0.0
 11
164.0580393556673
 21
626.2661187860108
 31
0.0
  0
LINE
  5
138
  8
0
  6
CONTINUOUS
 62
   253
 10
164.0580393556673
 20
626.2661187860108
 30
0.0
 11
164.0018349982813
 21
626.2608323185273
 31
0.0
  0
LINE
  5
139
  8
0
  6
CONTINUOUS
 62
   253
 10
164.0018349982813
 20
626.2608323185273
 30
0.0
 11
163.9635164346378
 21
626.2536661188929
 31
0.0
  0
LINE
  5
13A
  8
0
  6
CONTINUOUS
 62
   253
 10
146.2294163204466
 20
653.9587971454511
 30
0.0
 11
146.0909954772753
 21
653.7463338811042
 31
0.0
  0
LINE
  5
13B
  8
0
  6
CONTINUOUS
 62
   253
 10
145.6472472452139
 20
653.7345240964605
 30
0.0
 11
145.7464324712811
 21
653.7310173821517
 31
0.0
  0
LINE
  5
13C
  8
0
  6
CONTINUOUS
 62
   253
 10
145.7464324712811
 20
653.7310173821517
 30
0.0
 11
145.8401750421465
 21
653.729721558015
 31
0.0
  0
LINE
  5
13D
  8
0
  6
CONTINUOUS
 62
   253
 10
145.8401750421465
 20
653.729721558015
 30
0.0
 11
145.9246660664962
 21
653.7306892751914
 31
0.0
  0
LINE
  5
13E
  8
0
  6
CONTINUOUS
 62
   253
 10
145.9246660664962
 20
653.7306892751914
 30
0.0
 11
145.9964725562458
 21
653.7338812139832
 31
0.0
  0
LINE
  5
13F
  8
0
  6
CONTINUOUS
 62
   253
 10
145.9964725562458
 20
653.7338812139832
 30
0.0
 11
146.0526769136319
 21
653.7391676814683
 31
0.0
  0
LINE
  5
140
  8
0
  6
CONTINUOUS
 62
   253
 10
146.0526769136319
 20
653.7391676814683
 30
0.0
 11
146.0909954772754
 21
653.7463338811042
 31
0.0
  0
LINE
  5
141
  8
0
  6
CONTINUOUS
 62
   253
 10
146.2294163204466
 20
653.9587971454511
 30
0.0
 11
146.0977949323658
 21
654.167629805779
 31
0.0
  0
LINE
  5
142
  8
0
  6
CONTINUOUS
 62
   253
 10
162.8320527673794
 20
654.8169549914222
 30
0.0
 11
162.7170090724358
 21
654.5985511954989
 31
0.0
  0
LINE
  5
143
  8
0
  6
CONTINUOUS
 62
   253
 10
162.7170090724358
 20
654.5985511954989
 30
0.0
 11
162.4638000665549
 21
654.6121955299251
 31
0.0
  0
LINE
  5
144
  8
0
  6
CONTINUOUS
 62
   253
 10
162.2316983770175
 20
654.990587879457
 30
0.0
 11
162.2782540863757
 21
654.9029375968481
 31
0.0
  0
LINE
  5
145
  8
0
  6
CONTINUOUS
 62
   253
 10
162.2782540863757
 20
654.9029375968481
 30
0.0
 11
162.3240031551867
 21
654.8211062369942
 31
0.0
  0
LINE
  5
146
  8
0
  6
CONTINUOUS
 62
   253
 10
162.3240031551867
 20
654.8211062369942
 30
0.0
 11
162.3670867350192
 21
654.7484187221035
 31
0.0
  0
LINE
  5
147
  8
0
  6
CONTINUOUS
 62
   253
 10
162.3670867350192
 20
654.7484187221035
 30
0.0
 11
162.4057542799739
 21
654.6878284472191
 31
0.0
  0
LINE
  5
148
  8
0
  6
CONTINUOUS
 62
   253
 10
162.4057542799739
 20
654.6878284472191
 30
0.0
 11
162.438434673804
 21
654.6417972796612
 31
0.0
  0
LINE
  5
149
  8
0
  6
CONTINUOUS
 62
   253
 10
162.438434673804
 20
654.6417972796612
 30
0.0
 11
162.4638000665578
 21
654.6121955299266
 31
0.0
  0
LINE
  5
14A
  8
0
  6
CONTINUOUS
 62
   253
 10
147.3375028394776
 20
625.4014488045013
 30
0.0
 11
147.5907118453585
 21
625.3878044700751
 31
0.0
  0
LINE
  5
14B
  8
0
  6
CONTINUOUS
 62
   253
 10
147.8228135349038
 20
625.0094121205473
 30
0.0
 11
147.7762578255456
 21
625.0970624031559
 31
0.0
  0
LINE
  5
14C
  8
0
  6
CONTINUOUS
 62
   253
 10
147.7762578255456
 20
625.0970624031559
 30
0.0
 11
147.7305087567341
 21
625.1788937630097
 31
0.0
  0
LINE
  5
14D
  8
0
  6
CONTINUOUS
 62
   253
 10
147.7305087567341
 20
625.1788937630097
 30
0.0
 11
147.6874251769009
 21
625.2515812779
 31
0.0
  0
LINE
  5
14E
  8
0
  6
CONTINUOUS
 62
   253
 10
147.6874251769009
 20
625.2515812779
 30
0.0
 11
147.6487576319451
 21
625.3121715527838
 31
0.0
  0
LINE
  5
14F
  8
0
  6
CONTINUOUS
 62
   253
 10
147.6487576319451
 20
625.3121715527838
 30
0.0
 11
147.6160772381137
 21
625.3582027203412
 31
0.0
  0
LINE
  5
150
  8
0
  6
CONTINUOUS
 62
   253
 10
147.6160772381137
 20
625.3582027203412
 30
0.0
 11
147.5907118453585
 21
625.387804470075
 31
0.0
  0
LINE
  5
151
  8
0
  6
CONTINUOUS
 62
   253
 10
147.3375028394776
 20
625.4014488045013
 30
0.0
 11
147.222459144534
 21
625.183045008578
 31
0.0
  0
LINE
  5
152
  8
0
  6
CONTINUOUS
 62
   253
 10
147.590711845354
 20
654.6121955299272
 30
0.0
 11
147.3375028394776
 21
654.5985511954989
 31
0.0
  0
LINE
  5
153
  8
0
  6
CONTINUOUS
 62
   253
 10
147.3375028394776
 20
654.5985511954989
 30
0.0
 11
147.222459144534
 21
654.8169549914222
 31
0.0
  0
LINE
  5
154
  8
0
  6
CONTINUOUS
 62
   253
 10
147.5907118453541
 20
654.6121955299271
 30
0.0
 11
147.6160772381081
 21
654.6417972796609
 31
0.0
  0
LINE
  5
155
  8
0
  6
CONTINUOUS
 62
   253
 10
147.6160772381081
 20
654.6417972796609
 30
0.0
 11
147.6487576319379
 21
654.6878284472178
 31
0.0
  0
LINE
  5
156
  8
0
  6
CONTINUOUS
 62
   253
 10
147.6487576319379
 20
654.6878284472178
 30
0.0
 11
147.6874251768918
 21
654.7484187221014
 31
0.0
  0
LINE
  5
157
  8
0
  6
CONTINUOUS
 62
   253
 10
147.6874251768918
 20
654.7484187221014
 30
0.0
 11
147.7305087567229
 21
654.8211062369913
 31
0.0
  0
LINE
  5
158
  8
0
  6
CONTINUOUS
 62
   253
 10
147.7305087567229
 20
654.8211062369913
 30
0.0
 11
147.7762578255321
 21
654.9029375968447
 31
0.0
  0
LINE
  5
159
  8
0
  6
CONTINUOUS
 62
   253
 10
147.7762578255321
 20
654.9029375968447
 30
0.0
 11
147.8228135348882
 21
654.9905878794532
 31
0.0
  0
LINE
  5
15A
  8
0
  6
CONTINUOUS
 62
   253
 10
163.9635164346377
 20
653.7463338811092
 30
0.0
 11
164.0018349982806
 21
653.739167681474
 31
0.0
  0
LINE
  5
15B
  8
0
  6
CONTINUOUS
 62
   253
 10
164.0018349982806
 20
653.739167681474
 30
0.0
 11
164.0580393556658
 21
653.7338812139902
 31
0.0
  0
LINE
  5
15C
  8
0
  6
CONTINUOUS
 62
   253
 10
164.0580393556658
 20
653.7338812139902
 30
0.0
 11
164.1298458454141
 21
653.7306892752
 31
0.0
  0
LINE
  5
15D
  8
0
  6
CONTINUOUS
 62
   253
 10
164.1298458454141
 20
653.7306892752
 30
0.0
 11
164.2143368697623
 21
653.7297215580253
 31
0.0
  0
LINE
  5
15E
  8
0
  6
CONTINUOUS
 62
   253
 10
164.2143368697623
 20
653.7297215580253
 30
0.0
 11
164.3080794406263
 21
653.7310173821636
 31
0.0
  0
LINE
  5
15F
  8
0
  6
CONTINUOUS
 62
   253
 10
164.3080794406263
 20
653.7310173821636
 30
0.0
 11
164.4072646666921
 21
653.7345240964744
 31
0.0
  0
LINE
  5
160
  8
0
  6
CONTINUOUS
 62
   253
 10
163.9635164346376
 20
653.7463338811091
 30
0.0
 11
163.8250955914668
 21
653.9587971454511
 31
0.0
  0
LINE
  5
161
  8
0
  6
CONTINUOUS
 62
   253
 10
163.9567169795476
 20
654.167629805779
 30
0.0
 11
163.8250955914668
 21
653.9587971454511
 31
0.0
  0
LINE
  5
162
  8
0
  6
CONTINUOUS
 62
   253
 10
146.0909954772758
 20
626.2536661188911
 30
0.0
 11
146.2294163204467
 21
626.0412028545487
 31
0.0
  0
LINE
  5
163
  8
0
  6
CONTINUOUS
 62
   253
 10
146.2294163204469
 20
626.0412028545489
 30
0.0
 11
146.097794932366
 21
625.8323701942211
 31
0.0
  0
LINE
  5
164
  8
0
  6
CONTINUOUS
 62
   253
 10
146.0909954772758
 20
626.253666118891
 30
0.0
 11
146.0526769136329
 21
626.2608323185261
 31
0.0
  0
LINE
  5
165
  8
0
  6
CONTINUOUS
 62
   253
 10
146.0526769136329
 20
626.2608323185261
 30
0.0
 11
145.9964725562477
 21
626.26611878601
 31
0.0
  0
LINE
  5
166
  8
0
  6
CONTINUOUS
 62
   253
 10
145.9964725562477
 20
626.26611878601
 30
0.0
 11
145.9246660664994
 21
626.2693107248002
 31
0.0
  0
LINE
  5
167
  8
0
  6
CONTINUOUS
 62
   253
 10
145.9246660664994
 20
626.2693107248002
 30
0.0
 11
145.8401750421513
 21
626.270278441975
 31
0.0
  0
LINE
  5
168
  8
0
  6
CONTINUOUS
 62
   253
 10
145.8401750421513
 20
626.270278441975
 30
0.0
 11
145.7464324712873
 21
626.2689826178366
 31
0.0
  0
LINE
  5
169
  8
0
  6
CONTINUOUS
 62
   253
 10
145.7464324712873
 20
626.2689826178366
 30
0.0
 11
145.6472472452215
 21
626.2654759035258
 31
0.0
  0
LINE
  5
16A
  8
0
  6
CONTINUOUS
 62
   253
 10
138.6544513666731
 20
640.8658616488182
 30
0.0
 11
138.5396632039675
 21
640.639754050048
 31
0.0
  0
LINE
  5
16B
  8
0
  6
CONTINUOUS
 62
   253
 10
138.5396632039675
 20
640.639754050048
 30
0.0
 11
138.2929981209432
 21
640.6493251856434
 31
0.0
  0
LINE
  5
16C
  8
0
  6
CONTINUOUS
 62
   253
 10
138.6544513666732
 20
640.8658616488182
 30
0.0
 11
138.6414981957843
 21
640.9026295981871
 31
0.0
  0
LINE
  5
16D
  8
0
  6
CONTINUOUS
 62
   253
 10
138.6414981957843
 20
640.9026295981871
 30
0.0
 11
138.617974232229
 21
640.9539472332278
 31
0.0
  0
LINE
  5
16E
  8
0
  6
CONTINUOUS
 62
   253
 10
138.617974232229
 20
640.9539472332278
 30
0.0
 11
138.5848352874345
 21
641.0177294469015
 31
0.0
  0
LINE
  5
16F
  8
0
  6
CONTINUOUS
 62
   253
 10
138.5848352874345
 20
641.0177294469015
 30
0.0
 11
138.5434278429175
 21
641.0913846789663
 31
0.0
  0
LINE
  5
170
  8
0
  6
CONTINUOUS
 62
   253
 10
138.5434278429175
 20
641.0913846789663
 30
0.0
 11
138.4954343408627
 21
641.1719202146813
 31
0.0
  0
LINE
  5
171
  8
0
  6
CONTINUOUS
 62
   253
 10
138.4954343408627
 20
641.1719202146813
 30
0.0
 11
138.4428048241529
 21
641.256063782979
 31
0.0
  0
LINE
  5
172
  8
0
  6
CONTINUOUS
 62
   253
 10
162.4638000665593
 20
625.3878044700731
 30
0.0
 11
162.4384346738053
 21
625.3582027203392
 31
0.0
  0
LINE
  5
173
  8
0
  6
CONTINUOUS
 62
   253
 10
162.4384346738053
 20
625.3582027203392
 30
0.0
 11
162.4057542799755
 21
625.3121715527823
 31
0.0
  0
LINE
  5
174
  8
0
  6
CONTINUOUS
 62
   253
 10
162.4057542799755
 20
625.3121715527823
 30
0.0
 11
162.3670867350216
 21
625.2515812778987
 31
0.0
  0
LINE
  5
175
  8
0
  6
CONTINUOUS
 62
   253
 10
162.3670867350216
 20
625.2515812778987
 30
0.0
 11
162.3240031551905
 21
625.1788937630089
 31
0.0
  0
LINE
  5
176
  8
0
  6
CONTINUOUS
 62
   253
 10
162.3240031551905
 20
625.1788937630089
 30
0.0
 11
162.2782540863812
 21
625.0970624031553
 31
0.0
  0
LINE
  5
177
  8
0
  6
CONTINUOUS
 62
   253
 10
162.2782540863812
 20
625.0970624031553
 30
0.0
 11
162.2316983770252
 21
625.0094121205469
 31
0.0
  0
LINE
  5
178
  8
0
  6
CONTINUOUS
 62
   253
 10
162.4638000665593
 20
625.387804470073
 30
0.0
 11
162.7170090724363
 21
625.4014488045011
 31
0.0
  0
LINE
  5
179
  8
0
  6
CONTINUOUS
 62
   253
 10
162.8320527673794
 20
625.183045008578
 30
0.0
 11
162.7170090724358
 21
625.4014488045013
 31
0.0
  0
LINE
  5
17A
  8
0
  6
CONTINUOUS
 62
   253
 10
171.4000605452403
 20
639.1341383511821
 30
0.0
 11
171.4130137161291
 21
639.0973704018131
 31
0.0
  0
LINE
  5
17B
  8
0
  6
CONTINUOUS
 62
   253
 10
171.4130137161291
 20
639.0973704018131
 30
0.0
 11
171.4365376796845
 21
639.0460527667723
 31
0.0
  0
LINE
  5
17C
  8
0
  6
CONTINUOUS
 62
   253
 10
171.4365376796845
 20
639.0460527667723
 30
0.0
 11
171.469676624479
 21
638.9822705530986
 31
0.0
  0
LINE
  5
17D
  8
0
  6
CONTINUOUS
 62
   253
 10
171.469676624479
 20
638.9822705530986
 30
0.0
 11
171.511084068996
 21
638.9086153210338
 31
0.0
  0
LINE
  5
17E
  8
0
  6
CONTINUOUS
 62
   253
 10
171.511084068996
 20
638.9086153210338
 30
0.0
 11
171.5590775710507
 21
638.8280797853189
 31
0.0
  0
LINE
  5
17F
  8
0
  6
CONTINUOUS
 62
   253
 10
171.5590775710507
 20
638.8280797853189
 30
0.0
 11
171.6117070877605
 21
638.7439362170212
 31
0.0
  0
LINE
  5
180
  8
0
  6
CONTINUOUS
 62
   253
 10
171.4000605452403
 20
639.1341383511821
 30
0.0
 11
171.5148487079459
 21
639.3602459499522
 31
0.0
  0
LINE
  5
181
  8
0
  6
CONTINUOUS
 62
   253
 10
171.7615137909702
 20
639.3506748143568
 30
0.0
 11
171.5148487079459
 21
639.3602459499522
 31
0.0
  0
LINE
  5
182
  8
0
  6
CONTINUOUS
 62
   253
 10
138.7909810482013
 20
640.9026634638448
 30
0.0
 11
138.6544513666731
 21
640.8658616488182
 31
0.0
  0
LINE
  5
183
  8
0
  6
CONTINUOUS
 62
   253
 10
171.2635308637121
 20
639.0973365361555
 30
0.0
 11
171.4000605452403
 21
639.1341383511821
 31
0.0
  0
LINE
  5
184
  8
0
  6
CONTINUOUS
 62
   253
 10
163.9271229005919
 20
653.6096948010218
 30
0.0
 11
163.9635164346376
 21
653.7463338811091
 31
0.0
  0
LINE
  5
185
  8
0
  6
CONTINUOUS
 62
   253
 10
147.6908479928366
 20
654.5123582648664
 30
0.0
 11
147.590711845354
 21
654.6121955299272
 31
0.0
  0
LINE
  5
186
  8
0
  6
CONTINUOUS
 62
   253
 10
146.1273890113215
 20
626.3903051989785
 30
0.0
 11
146.0909954772758
 21
626.2536661188911
 31
0.0
  0
LINE
  5
187
  8
0
  6
CONTINUOUS
 62
   253
 10
162.3636639190769
 20
625.4876417351338
 30
0.0
 11
162.4638000665593
 21
625.387804470073
 31
0.0
  0
LINE
  5
188
  8
0
  6
CONTINUOUS
 62
   253
 10
146.0909954772753
 20
653.7463338811042
 30
0.0
 11
146.1273890113215
 21
653.6096948010218
 31
0.0
  0
LINE
  5
189
  8
0
  6
CONTINUOUS
 62
   253
 10
147.5907118453585
 20
625.3878044700751
 30
0.0
 11
147.6908479928365
 21
625.4876417351338
 31
0.0
  0
LINE
  5
18A
  8
0
  6
CONTINUOUS
 62
   253
 10
138.6544513666771
 20
639.1341383511791
 30
0.0
 11
138.7909810482013
 21
639.0973365361555
 31
0.0
  0
LINE
  5
18B
  8
0
  6
CONTINUOUS
 62
   253
 10
171.4000605452363
 20
640.8658616488211
 30
0.0
 11
171.2635308637121
 21
640.9026634638448
 31
0.0
  0
LINE
  5
18C
  8
0
  6
CONTINUOUS
 62
   253
 10
162.4638000665549
 20
654.6121955299251
 30
0.0
 11
162.3636639190769
 21
654.5123582648664
 31
0.0
  0
LINE
  5
18D
  8
0
  6
CONTINUOUS
 62
   253
 10
163.9635164346381
 20
626.2536661188959
 30
0.0
 11
163.9271229005919
 21
626.3903051989785
 31
0.0
  0
ARC
  5
18E
  8
0
  6
CONTINUOUS
 62
     7
 10
155.0272559559567
 20
640.0000000000001
 30
0.0
 40
16.5
 50
177.7779153066531
 51
182.2220846933468
  0
ARC
  5
18F
  8
0
  6
CONTINUOUS
 62
     7
 10
155.0272559559567
 20
640.0000000000001
 30
0.0
 40
16.5
 50
117.7779153066531
 51
122.2220846933469
  0
ARC
  5
190
  8
0
  6
CONTINUOUS
 62
     7
 10
155.0272559559567
 20
640.0000000000001
 30
0.0
 40
16.50000000000001
 50
57.77791530665315
 51
62.22208469334688
  0
ARC
  5
191
  8
0
  6
CONTINUOUS
 62
     7
 10
155.0272559559567
 20
640.0000000000001
 30
0.0
 40
16.50000000000004
 50
237.7779153066544
 51
242.2220846933468
  0
ARC
  5
192
  8
0
  6
CONTINUOUS
 62
     7
 10
155.0272559559567
 20
640.0000000000001
 30
0.0
 40
16.50000000000005
 50
297.7779153066544
 51
302.2220846933469
  0
ARC
  5
193
  8
0
  6
CONTINUOUS
 62
     7
 10
155.0272559559567
 20
640.0000000000001
 30
0.0
 40
16.49999999999999
 50
0.0
 51
2.222084693346858
  0
ARC
  5
194
  8
0
  6
CONTINUOUS
 62
     7
 10
155.0272559559567
 20
640.0000000000001
 30
0.0
 40
16.5
 50
357.777915306653
 51
0.0
  0
LINE
  5
195
  8
0
  6
CONTINUOUS
 62
     7
 10
171.5272559559567
 20
640.0000000000001
 30
0.0
 11
171.5267947543879
 21
640.0000000000011
 31
0.0
  0
LINE
  5
196
  8
0
  6
CONTINUOUS
 62
     7
 10
171.5267947543879
 20
640.0000000000011
 30
0.0
 11
171.5258361361997
 21
640.0122020756083
 31
0.0
  0
LINE
  5
197
  8
0
  6
CONTINUOUS
 62
     7
 10
171.5258361361997
 20
640.0122020756083
 30
0.0
 11
171.5243468761116
 21
640.0243683811113
 31
0.0
  0
LINE
  5
198
  8
0
  6
CONTINUOUS
 62
     7
 10
171.5243468761116
 20
640.0243683811113
 30
0.0
 11
171.5223312361326
 21
640.0364643897651
 31
0.0
  0
LINE
  5
199
  8
0
  6
CONTINUOUS
 62
     7
 10
171.5223312361326
 20
640.0364643897651
 30
0.0
 11
171.5197934782717
 21
640.0484555748251
 31
0.0
  0
LINE
  5
19A
  8
0
  6
CONTINUOUS
 62
     7
 10
171.5197934782717
 20
640.0484555748251
 30
0.0
 11
171.5167378645381
 21
640.0603074095465
 31
0.0
  0
LINE
  5
19B
  8
0
  6
CONTINUOUS
 62
     7
 10
171.5167378645381
 20
640.0603074095465
 30
0.0
 11
171.5133265643913
 21
640.0715143794453
 31
0.0
  0
LINE
  5
19C
  8
0
  6
CONTINUOUS
 62
     7
 10
171.5133265643913
 20
640.0715143794453
 30
0.0
 11
171.5094420926896
 21
640.0825774148057
 31
0.0
  0
LINE
  5
19D
  8
0
  6
CONTINUOUS
 62
     7
 10
171.5094420926896
 20
640.0825774148057
 30
0.0
 11
171.5050930388142
 21
640.0934659727492
 31
0.0
  0
LINE
  5
19E
  8
0
  6
CONTINUOUS
 62
     7
 10
171.5050930388142
 20
640.0934659727492
 30
0.0
 11
171.5002879921464
 21
640.1041495103974
 31
0.0
  0
LINE
  5
19F
  8
0
  6
CONTINUOUS
 62
     7
 10
171.5002879921464
 20
640.1041495103974
 30
0.0
 11
171.4948571412218
 21
640.1149365865429
 31
0.0
  0
LINE
  5
1A0
  8
0
  6
CONTINUOUS
 62
     7
 10
171.4948571412218
 20
640.1149365865429
 30
0.0
 11
171.4889453131618
 21
640.1254816674095
 31
0.0
  0
LINE
  5
1A1
  8
0
  6
CONTINUOUS
 62
     7
 10
171.4889453131618
 20
640.1254816674095
 30
0.0
 11
171.4825675738781
 21
640.1357512732325
 31
0.0
  0
LINE
  5
1A2
  8
0
  6
CONTINUOUS
 62
     7
 10
171.4825675738781
 20
640.1357512732325
 30
0.0
 11
171.475738989282
 21
640.1457119242472
 31
0.0
  0
LINE
  5
1A3
  8
0
  6
CONTINUOUS
 62
     7
 10
171.475738989282
 20
640.1457119242472
 30
0.0
 11
171.4689252989997
 21
640.1547625128471
 31
0.0
  0
LINE
  5
1A4
  8
0
  6
CONTINUOUS
 62
     7
 10
171.4689252989997
 20
640.1547625128471
 30
0.0
 11
171.4617211979175
 21
640.1635193451216
 31
0.0
  0
LINE
  5
1A5
  8
0
  6
CONTINUOUS
 62
     7
 10
171.4617211979175
 20
640.1635193451216
 30
0.0
 11
171.4541446070273
 21
640.1719555363765
 31
0.0
  0
LINE
  5
1A6
  8
0
  6
CONTINUOUS
 62
     7
 10
171.4541446070273
 20
640.1719555363765
 30
0.0
 11
171.446213447321
 21
640.1800442019176
 31
0.0
  0
LINE
  5
1A7
  8
0
  6
CONTINUOUS
 62
     7
 10
171.446213447321
 20
640.1800442019176
 30
0.0
 11
171.437654179418
 21
640.1880202552449
 31
0.0
  0
LINE
  5
1A8
  8
0
  6
CONTINUOUS
 62
     7
 10
171.437654179418
 20
640.1880202552449
 30
0.0
 11
171.4287276986911
 21
640.1956024791509
 31
0.0
  0
LINE
  5
1A9
  8
0
  6
CONTINUOUS
 62
     7
 10
171.4287276986911
 20
640.1956024791509
 30
0.0
 11
171.4194604967815
 21
640.2027636377863
 31
0.0
  0
LINE
  5
1AA
  8
0
  6
CONTINUOUS
 62
     7
 10
171.4194604967815
 20
640.2027636377863
 30
0.0
 11
171.4098790653302
 21
640.2094764953022
 31
0.0
  0
LINE
  5
1AB
  8
0
  6
CONTINUOUS
 62
     7
 10
171.4098790653302
 20
640.2094764953022
 30
0.0
 11
171.4008812951582
 21
640.215191755754
 31
0.0
  0
LINE
  5
1AC
  8
0
  6
CONTINUOUS
 62
     7
 10
171.4008812951582
 20
640.215191755754
 30
0.0
 11
171.3916360757713
 21
640.2205176391678
 31
0.0
  0
LINE
  5
1AD
  8
0
  6
CONTINUOUS
 62
     7
 10
171.3916360757713
 20
640.2205176391678
 30
0.0
 11
171.3821685231692
 21
640.2254369240352
 31
0.0
  0
LINE
  5
1AE
  8
0
  6
CONTINUOUS
 62
     7
 10
171.3821685231692
 20
640.2254369240352
 30
0.0
 11
171.3725037533515
 21
640.229932388847
 31
0.0
  0
LINE
  5
1AF
  8
0
  6
CONTINUOUS
 62
     7
 10
171.3725037533515
 20
640.229932388847
 30
0.0
 11
171.3623242789256
 21
640.2341207415975
 31
0.0
  0
LINE
  5
1B0
  8
0
  6
CONTINUOUS
 62
     7
 10
171.3623242789256
 20
640.2341207415975
 30
0.0
 11
171.3519527803084
 21
640.2378426423919
 31
0.0
  0
LINE
  5
1B1
  8
0
  6
CONTINUOUS
 62
     7
 10
171.3519527803084
 20
640.2378426423919
 30
0.0
 11
171.3414216381827
 21
640.2410847065357
 31
0.0
  0
LINE
  5
1B2
  8
0
  6
CONTINUOUS
 62
     7
 10
171.3414216381827
 20
640.2410847065357
 30
0.0
 11
171.330763233231
 21
640.2438335493338
 31
0.0
  0
LINE
  5
1B3
  8
0
  6
CONTINUOUS
 62
     7
 10
171.330763233231
 20
640.2438335493338
 30
0.0
 11
171.3202065426457
 21
640.2460407397109
 31
0.0
  0
LINE
  5
1B4
  8
0
  6
CONTINUOUS
 62
     7
 10
171.3202065426457
 20
640.2460407397109
 30
0.0
 11
171.309543205328
 21
640.247765754415
 31
0.0
  0
LINE
  5
1B5
  8
0
  6
CONTINUOUS
 62
     7
 10
171.309543205328
 20
640.247765754415
 30
0.0
 11
171.2988067861562
 21
640.2490038189974
 31
0.0
  0
LINE
  5
1B6
  8
0
  6
CONTINUOUS
 62
     7
 10
171.2988067861562
 20
640.2490038189974
 30
0.0
 11
171.2880308500086
 21
640.2497501590093
 31
0.0
  0
LINE
  5
1B7
  8
0
  6
CONTINUOUS
 62
     7
 10
171.2880308500086
 20
640.2497501590093
 30
0.0
 11
171.2772489617629
 21
640.2500000000001
 31
0.0
  0
LINE
  5
1B8
  8
0
  6
CONTINUOUS
 62
     7
 10
163.2772559559567
 20
654.2894191624433
 30
0.0
 11
163.2770253551714
 21
654.289019750169
 31
0.0
  0
LINE
  5
1B9
  8
0
  6
CONTINUOUS
 62
     7
 10
163.2770253551714
 20
654.289019750169
 30
0.0
 11
163.2659787386226
 21
654.294290600269
 31
0.0
  0
LINE
  5
1BA
  8
0
  6
CONTINUOUS
 62
     7
 10
163.2659787386226
 20
654.294290600269
 30
0.0
 11
163.2546977789428
 21
654.2990840159515
 31
0.0
  0
LINE
  5
1BB
  8
0
  6
CONTINUOUS
 62
     7
 10
163.2546977789428
 20
654.2990840159515
 30
0.0
 11
163.2432145081746
 21
654.3033864248516
 31
0.0
  0
LINE
  5
1BC
  8
0
  6
CONTINUOUS
 62
     7
 10
163.2432145081746
 20
654.3033864248516
 30
0.0
 11
163.2315609583608
 21
654.3071842546055
 31
0.0
  0
LINE
  5
1BD
  8
0
  6
CONTINUOUS
 62
     7
 10
163.2315609583608
 20
654.3071842546055
 30
0.0
 11
163.2197691615439
 21
654.3104639328486
 31
0.0
  0
LINE
  5
1BE
  8
0
  6
CONTINUOUS
 62
     7
 10
163.2197691615439
 20
654.3104639328486
 30
0.0
 11
163.2083579908386
 21
654.3131131452111
 31
0.0
  0
LINE
  5
1BF
  8
0
  6
CONTINUOUS
 62
     7
 10
163.2083579908386
 20
654.3131131452111
 30
0.0
 11
163.1968348853227
 21
654.3152806117173
 31
0.0
  0
LINE
  5
1C0
  8
0
  6
CONTINUOUS
 62
     7
 10
163.1968348853227
 20
654.3152806117173
 30
0.0
 11
163.1852305905954
 21
654.3169584995505
 31
0.0
  0
LINE
  5
1C1
  8
0
  6
CONTINUOUS
 62
     7
 10
163.1852305905954
 20
654.3169584995505
 30
0.0
 11
163.1735758522558
 21
654.3181389758939
 31
0.0
  0
LINE
  5
1C2
  8
0
  6
CONTINUOUS
 62
     7
 10
163.1735758522558
 20
654.3181389758939
 30
0.0
 11
163.161518544819
 21
654.3188292591018
 31
0.0
  0
LINE
  5
1C3
  8
0
  6
CONTINUOUS
 62
     7
 10
163.161518544819
 20
654.3188292591018
 30
0.0
 11
163.1494303228735
 21
654.3189820062523
 31
0.0
  0
LINE
  5
1C4
  8
0
  6
CONTINUOUS
 62
     7
 10
163.1494303228735
 20
654.3189820062523
 30
0.0
 11
163.137347713702
 21
654.3185935249255
 31
0.0
  0
LINE
  5
1C5
  8
0
  6
CONTINUOUS
 62
     7
 10
163.137347713702
 20
654.3185935249255
 30
0.0
 11
163.1253072445871
 21
654.3176601227007
 31
0.0
  0
LINE
  5
1C6
  8
0
  6
CONTINUOUS
 62
     7
 10
163.1253072445871
 20
654.3176601227007
 30
0.0
 11
163.1140623597992
 21
654.3162845881226
 31
0.0
  0
LINE
  5
1C7
  8
0
  6
CONTINUOUS
 62
     7
 10
163.1140623597992
 20
654.3162845881226
 30
0.0
 11
163.1028766700517
 21
654.3144240697113
 31
0.0
  0
LINE
  5
1C8
  8
0
  6
CONTINUOUS
 62
     7
 10
163.1028766700517
 20
654.3144240697113
 30
0.0
 11
163.0917824186687
 21
654.3120806451536
 31
0.0
  0
LINE
  5
1C9
  8
0
  6
CONTINUOUS
 62
     7
 10
163.0917824186687
 20
654.3120806451536
 30
0.0
 11
163.0808118489742
 21
654.3092563921371
 31
0.0
  0
LINE
  5
1CA
  8
0
  6
CONTINUOUS
 62
     7
 10
163.0808118489742
 20
654.3092563921371
 30
0.0
 11
163.0696247502193
 21
654.3058318753591
 31
0.0
  0
LINE
  5
1CB
  8
0
  6
CONTINUOUS
 62
     7
 10
163.0696247502193
 20
654.3058318753591
 30
0.0
 11
163.0585951113361
 21
654.3018924282362
 31
0.0
  0
LINE
  5
1CC
  8
0
  6
CONTINUOUS
 62
     7
 10
163.0585951113361
 20
654.3018924282362
 30
0.0
 11
163.0477597650824
 21
654.2974473752781
 31
0.0
  0
LINE
  5
1CD
  8
0
  6
CONTINUOUS
 62
     7
 10
163.0477597650824
 20
654.2974473752781
 30
0.0
 11
163.0371555442162
 21
654.2925060409947
 31
0.0
  0
LINE
  5
1CE
  8
0
  6
CONTINUOUS
 62
     7
 10
163.0371555442162
 20
654.2925060409947
 30
0.0
 11
163.0277070983896
 21
654.287571373674
 31
0.0
  0
LINE
  5
1CF
  8
0
  6
CONTINUOUS
 62
     7
 10
163.0277070983896
 20
654.287571373674
 30
0.0
 11
163.0184721383621
 21
654.2822277205286
 31
0.0
  0
LINE
  5
1D0
  8
0
  6
CONTINUOUS
 62
     7
 10
163.0184721383621
 20
654.2822277205286
 30
0.0
 11
163.0094781363976
 21
654.2764882218971
 31
0.0
  0
LINE
  5
1D1
  8
0
  6
CONTINUOUS
 62
     7
 10
163.0094781363976
 20
654.2764882218971
 30
0.0
 11
163.0007525647598
 21
654.270366018119
 31
0.0
  0
LINE
  5
1D2
  8
0
  6
CONTINUOUS
 62
     7
 10
163.0007525647598
 20
654.270366018119
 30
0.0
 11
162.992035607665
 21
654.2636445110443
 31
0.0
  0
LINE
  5
1D3
  8
0
  6
CONTINUOUS
 62
     7
 10
162.992035607665
 20
654.2636445110443
 30
0.0
 11
162.983626597718
 21
654.2565234801637
 31
0.0
  0
LINE
  5
1D4
  8
0
  6
CONTINUOUS
 62
     7
 10
162.983626597718
 20
654.2565234801637
 30
0.0
 11
162.975553316746
 21
654.2490242756239
 31
0.0
  0
LINE
  5
1D5
  8
0
  6
CONTINUOUS
 62
     7
 10
162.975553316746
 20
654.2490242756239
 30
0.0
 11
162.9678435465759
 21
654.241168247571
 31
0.0
  0
LINE
  5
1D6
  8
0
  6
CONTINUOUS
 62
     7
 10
162.9678435465759
 20
654.241168247571
 30
0.0
 11
162.9606537183458
 21
654.2331294805326
 31
0.0
  0
LINE
  5
1D7
  8
0
  6
CONTINUOUS
 62
     7
 10
162.9606537183458
 20
654.2331294805326
 30
0.0
 11
162.9538281431313
 21
654.2247572668786
 31
0.0
  0
LINE
  5
1D8
  8
0
  6
CONTINUOUS
 62
     7
 10
162.9538281431313
 20
654.2247572668786
 30
0.0
 11
162.9473877381655
 21
654.2160782874213
 31
0.0
  0
LINE
  5
1D9
  8
0
  6
CONTINUOUS
 62
     7
 10
162.9473877381655
 20
654.2160782874213
 30
0.0
 11
162.9413534206815
 21
654.2071192229739
 31
0.0
  0
LINE
  5
1DA
  8
0
  6
CONTINUOUS
 62
     7
 10
162.9413534206815
 20
654.2071192229739
 30
0.0
 11
162.9357461079137
 21
654.1979067543477
 31
0.0
  0
LINE
  5
1DB
  8
0
  6
CONTINUOUS
 62
     7
 10
163.2772559559567
 20
625.7105808375569
 30
0.0
 11
163.2770253551732
 21
625.7109802498322
 31
0.0
  0
LINE
  5
1DC
  8
0
  6
CONTINUOUS
 62
     7
 10
163.2770253551732
 20
625.7109802498322
 30
0.0
 11
163.2871133535338
 21
625.7179114753393
 31
0.0
  0
LINE
  5
1DD
  8
0
  6
CONTINUOUS
 62
     7
 10
163.2871133535338
 20
625.7179114753393
 30
0.0
 11
163.2969050531255
 21
625.72528436516
 31
0.0
  0
LINE
  5
1DE
  8
0
  6
CONTINUOUS
 62
     7
 10
163.2969050531255
 20
625.72528436516
 30
0.0
 11
163.3063726839146
 21
625.7330779649136
 31
0.0
  0
LINE
  5
1DF
  8
0
  6
CONTINUOUS
 62
     7
 10
163.3063726839146
 20
625.7330779649136
 30
0.0
 11
163.3154884758677
 21
625.7412713202198
 31
0.0
  0
LINE
  5
1E0
  8
0
  6
CONTINUOUS
 62
     7
 10
163.3154884758677
 20
625.7412713202198
 30
0.0
 11
163.3242246589509
 21
625.7498434766978
 31
0.0
  0
LINE
  5
1E1
  8
0
  6
CONTINUOUS
 62
     7
 10
163.3242246589509
 20
625.7498434766978
 30
0.0
 11
163.3322245295095
 21
625.7584012342343
 31
0.0
  0
LINE
  5
1E2
  8
0
  6
CONTINUOUS
 62
     7
 10
163.3322245295095
 20
625.7584012342343
 30
0.0
 11
163.3398631633236
 21
625.7672968030885
 31
0.0
  0
LINE
  5
1E3
  8
0
  6
CONTINUOUS
 62
     7
 10
163.3398631633236
 20
625.7672968030885
 30
0.0
 11
163.3471184041755
 21
625.7765074731988
 31
0.0
  0
LINE
  5
1E4
  8
0
  6
CONTINUOUS
 62
     7
 10
163.3471184041755
 20
625.7765074731988
 30
0.0
 11
163.3539680958473
 21
625.7860105345036
 31
0.0
  0
LINE
  5
1E5
  8
0
  6
CONTINUOUS
 62
     7
 10
163.3539680958473
 20
625.7860105345036
 30
0.0
 11
163.3605945523595
 21
625.7961073274412
 31
0.0
  0
LINE
  5
1E6
  8
0
  6
CONTINUOUS
 62
     7
 10
163.3605945523595
 20
625.7961073274412
 30
0.0
 11
163.3667709462451
 21
625.8064996611572
 31
0.0
  0
LINE
  5
1E7
  8
0
  6
CONTINUOUS
 62
     7
 10
163.3667709462451
 20
625.8064996611572
 30
0.0
 11
163.3724758161327
 21
625.8171577483073
 31
0.0
  0
LINE
  5
1E8
  8
0
  6
CONTINUOUS
 62
     7
 10
163.3724758161327
 20
625.8171577483073
 30
0.0
 11
163.3776877006516
 21
625.8280518015466
 31
0.0
  0
LINE
  5
1E9
  8
0
  6
CONTINUOUS
 62
     7
 10
163.3776877006516
 20
625.8280518015466
 30
0.0
 11
163.3821188951571
 21
625.8384779247245
 31
0.0
  0
LINE
  5
1EA
  8
0
  6
CONTINUOUS
 62
     7
 10
163.3821188951571
 20
625.8384779247245
 30
0.0
 11
163.3861004838224
 21
625.8490952754104
 31
0.0
  0
LINE
  5
1EB
  8
0
  6
CONTINUOUS
 62
     7
 10
163.3861004838224
 20
625.8490952754104
 30
0.0
 11
163.3896181443153
 21
625.8598748912228
 31
0.0
  0
LINE
  5
1EC
  8
0
  6
CONTINUOUS
 62
     7
 10
163.3896181443153
 20
625.8598748912228
 30
0.0
 11
163.3926575543035
 21
625.8707878097805
 31
0.0
  0
LINE
  5
1ED
  8
0
  6
CONTINUOUS
 62
     7
 10
163.3926575543035
 20
625.8707878097805
 30
0.0
 11
163.3952853851554
 21
625.882188379886
 31
0.0
  0
LINE
  5
1EE
  8
0
  6
CONTINUOUS
 62
     7
 10
163.3952853851554
 20
625.882188379886
 30
0.0
 11
163.3973885433117
 21
625.8937100509148
 31
0.0
  0
LINE
  5
1EF
  8
0
  6
CONTINUOUS
 62
     7
 10
163.3973885433117
 20
625.8937100509148
 30
0.0
 11
163.3989566876558
 21
625.9053162625083
 31
0.0
  0
LINE
  5
1F0
  8
0
  6
CONTINUOUS
 62
     7
 10
163.3989566876558
 20
625.9053162625083
 30
0.0
 11
163.3999794770707
 21
625.9169704543076
 31
0.0
  0
LINE
  5
1F1
  8
0
  6
CONTINUOUS
 62
     7
 10
163.3999794770707
 20
625.9169704543076
 30
0.0
 11
163.4004301527252
 21
625.9276203820799
 31
0.0
  0
LINE
  5
1F2
  8
0
  6
CONTINUOUS
 62
     7
 10
163.4004301527252
 20
625.9276203820799
 30
0.0
 11
163.4004198933659
 21
625.9382899186395
 31
0.0
  0
LINE
  5
1F3
  8
0
  6
CONTINUOUS
 62
     7
 10
163.4004198933659
 20
625.9382899186395
 30
0.0
 11
163.3999463427284
 21
625.9489487021382
 31
0.0
  0
LINE
  5
1F4
  8
0
  6
CONTINUOUS
 62
     7
 10
163.3999463427284
 20
625.9489487021382
 30
0.0
 11
163.3990071445484
 21
625.959566370728
 31
0.0
  0
LINE
  5
1F5
  8
0
  6
CONTINUOUS
 62
     7
 10
163.3990071445484
 20
625.959566370728
 30
0.0
 11
163.3975446272173
 21
625.9704762305532
 31
0.0
  0
LINE
  5
1F6
  8
0
  6
CONTINUOUS
 62
     7
 10
163.3975446272173
 20
625.9704762305532
 30
0.0
 11
163.3955821385471
 21
625.9813191622283
 31
0.0
  0
LINE
  5
1F7
  8
0
  6
CONTINUOUS
 62
     7
 10
163.3955821385471
 20
625.9813191622283
 30
0.0
 11
163.3931242773934
 21
625.9920604309118
 31
0.0
  0
LINE
  5
1F8
  8
0
  6
CONTINUOUS
 62
     7
 10
163.3931242773934
 20
625.9920604309118
 30
0.0
 11
163.3901756426118
 21
626.0026653017629
 31
0.0
  0
LINE
  5
1F9
  8
0
  6
CONTINUOUS
 62
     7
 10
163.3901756426118
 20
626.0026653017629
 30
0.0
 11
163.3868087802566
 21
626.0129112591783
 31
0.0
  0
LINE
  5
1FA
  8
0
  6
CONTINUOUS
 62
     7
 10
163.3868087802566
 20
626.0129112591783
 30
0.0
 11
163.3829710181535
 21
626.0230084875366
 31
0.0
  0
LINE
  5
1FB
  8
0
  6
CONTINUOUS
 62
     7
 10
163.3829710181535
 20
626.0230084875366
 30
0.0
 11
163.3786750039475
 21
626.0329255315762
 31
0.0
  0
LINE
  5
1FC
  8
0
  6
CONTINUOUS
 62
     7
 10
163.3786750039475
 20
626.0329255315762
 30
0.0
 11
163.3739333852839
 21
626.0426309360355
 31
0.0
  0
LINE
  5
1FD
  8
0
  6
CONTINUOUS
 62
     7
 10
163.3739333852839
 20
626.0426309360355
 30
0.0
 11
163.3687588098059
 21
626.0520932456525
 31
0.0
  0
LINE
  5
1FE
  8
0
  6
CONTINUOUS
 62
     7
 10
138.5272559559567
 20
640.0000000000001
 30
0.0
 11
138.5277171575255
 21
639.9999999999991
 31
0.0
  0
LINE
  5
1FF
  8
0
  6
CONTINUOUS
 62
     7
 10
138.5277171575255
 20
639.9999999999991
 30
0.0
 11
138.5286757757137
 21
639.9877979243919
 31
0.0
  0
LINE
  5
200
  8
0
  6
CONTINUOUS
 62
     7
 10
138.5286757757137
 20
639.9877979243919
 30
0.0
 11
138.5301650358018
 21
639.9756316188889
 31
0.0
  0
LINE
  5
201
  8
0
  6
CONTINUOUS
 62
     7
 10
138.5301650358018
 20
639.9756316188889
 30
0.0
 11
138.5321806757808
 21
639.9635356102351
 31
0.0
  0
LINE
  5
202
  8
0
  6
CONTINUOUS
 62
     7
 10
138.5321806757808
 20
639.9635356102351
 30
0.0
 11
138.5347184336417
 21
639.9515444251751
 31
0.0
  0
LINE
  5
203
  8
0
  6
CONTINUOUS
 62
     7
 10
138.5347184336417
 20
639.9515444251751
 30
0.0
 11
138.5377740473753
 21
639.9396925904538
 31
0.0
  0
LINE
  5
204
  8
0
  6
CONTINUOUS
 62
     7
 10
138.5377740473753
 20
639.9396925904538
 30
0.0
 11
138.5411853475221
 21
639.928485620555
 31
0.0
  0
LINE
  5
205
  8
0
  6
CONTINUOUS
 62
     7
 10
138.5411853475221
 20
639.928485620555
 30
0.0
 11
138.5450698192238
 21
639.9174225851946
 31
0.0
  0
LINE
  5
206
  8
0
  6
CONTINUOUS
 62
     7
 10
138.5450698192238
 20
639.9174225851946
 30
0.0
 11
138.5494188730992
 21
639.906534027251
 31
0.0
  0
LINE
  5
207
  8
0
  6
CONTINUOUS
 62
     7
 10
138.5494188730992
 20
639.906534027251
 30
0.0
 11
138.554223919767
 21
639.8958504896028
 31
0.0
  0
LINE
  5
208
  8
0
  6
CONTINUOUS
 62
     7
 10
138.554223919767
 20
639.8958504896028
 30
0.0
 11
138.5596547706916
 21
639.8850634134574
 31
0.0
  0
LINE
  5
209
  8
0
  6
CONTINUOUS
 62
     7
 10
138.5596547706916
 20
639.8850634134574
 30
0.0
 11
138.5655665987516
 21
639.8745183325907
 31
0.0
  0
LINE
  5
20A
  8
0
  6
CONTINUOUS
 62
     7
 10
138.5655665987516
 20
639.8745183325907
 30
0.0
 11
138.5719443380353
 21
639.8642487267678
 31
0.0
  0
LINE
  5
20B
  8
0
  6
CONTINUOUS
 62
     7
 10
138.5719443380353
 20
639.8642487267678
 30
0.0
 11
138.5787729226314
 21
639.8542880757531
 31
0.0
  0
LINE
  5
20C
  8
0
  6
CONTINUOUS
 62
     7
 10
138.5787729226314
 20
639.8542880757531
 30
0.0
 11
138.5855866129137
 21
639.8452374871531
 31
0.0
  0
LINE
  5
20D
  8
0
  6
CONTINUOUS
 62
     7
 10
138.5855866129137
 20
639.8452374871531
 30
0.0
 11
138.5927907139959
 21
639.8364806548786
 31
0.0
  0
LINE
  5
20E
  8
0
  6
CONTINUOUS
 62
     7
 10
138.5927907139959
 20
639.8364806548786
 30
0.0
 11
138.6003673048861
 21
639.8280444636238
 31
0.0
  0
LINE
  5
20F
  8
0
  6
CONTINUOUS
 62
     7
 10
138.6003673048861
 20
639.8280444636238
 30
0.0
 11
138.6082984645924
 21
639.8199557980827
 31
0.0
  0
LINE
  5
210
  8
0
  6
CONTINUOUS
 62
     7
 10
138.6082984645924
 20
639.8199557980827
 30
0.0
 11
138.6168577324954
 21
639.8119797447554
 31
0.0
  0
LINE
  5
211
  8
0
  6
CONTINUOUS
 62
     7
 10
138.6168577324954
 20
639.8119797447554
 30
0.0
 11
138.6257842132223
 21
639.8043975208493
 31
0.0
  0
LINE
  5
212
  8
0
  6
CONTINUOUS
 62
     7
 10
138.6257842132223
 20
639.8043975208493
 30
0.0
 11
138.6350514151319
 21
639.7972363622139
 31
0.0
  0
LINE
  5
213
  8
0
  6
CONTINUOUS
 62
     7
 10
138.6350514151319
 20
639.7972363622139
 30
0.0
 11
138.6446328465832
 21
639.7905235046981
 31
0.0
  0
LINE
  5
214
  8
0
  6
CONTINUOUS
 62
     7
 10
138.6446328465832
 20
639.7905235046981
 30
0.0
 11
138.6536306167552
 21
639.7848082442463
 31
0.0
  0
LINE
  5
215
  8
0
  6
CONTINUOUS
 62
     7
 10
138.6536306167552
 20
639.7848082442463
 30
0.0
 11
138.6628758361421
 21
639.7794823608324
 31
0.0
  0
LINE
  5
216
  8
0
  6
CONTINUOUS
 62
     7
 10
138.6628758361421
 20
639.7794823608324
 30
0.0
 11
138.6723433887442
 21
639.774563075965
 31
0.0
  0
LINE
  5
217
  8
0
  6
CONTINUOUS
 62
     7
 10
138.6723433887442
 20
639.774563075965
 30
0.0
 11
138.6820081585619
 21
639.7700676111532
 31
0.0
  0
LINE
  5
218
  8
0
  6
CONTINUOUS
 62
     7
 10
138.6820081585619
 20
639.7700676111532
 30
0.0
 11
138.6921876329878
 21
639.7658792584027
 31
0.0
  0
LINE
  5
219
  8
0
  6
CONTINUOUS
 62
     7
 10
138.6921876329878
 20
639.7658792584027
 30
0.0
 11
138.702559131605
 21
639.7621573576083
 31
0.0
  0
LINE
  5
21A
  8
0
  6
CONTINUOUS
 62
     7
 10
138.702559131605
 20
639.7621573576083
 30
0.0
 11
138.7130902737307
 21
639.7589152934645
 31
0.0
  0
LINE
  5
21B
  8
0
  6
CONTINUOUS
 62
     7
 10
138.7130902737307
 20
639.7589152934645
 30
0.0
 11
138.7237486786824
 21
639.7561664506665
 31
0.0
  0
LINE
  5
21C
  8
0
  6
CONTINUOUS
 62
     7
 10
138.7237486786824
 20
639.7561664506665
 30
0.0
 11
138.7343053692677
 21
639.7539592602893
 31
0.0
  0
LINE
  5
21D
  8
0
  6
CONTINUOUS
 62
     7
 10
138.7343053692677
 20
639.7539592602893
 30
0.0
 11
138.7449687065854
 21
639.7522342455852
 31
0.0
  0
LINE
  5
21E
  8
0
  6
CONTINUOUS
 62
     7
 10
138.7449687065854
 20
639.7522342455852
 30
0.0
 11
138.7557051257571
 21
639.7509961810028
 31
0.0
  0
LINE
  5
21F
  8
0
  6
CONTINUOUS
 62
     7
 10
138.7557051257571
 20
639.7509961810028
 30
0.0
 11
138.7664810619048
 21
639.7502498409909
 31
0.0
  0
LINE
  5
220
  8
0
  6
CONTINUOUS
 62
     7
 10
138.7664810619048
 20
639.7502498409909
 30
0.0
 11
138.7772629501505
 21
639.7500000000001
 31
0.0
  0
LINE
  5
221
  8
0
  6
CONTINUOUS
 62
     7
 10
146.7772559559567
 20
625.7105808375569
 30
0.0
 11
146.777486556742
 21
625.7109802498312
 31
0.0
  0
LINE
  5
222
  8
0
  6
CONTINUOUS
 62
     7
 10
146.777486556742
 20
625.7109802498312
 30
0.0
 11
146.7885331732908
 21
625.7057093997312
 31
0.0
  0
LINE
  5
223
  8
0
  6
CONTINUOUS
 62
     7
 10
146.7885331732908
 20
625.7057093997312
 30
0.0
 11
146.7998141329706
 21
625.7009159840487
 31
0.0
  0
LINE
  5
224
  8
0
  6
CONTINUOUS
 62
     7
 10
146.7998141329706
 20
625.7009159840487
 30
0.0
 11
146.8112974037388
 21
625.6966135751486
 31
0.0
  0
LINE
  5
225
  8
0
  6
CONTINUOUS
 62
     7
 10
146.8112974037388
 20
625.6966135751486
 30
0.0
 11
146.8229509535526
 21
625.6928157453947
 31
0.0
  0
LINE
  5
226
  8
0
  6
CONTINUOUS
 62
     7
 10
146.8229509535526
 20
625.6928157453947
 30
0.0
 11
146.8347427503695
 21
625.6895360671516
 31
0.0
  0
LINE
  5
227
  8
0
  6
CONTINUOUS
 62
     7
 10
146.8347427503695
 20
625.6895360671516
 30
0.0
 11
146.8461539210748
 21
625.6868868547891
 31
0.0
  0
LINE
  5
228
  8
0
  6
CONTINUOUS
 62
     7
 10
146.8461539210748
 20
625.6868868547891
 30
0.0
 11
146.8576770265907
 21
625.6847193882829
 31
0.0
  0
LINE
  5
229
  8
0
  6
CONTINUOUS
 62
     7
 10
146.8576770265907
 20
625.6847193882829
 30
0.0
 11
146.8692813213181
 21
625.6830415004497
 31
0.0
  0
LINE
  5
22A
  8
0
  6
CONTINUOUS
 62
     7
 10
146.8692813213181
 20
625.6830415004497
 30
0.0
 11
146.8809360596576
 21
625.6818610241063
 31
0.0
  0
LINE
  5
22B
  8
0
  6
CONTINUOUS
 62
     7
 10
146.8809360596576
 20
625.6818610241063
 30
0.0
 11
146.8929933670944
 21
625.6811707408984
 31
0.0
  0
LINE
  5
22C
  8
0
  6
CONTINUOUS
 62
     7
 10
146.8929933670944
 20
625.6811707408984
 30
0.0
 11
146.9050815890399
 21
625.6810179937479
 31
0.0
  0
LINE
  5
22D
  8
0
  6
CONTINUOUS
 62
     7
 10
146.9050815890399
 20
625.6810179937479
 30
0.0
 11
146.9171641982114
 21
625.6814064750747
 31
0.0
  0
LINE
  5
22E
  8
0
  6
CONTINUOUS
 62
     7
 10
146.9171641982114
 20
625.6814064750747
 30
0.0
 11
146.9292046673263
 21
625.6823398772996
 31
0.0
  0
LINE
  5
22F
  8
0
  6
CONTINUOUS
 62
     7
 10
146.9292046673263
 20
625.6823398772996
 30
0.0
 11
146.9404495521142
 21
625.6837154118776
 31
0.0
  0
LINE
  5
230
  8
0
  6
CONTINUOUS
 62
     7
 10
146.9404495521142
 20
625.6837154118776
 30
0.0
 11
146.9516352418617
 21
625.6855759302889
 31
0.0
  0
LINE
  5
231
  8
0
  6
CONTINUOUS
 62
     7
 10
146.9516352418617
 20
625.6855759302889
 30
0.0
 11
146.9627294932447
 21
625.6879193548466
 31
0.0
  0
LINE
  5
232
  8
0
  6
CONTINUOUS
 62
     7
 10
146.9627294932447
 20
625.6879193548466
 30
0.0
 11
146.9737000629392
 21
625.6907436078632
 31
0.0
  0
LINE
  5
233
  8
0
  6
CONTINUOUS
 62
     7
 10
146.9737000629392
 20
625.6907436078632
 30
0.0
 11
146.9848871616941
 21
625.6941681246411
 31
0.0
  0
LINE
  5
234
  8
0
  6
CONTINUOUS
 62
     7
 10
146.9848871616941
 20
625.6941681246411
 30
0.0
 11
146.9959168005773
 21
625.698107571764
 31
0.0
  0
LINE
  5
235
  8
0
  6
CONTINUOUS
 62
     7
 10
146.9959168005773
 20
625.698107571764
 30
0.0
 11
147.006752146831
 21
625.7025526247221
 31
0.0
  0
LINE
  5
236
  8
0
  6
CONTINUOUS
 62
     7
 10
147.006752146831
 20
625.7025526247221
 30
0.0
 11
147.0173563676972
 21
625.7074939590055
 31
0.0
  0
LINE
  5
237
  8
0
  6
CONTINUOUS
 62
     7
 10
147.0173563676972
 20
625.7074939590055
 30
0.0
 11
147.0268048135238
 21
625.7124286263262
 31
0.0
  0
LINE
  5
238
  8
0
  6
CONTINUOUS
 62
     7
 10
147.0268048135238
 20
625.7124286263262
 30
0.0
 11
147.0360397735513
 21
625.7177722794717
 31
0.0
  0
LINE
  5
239
  8
0
  6
CONTINUOUS
 62
     7
 10
147.0360397735513
 20
625.7177722794717
 30
0.0
 11
147.0450337755158
 21
625.7235117781031
 31
0.0
  0
LINE
  5
23A
  8
0
  6
CONTINUOUS
 62
     7
 10
147.0450337755158
 20
625.7235117781031
 30
0.0
 11
147.0537593471536
 21
625.7296339818812
 31
0.0
  0
LINE
  5
23B
  8
0
  6
CONTINUOUS
 62
     7
 10
147.0537593471536
 20
625.7296339818812
 30
0.0
 11
147.0624763042484
 21
625.736355488956
 31
0.0
  0
LINE
  5
23C
  8
0
  6
CONTINUOUS
 62
     7
 10
147.0624763042484
 20
625.736355488956
 30
0.0
 11
147.0708853141954
 21
625.7434765198363
 31
0.0
  0
LINE
  5
23D
  8
0
  6
CONTINUOUS
 62
     7
 10
147.0708853141954
 20
625.7434765198363
 30
0.0
 11
147.0789585951674
 21
625.7509757243763
 31
0.0
  0
LINE
  5
23E
  8
0
  6
CONTINUOUS
 62
     7
 10
147.0789585951674
 20
625.7509757243763
 30
0.0
 11
147.0866683653375
 21
625.7588317524293
 31
0.0
  0
LINE
  5
23F
  8
0
  6
CONTINUOUS
 62
     7
 10
147.0866683653375
 20
625.7588317524293
 30
0.0
 11
147.0938581935677
 21
625.7668705194675
 31
0.0
  0
LINE
  5
240
  8
0
  6
CONTINUOUS
 62
     7
 10
147.0938581935677
 20
625.7668705194675
 30
0.0
 11
147.1006837687822
 21
625.7752427331217
 31
0.0
  0
LINE
  5
241
  8
0
  6
CONTINUOUS
 62
     7
 10
147.1006837687822
 20
625.7752427331217
 30
0.0
 11
147.1071241737479
 21
625.783921712579
 31
0.0
  0
LINE
  5
242
  8
0
  6
CONTINUOUS
 62
     7
 10
147.1071241737479
 20
625.783921712579
 30
0.0
 11
147.1131584912319
 21
625.7928807770263
 31
0.0
  0
LINE
  5
243
  8
0
  6
CONTINUOUS
 62
     7
 10
147.1131584912319
 20
625.7928807770263
 30
0.0
 11
147.1187658039997
 21
625.8020932456525
 31
0.0
  0
LINE
  5
244
  8
0
  6
CONTINUOUS
 62
     7
 10
146.7772559559567
 20
654.2894191624433
 30
0.0
 11
146.7774865567402
 21
654.289019750168
 31
0.0
  0
LINE
  5
245
  8
0
  6
CONTINUOUS
 62
     7
 10
146.7774865567402
 20
654.289019750168
 30
0.0
 11
146.7673985583796
 21
654.2820885246609
 31
0.0
  0
LINE
  5
246
  8
0
  6
CONTINUOUS
 62
     7
 10
146.7673985583796
 20
654.2820885246609
 30
0.0
 11
146.7576068587879
 21
654.2747156348403
 31
0.0
  0
LINE
  5
247
  8
0
  6
CONTINUOUS
 62
     7
 10
146.7576068587879
 20
654.2747156348403
 30
0.0
 11
146.7481392279987
 21
654.2669220350866
 31
0.0
  0
LINE
  5
248
  8
0
  6
CONTINUOUS
 62
     7
 10
146.7481392279987
 20
654.2669220350866
 30
0.0
 11
146.7390234360458
 21
654.2587286797805
 31
0.0
  0
LINE
  5
249
  8
0
  6
CONTINUOUS
 62
     7
 10
146.7390234360458
 20
654.2587286797805
 30
0.0
 11
146.7302872529625
 21
654.2501565233024
 31
0.0
  0
LINE
  5
24A
  8
0
  6
CONTINUOUS
 62
     7
 10
146.7302872529625
 20
654.2501565233024
 30
0.0
 11
146.7222873824039
 21
654.241598765766
 31
0.0
  0
LINE
  5
24B
  8
0
  6
CONTINUOUS
 62
     7
 10
146.7222873824039
 20
654.241598765766
 30
0.0
 11
146.7146487485898
 21
654.2327031969118
 31
0.0
  0
LINE
  5
24C
  8
0
  6
CONTINUOUS
 62
     7
 10
146.7146487485898
 20
654.2327031969118
 30
0.0
 11
146.7073935077379
 21
654.2234925268015
 31
0.0
  0
LINE
  5
24D
  8
0
  6
CONTINUOUS
 62
     7
 10
146.7073935077379
 20
654.2234925268015
 30
0.0
 11
146.7005438160661
 21
654.2139894654966
 31
0.0
  0
LINE
  5
24E
  8
0
  6
CONTINUOUS
 62
     7
 10
146.7005438160661
 20
654.2139894654966
 30
0.0
 11
146.6939173595538
 21
654.203892672559
 31
0.0
  0
LINE
  5
24F
  8
0
  6
CONTINUOUS
 62
     7
 10
146.6939173595538
 20
654.203892672559
 30
0.0
 11
146.6877409656684
 21
654.193500338843
 31
0.0
  0
LINE
  5
250
  8
0
  6
CONTINUOUS
 62
     7
 10
146.6877409656684
 20
654.193500338843
 30
0.0
 11
146.6820360957807
 21
654.1828422516929
 31
0.0
  0
LINE
  5
251
  8
0
  6
CONTINUOUS
 62
     7
 10
146.6820360957807
 20
654.1828422516929
 30
0.0
 11
146.6768242112618
 21
654.1719481984536
 31
0.0
  0
LINE
  5
252
  8
0
  6
CONTINUOUS
 62
     7
 10
146.6768242112618
 20
654.1719481984536
 30
0.0
 11
146.6723930167562
 21
654.1615220752757
 31
0.0
  0
LINE
  5
253
  8
0
  6
CONTINUOUS
 62
     7
 10
146.6723930167562
 20
654.1615220752757
 30
0.0
 11
146.6684114280909
 21
654.1509047245899
 31
0.0
  0
LINE
  5
254
  8
0
  6
CONTINUOUS
 62
     7
 10
146.6684114280909
 20
654.1509047245899
 30
0.0
 11
146.6648937675981
 21
654.1401251087774
 31
0.0
  0
LINE
  5
255
  8
0
  6
CONTINUOUS
 62
     7
 10
146.6648937675981
 20
654.1401251087774
 30
0.0
 11
146.6618543576099
 21
654.1292121902196
 31
0.0
  0
LINE
  5
256
  8
0
  6
CONTINUOUS
 62
     7
 10
146.6618543576099
 20
654.1292121902196
 30
0.0
 11
146.659226526758
 21
654.1178116201143
 31
0.0
  0
LINE
  5
257
  8
0
  6
CONTINUOUS
 62
     7
 10
146.659226526758
 20
654.1178116201143
 30
0.0
 11
146.6571233686016
 21
654.1062899490854
 31
0.0
  0
LINE
  5
258
  8
0
  6
CONTINUOUS
 62
     7
 10
146.6571233686016
 20
654.1062899490854
 30
0.0
 11
146.6555552242577
 21
654.0946837374919
 31
0.0
  0
LINE
  5
259
  8
0
  6
CONTINUOUS
 62
     7
 10
146.6555552242577
 20
654.0946837374919
 30
0.0
 11
146.6545324348427
 21
654.0830295456926
 31
0.0
  0
LINE
  5
25A
  8
0
  6
CONTINUOUS
 62
     7
 10
146.6545324348427
 20
654.0830295456926
 30
0.0
 11
146.6540817591882
 21
654.0723796179203
 31
0.0
  0
LINE
  5
25B
  8
0
  6
CONTINUOUS
 62
     7
 10
146.6540817591882
 20
654.0723796179203
 30
0.0
 11
146.6540920185475
 21
654.0617100813607
 31
0.0
  0
LINE
  5
25C
  8
0
  6
CONTINUOUS
 62
     7
 10
146.6540920185475
 20
654.0617100813607
 30
0.0
 11
146.6545655691851
 21
654.051051297862
 31
0.0
  0
LINE
  5
25D
  8
0
  6
CONTINUOUS
 62
     7
 10
146.6545655691851
 20
654.051051297862
 30
0.0
 11
146.655504767365
 21
654.0404336292722
 31
0.0
  0
LINE
  5
25E
  8
0
  6
CONTINUOUS
 62
     7
 10
146.655504767365
 20
654.0404336292722
 30
0.0
 11
146.6569672846962
 21
654.029523769447
 31
0.0
  0
LINE
  5
25F
  8
0
  6
CONTINUOUS
 62
     7
 10
146.6569672846962
 20
654.029523769447
 30
0.0
 11
146.6589297733663
 21
654.018680837772
 31
0.0
  0
LINE
  5
260
  8
0
  6
CONTINUOUS
 62
     7
 10
146.6589297733663
 20
654.018680837772
 30
0.0
 11
146.66138763452
 21
654.0079395690883
 31
0.0
  0
LINE
  5
261
  8
0
  6
CONTINUOUS
 62
     7
 10
146.66138763452
 20
654.0079395690883
 30
0.0
 11
146.6643362693016
 21
653.9973346982373
 31
0.0
  0
LINE
  5
262
  8
0
  6
CONTINUOUS
 62
     7
 10
146.6643362693016
 20
653.9973346982373
 30
0.0
 11
146.6677031316568
 21
653.987088740822
 31
0.0
  0
LINE
  5
263
  8
0
  6
CONTINUOUS
 62
     7
 10
146.6677031316568
 20
653.987088740822
 30
0.0
 11
146.6715408937599
 21
653.9769915124637
 31
0.0
  0
LINE
  5
264
  8
0
  6
CONTINUOUS
 62
     7
 10
146.6715408937599
 20
653.9769915124637
 30
0.0
 11
146.6758369079659
 21
653.967074468424
 31
0.0
  0
LINE
  5
265
  8
0
  6
CONTINUOUS
 62
     7
 10
146.6758369079659
 20
653.967074468424
 30
0.0
 11
146.6805785266295
 21
653.9573690639647
 31
0.0
  0
LINE
  5
266
  8
0
  6
CONTINUOUS
 62
     7
 10
146.6805785266295
 20
653.9573690639647
 30
0.0
 11
146.6857531021075
 21
653.9479067543477
 31
0.0
  0
LINE
  5
267
  8
0
  6
CONTINUOUS
 62
     7
 10
147.1187658039997
 20
654.1979067543477
 30
0.0
 11
147.113623531733
 21
654.2063925104519
 31
0.0
  0
LINE
  5
268
  8
0
  6
CONTINUOUS
 62
     7
 10
147.113623531733
 20
654.2063925104519
 30
0.0
 11
147.1081227678417
 21
654.2146610211987
 31
0.0
  0
LINE
  5
269
  8
0
  6
CONTINUOUS
 62
     7
 10
147.1081227678417
 20
654.2146610211987
 30
0.0
 11
147.1022790549327
 21
654.2226908715896
 31
0.0
  0
LINE
  5
26A
  8
0
  6
CONTINUOUS
 62
     7
 10
147.1022790549327
 20
654.2226908715896
 30
0.0
 11
147.0961079356129
 21
654.2304606466262
 31
0.0
  0
LINE
  5
26B
  8
0
  6
CONTINUOUS
 62
     7
 10
147.0961079356129
 20
654.2304606466262
 30
0.0
 11
147.0894164012083
 21
654.238182033819
 31
0.0
  0
LINE
  5
26C
  8
0
  6
CONTINUOUS
 62
     7
 10
147.0894164012083
 20
654.238182033819
 30
0.0
 11
147.0823914877425
 21
654.2456144625742
 31
0.0
  0
LINE
  5
26D
  8
0
  6
CONTINUOUS
 62
     7
 10
147.0823914877425
 20
654.2456144625742
 30
0.0
 11
147.0750542383321
 21
654.2527389133512
 31
0.0
  0
LINE
  5
26E
  8
0
  6
CONTINUOUS
 62
     7
 10
147.0750542383321
 20
654.2527389133512
 30
0.0
 11
147.0674256960937
 21
654.2595363666095
 31
0.0
  0
LINE
  5
26F
  8
0
  6
CONTINUOUS
 62
     7
 10
147.0674256960937
 20
654.2595363666095
 30
0.0
 11
147.0597475241268
 21
654.2658174569877
 31
0.0
  0
LINE
  5
270
  8
0
  6
CONTINUOUS
 62
     7
 10
147.0597475241268
 20
654.2658174569877
 30
0.0
 11
147.0518104805118
 21
654.2717820164896
 31
0.0
  0
LINE
  5
271
  8
0
  6
CONTINUOUS
 62
     7
 10
147.0518104805118
 20
654.2717820164896
 30
0.0
 11
147.0436361270697
 21
654.2774172531684
 31
0.0
  0
LINE
  5
272
  8
0
  6
CONTINUOUS
 62
     7
 10
147.0436361270697
 20
654.2774172531684
 30
0.0
 11
147.0352460256217
 21
654.2827103750777
 31
0.0
  0
LINE
  5
273
  8
0
  6
CONTINUOUS
 62
     7
 10
147.0352460256217
 20
654.2827103750777
 30
0.0
 11
147.0264069681211
 21
654.2877899344867
 31
0.0
  0
LINE
  5
274
  8
0
  6
CONTINUOUS
 62
     7
 10
147.0264069681211
 20
654.2877899344867
 30
0.0
 11
147.0173577825607
 21
654.2925037093958
 31
0.0
  0
LINE
  5
275
  8
0
  6
CONTINUOUS
 62
     7
 10
147.0173577825607
 20
654.2925037093958
 30
0.0
 11
147.0081228524019
 21
654.2968428234666
 31
0.0
  0
LINE
  5
276
  8
0
  6
CONTINUOUS
 62
     7
 10
147.0081228524019
 20
654.2968428234666
 30
0.0
 11
146.9987265611056
 21
654.3007984003605
 31
0.0
  0
LINE
  5
277
  8
0
  6
CONTINUOUS
 62
     7
 10
146.9987265611056
 20
654.3007984003605
 30
0.0
 11
146.989190578492
 21
654.3043641621631
 31
0.0
  0
LINE
  5
278
  8
0
  6
CONTINUOUS
 62
     7
 10
146.989190578492
 20
654.3043641621631
 30
0.0
 11
146.9795114108844
 21
654.3075468037613
 31
0.0
  0
LINE
  5
279
  8
0
  6
CONTINUOUS
 62
     7
 10
146.9795114108844
 20
654.3075468037613
 30
0.0
 11
146.9697131177304
 21
654.3103420449984
 31
0.0
  0
LINE
  5
27A
  8
0
  6
CONTINUOUS
 62
     7
 10
146.9697131177304
 20
654.3103420449984
 30
0.0
 11
146.9598197584773
 21
654.3127456057177
 31
0.0
  0
LINE
  5
27B
  8
0
  6
CONTINUOUS
 62
     7
 10
146.9598197584773
 20
654.3127456057177
 30
0.0
 11
146.9495787824625
 21
654.314804558134
 31
0.0
  0
LINE
  5
27C
  8
0
  6
CONTINUOUS
 62
     7
 10
146.9495787824625
 20
654.314804558134
 30
0.0
 11
146.9392554711134
 21
654.3164536312497
 31
0.0
  0
LINE
  5
27D
  8
0
  6
CONTINUOUS
 62
     7
 10
146.9392554711134
 20
654.3164536312497
 30
0.0
 11
146.9288747064996
 21
654.3176923789849
 31
0.0
  0
LINE
  5
27E
  8
0
  6
CONTINUOUS
 62
     7
 10
146.9288747064996
 20
654.3176923789849
 30
0.0
 11
146.9184613706908
 21
654.3185203552604
 31
0.0
  0
LINE
  5
27F
  8
0
  6
CONTINUOUS
 62
     7
 10
146.9184613706908
 20
654.3185203552604
 30
0.0
 11
146.9077055701235
 21
654.318945081883
 31
0.0
  0
LINE
  5
280
  8
0
  6
CONTINUOUS
 62
     7
 10
146.9077055701235
 20
654.318945081883
 30
0.0
 11
146.8969328064164
 21
654.3189386359692
 31
0.0
  0
LINE
  5
281
  8
0
  6
CONTINUOUS
 62
     7
 10
146.8969328064164
 20
654.3189386359692
 30
0.0
 11
146.8861685989412
 21
654.318504292372
 31
0.0
  0
LINE
  5
282
  8
0
  6
CONTINUOUS
 62
     7
 10
146.8861685989412
 20
654.318504292372
 30
0.0
 11
146.8754384670694
 21
654.3176453259443
 31
0.0
  0
LINE
  5
283
  8
0
  6
CONTINUOUS
 62
     7
 10
146.8754384670694
 20
654.3176453259443
 30
0.0
 11
146.8644727590475
 21
654.3163248738572
 31
0.0
  0
LINE
  5
284
  8
0
  6
CONTINUOUS
 62
     7
 10
146.8644727590475
 20
654.3163248738572
 30
0.0
 11
146.8535601002941
 21
654.3145642689267
 31
0.0
  0
LINE
  5
285
  8
0
  6
CONTINUOUS
 62
     7
 10
146.8535601002941
 20
654.3145642689267
 30
0.0
 11
146.8427260727571
 21
654.3123703654754
 31
0.0
  0
LINE
  5
286
  8
0
  6
CONTINUOUS
 62
     7
 10
146.8427260727571
 20
654.3123703654754
 30
0.0
 11
146.8319962583844
 21
654.3097500178256
 31
0.0
  0
LINE
  5
287
  8
0
  6
CONTINUOUS
 62
     7
 10
146.8319962583844
 20
654.3097500178256
 30
0.0
 11
146.8179934122299
 21
654.3056381037213
 31
0.0
  0
LINE
  5
288
  8
0
  6
CONTINUOUS
 62
     7
 10
146.8179934122299
 20
654.3056381037213
 30
0.0
 11
146.804204749146
 21
654.3007969618334
 31
0.0
  0
LINE
  5
289
  8
0
  6
CONTINUOUS
 62
     7
 10
146.804204749146
 20
654.3007969618334
 30
0.0
 11
146.7906844152703
 21
654.2952497810271
 31
0.0
  0
LINE
  5
28A
  8
0
  6
CONTINUOUS
 62
     7
 10
146.7906844152703
 20
654.2952497810271
 30
0.0
 11
146.7774865567402
 21
654.289019750168
 31
0.0
  0
LINE
  5
28B
  8
0
  6
CONTINUOUS
 62
     7
 10
146.6857531021075
 20
626.0520932456525
 30
0.0
 11
146.6809753578843
 21
626.0433970291843
 31
0.0
  0
LINE
  5
28C
  8
0
  6
CONTINUOUS
 62
     7
 10
146.6809753578843
 20
626.0433970291843
 30
0.0
 11
146.6765649994718
 21
626.0344989725409
 31
0.0
  0
LINE
  5
28D
  8
0
  6
CONTINUOUS
 62
     7
 10
146.6765649994718
 20
626.0344989725409
 30
0.0
 11
146.6725328014991
 21
626.0254232435137
 31
0.0
  0
LINE
  5
28E
  8
0
  6
CONTINUOUS
 62
     7
 10
146.6725328014991
 20
626.0254232435137
 30
0.0
 11
146.6688895385957
 21
626.0161940098947
 31
0.0
  0
LINE
  5
28F
  8
0
  6
CONTINUOUS
 62
     7
 10
146.6688895385957
 20
626.0161940098947
 30
0.0
 11
146.6655483883366
 21
626.0065382775136
 31
0.0
  0
LINE
  5
290
  8
0
  6
CONTINUOUS
 62
     7
 10
146.6655483883366
 20
626.0065382775136
 30
0.0
 11
146.6626241729557
 21
625.9967383096152
 31
0.0
  0
LINE
  5
291
  8
0
  6
CONTINUOUS
 62
     7
 10
146.6626241729557
 20
625.9967383096152
 30
0.0
 11
146.6601228423
 21
625.9868218398434
 31
0.0
  0
LINE
  5
292
  8
0
  6
CONTINUOUS
 62
     7
 10
146.6601228423
 20
625.9868218398434
 30
0.0
 11
146.6580503462164
 21
625.976816601842
 31
0.0
  0
LINE
  5
293
  8
0
  6
CONTINUOUS
 62
     7
 10
146.6580503462164
 20
625.976816601842
 30
0.0
 11
146.6564498483689
 21
625.9670265646749
 31
0.0
  0
LINE
  5
294
  8
0
  6
CONTINUOUS
 62
     7
 10
146.6564498483689
 20
625.9670265646749
 30
0.0
 11
146.6552529101254
 21
625.9571706035224
 31
0.0
  0
LINE
  5
295
  8
0
  6
CONTINUOUS
 62
     7
 10
146.6552529101254
 20
625.9571706035224
 30
0.0
 11
146.6544598287261
 21
625.9472737874427
 31
0.0
  0
LINE
  5
296
  8
0
  6
CONTINUOUS
 62
     7
 10
146.6544598287261
 20
625.9472737874427
 30
0.0
 11
146.6540709014114
 21
625.9373611854937
 31
0.0
  0
LINE
  5
297
  8
0
  6
CONTINUOUS
 62
     7
 10
146.6540709014114
 20
625.9373611854937
 30
0.0
 11
146.6540914026736
 21
625.9271665574481
 31
0.0
  0
LINE
  5
298
  8
0
  6
CONTINUOUS
 62
     7
 10
146.6540914026736
 20
625.9271665574481
 30
0.0
 11
146.6545337466347
 21
625.9169728454148
 31
0.0
  0
LINE
  5
299
  8
0
  6
CONTINUOUS
 62
     7
 10
146.6545337466347
 20
625.9169728454148
 30
0.0
 11
146.6553934286989
 21
625.9068056042597
 31
0.0
  0
LINE
  5
29A
  8
0
  6
CONTINUOUS
 62
     7
 10
146.6553934286989
 20
625.9068056042597
 30
0.0
 11
146.6566659442703
 21
625.8966903888487
 31
0.0
  0
LINE
  5
29B
  8
0
  6
CONTINUOUS
 62
     7
 10
146.6566659442703
 20
625.8966903888487
 30
0.0
 11
146.6583458952722
 21
625.886649104754
 31
0.0
  0
LINE
  5
29C
  8
0
  6
CONTINUOUS
 62
     7
 10
146.6583458952722
 20
625.886649104754
 30
0.0
 11
146.6604292306008
 21
625.8766753789193
 31
0.0
  0
LINE
  5
29D
  8
0
  6
CONTINUOUS
 62
     7
 10
146.6604292306008
 20
625.8766753789193
 30
0.0
 11
146.6629076272569
 21
625.8667921875156
 31
0.0
  0
LINE
  5
29E
  8
0
  6
CONTINUOUS
 62
     7
 10
146.6629076272569
 20
625.8667921875156
 30
0.0
 11
146.6657727622409
 21
625.8570225067141
 31
0.0
  0
LINE
  5
29F
  8
0
  6
CONTINUOUS
 62
     7
 10
146.6657727622409
 20
625.8570225067141
 30
0.0
 11
146.6691101451505
 21
625.8471240851175
 31
0.0
  0
LINE
  5
2A0
  8
0
  6
CONTINUOUS
 62
     7
 10
146.6691101451505
 20
625.8471240851175
 30
0.0
 11
146.6728436616142
 21
625.8373592986801
 31
0.0
  0
LINE
  5
2A1
  8
0
  6
CONTINUOUS
 62
     7
 10
146.6728436616142
 20
625.8373592986801
 30
0.0
 11
146.6769612569135
 21
625.8277499189463
 31
0.0
  0
LINE
  5
2A2
  8
0
  6
CONTINUOUS
 62
     7
 10
146.6769612569135
 20
625.8277499189463
 30
0.0
 11
146.6814508763297
 21
625.81831771746
 31
0.0
  0
LINE
  5
2A3
  8
0
  6
CONTINUOUS
 62
     7
 10
146.6814508763297
 20
625.81831771746
 30
0.0
 11
146.6864609525685
 21
625.8087905576193
 31
0.0
  0
LINE
  5
2A4
  8
0
  6
CONTINUOUS
 62
     7
 10
146.6864609525685
 20
625.8087905576193
 30
0.0
 11
146.6918529167471
 21
625.799464293537
 31
0.0
  0
LINE
  5
2A5
  8
0
  6
CONTINUOUS
 62
     7
 10
146.6918529167471
 20
625.799464293537
 30
0.0
 11
146.6976111730739
 21
625.7903593882105
 31
0.0
  0
LINE
  5
2A6
  8
0
  6
CONTINUOUS
 62
     7
 10
146.6976111730739
 20
625.7903593882105
 30
0.0
 11
146.7037201257571
 21
625.7814963046372
 31
0.0
  0
LINE
  5
2A7
  8
0
  6
CONTINUOUS
 62
     7
 10
146.7037201257571
 20
625.7814963046372
 30
0.0
 11
146.7103465248201
 21
625.7726599489635
 31
0.0
  0
LINE
  5
2A8
  8
0
  6
CONTINUOUS
 62
     7
 10
146.7103465248201
 20
625.7726599489635
 30
0.0
 11
146.7173275827925
 21
625.7640896117254
 31
0.0
  0
LINE
  5
2A9
  8
0
  6
CONTINUOUS
 62
     7
 10
146.7173275827925
 20
625.7640896117254
 30
0.0
 11
146.7246445726833
 21
625.7558040203786
 31
0.0
  0
LINE
  5
2AA
  8
0
  6
CONTINUOUS
 62
     7
 10
146.7246445726833
 20
625.7558040203786
 30
0.0
 11
146.7322787675011
 21
625.747821902379
 31
0.0
  0
LINE
  5
2AB
  8
0
  6
CONTINUOUS
 62
     7
 10
146.7322787675011
 20
625.747821902379
 30
0.0
 11
146.7428412126509
 21
625.737751038936
 31
0.0
  0
LINE
  5
2AC
  8
0
  6
CONTINUOUS
 62
     7
 10
146.7428412126509
 20
625.737751038936
 30
0.0
 11
146.7539280960512
 21
625.7282302773651
 31
0.0
  0
LINE
  5
2AD
  8
0
  6
CONTINUOUS
 62
     7
 10
146.7539280960512
 20
625.7282302773651
 30
0.0
 11
146.7654922624866
 21
625.7192949151643
 31
0.0
  0
LINE
  5
2AE
  8
0
  6
CONTINUOUS
 62
     7
 10
146.7654922624866
 20
625.7192949151643
 30
0.0
 11
146.777486556742
 21
625.7109802498312
 31
0.0
  0
LINE
  5
2AF
  8
0
  6
CONTINUOUS
 62
     7
 10
162.9357461079137
 20
625.8020932456525
 30
0.0
 11
162.9408883801804
 21
625.7936074895483
 31
0.0
  0
LINE
  5
2B0
  8
0
  6
CONTINUOUS
 62
     7
 10
162.9408883801804
 20
625.7936074895483
 30
0.0
 11
162.9463891440717
 21
625.7853389788015
 31
0.0
  0
LINE
  5
2B1
  8
0
  6
CONTINUOUS
 62
     7
 10
162.9463891440717
 20
625.7853389788015
 30
0.0
 11
162.9522328569807
 21
625.7773091284106
 31
0.0
  0
LINE
  5
2B2
  8
0
  6
CONTINUOUS
 62
     7
 10
162.9522328569807
 20
625.7773091284106
 30
0.0
 11
162.9584039763005
 21
625.7695393533741
 31
0.0
  0
LINE
  5
2B3
  8
0
  6
CONTINUOUS
 62
     7
 10
162.9584039763005
 20
625.7695393533741
 30
0.0
 11
162.9650955107051
 21
625.7618179661812
 31
0.0
  0
LINE
  5
2B4
  8
0
  6
CONTINUOUS
 62
     7
 10
162.9650955107051
 20
625.7618179661812
 30
0.0
 11
162.972120424171
 21
625.7543855374261
 31
0.0
  0
LINE
  5
2B5
  8
0
  6
CONTINUOUS
 62
     7
 10
162.972120424171
 20
625.7543855374261
 30
0.0
 11
162.9794576735813
 21
625.747261086649
 31
0.0
  0
LINE
  5
2B6
  8
0
  6
CONTINUOUS
 62
     7
 10
162.9794576735813
 20
625.747261086649
 30
0.0
 11
162.9870862158197
 21
625.7404636333907
 31
0.0
  0
LINE
  5
2B7
  8
0
  6
CONTINUOUS
 62
     7
 10
162.9870862158197
 20
625.7404636333907
 30
0.0
 11
162.9947643877866
 21
625.7341825430125
 31
0.0
  0
LINE
  5
2B8
  8
0
  6
CONTINUOUS
 62
     7
 10
162.9947643877866
 20
625.7341825430125
 30
0.0
 11
163.0027014314016
 21
625.7282179835106
 31
0.0
  0
LINE
  5
2B9
  8
0
  6
CONTINUOUS
 62
     7
 10
163.0027014314016
 20
625.7282179835106
 30
0.0
 11
163.0108757848437
 21
625.7225827468318
 31
0.0
  0
LINE
  5
2BA
  8
0
  6
CONTINUOUS
 62
     7
 10
163.0108757848437
 20
625.7225827468318
 30
0.0
 11
163.0192658862917
 21
625.7172896249225
 31
0.0
  0
LINE
  5
2BB
  8
0
  6
CONTINUOUS
 62
     7
 10
163.0192658862917
 20
625.7172896249225
 30
0.0
 11
163.0281049437924
 21
625.7122100655135
 31
0.0
  0
LINE
  5
2BC
  8
0
  6
CONTINUOUS
 62
     7
 10
163.0281049437924
 20
625.7122100655135
 30
0.0
 11
163.0371541293527
 21
625.7074962906045
 31
0.0
  0
LINE
  5
2BD
  8
0
  6
CONTINUOUS
 62
     7
 10
163.0371541293527
 20
625.7074962906045
 30
0.0
 11
163.0463890595115
 21
625.7031571765336
 31
0.0
  0
LINE
  5
2BE
  8
0
  6
CONTINUOUS
 62
     7
 10
163.0463890595115
 20
625.7031571765336
 30
0.0
 11
163.0557853508078
 21
625.6992015996398
 31
0.0
  0
LINE
  5
2BF
  8
0
  6
CONTINUOUS
 62
     7
 10
163.0557853508078
 20
625.6992015996398
 30
0.0
 11
163.0653213334214
 21
625.6956358378371
 31
0.0
  0
LINE
  5
2C0
  8
0
  6
CONTINUOUS
 62
     7
 10
163.0653213334214
 20
625.6956358378371
 30
0.0
 11
163.0750005010289
 21
625.692453196239
 31
0.0
  0
LINE
  5
2C1
  8
0
  6
CONTINUOUS
 62
     7
 10
163.0750005010289
 20
625.692453196239
 30
0.0
 11
163.084798794183
 21
625.6896579550018
 31
0.0
  0
LINE
  5
2C2
  8
0
  6
CONTINUOUS
 62
     7
 10
163.084798794183
 20
625.6896579550018
 30
0.0
 11
163.0946921534361
 21
625.6872543942825
 31
0.0
  0
LINE
  5
2C3
  8
0
  6
CONTINUOUS
 62
     7
 10
163.0946921534361
 20
625.6872543942825
 30
0.0
 11
163.1049331294509
 21
625.6851954418662
 31
0.0
  0
LINE
  5
2C4
  8
0
  6
CONTINUOUS
 62
     7
 10
163.1049331294509
 20
625.6851954418662
 30
0.0
 11
163.1152564408
 21
625.6835463687505
 31
0.0
  0
LINE
  5
2C5
  8
0
  6
CONTINUOUS
 62
     7
 10
163.1152564408
 20
625.6835463687505
 30
0.0
 11
163.1256372054138
 21
625.6823076210153
 31
0.0
  0
LINE
  5
2C6
  8
0
  6
CONTINUOUS
 62
     7
 10
163.1256372054138
 20
625.6823076210153
 30
0.0
 11
163.1360505412226
 21
625.6814796447399
 31
0.0
  0
LINE
  5
2C7
  8
0
  6
CONTINUOUS
 62
     7
 10
163.1360505412226
 20
625.6814796447399
 30
0.0
 11
163.14680634179
 21
625.6810549181172
 31
0.0
  0
LINE
  5
2C8
  8
0
  6
CONTINUOUS
 62
     7
 10
163.14680634179
 20
625.6810549181172
 30
0.0
 11
163.157579105497
 21
625.681061364031
 31
0.0
  0
LINE
  5
2C9
  8
0
  6
CONTINUOUS
 62
     7
 10
163.157579105497
 20
625.681061364031
 30
0.0
 11
163.1683433129722
 21
625.6814957076282
 31
0.0
  0
LINE
  5
2CA
  8
0
  6
CONTINUOUS
 62
     7
 10
163.1683433129722
 20
625.6814957076282
 30
0.0
 11
163.179073444844
 21
625.6823546740559
 31
0.0
  0
LINE
  5
2CB
  8
0
  6
CONTINUOUS
 62
     7
 10
163.179073444844
 20
625.6823546740559
 30
0.0
 11
163.1900391528659
 21
625.683675126143
 31
0.0
  0
LINE
  5
2CC
  8
0
  6
CONTINUOUS
 62
     7
 10
163.1900391528659
 20
625.683675126143
 30
0.0
 11
163.2009518116193
 21
625.6854357310734
 31
0.0
  0
LINE
  5
2CD
  8
0
  6
CONTINUOUS
 62
     7
 10
163.2009518116193
 20
625.6854357310734
 30
0.0
 11
163.2117858391563
 21
625.6876296345248
 31
0.0
  0
LINE
  5
2CE
  8
0
  6
CONTINUOUS
 62
     7
 10
163.2117858391563
 20
625.6876296345248
 30
0.0
 11
163.222515653529
 21
625.6902499821746
 31
0.0
  0
LINE
  5
2CF
  8
0
  6
CONTINUOUS
 62
     7
 10
163.222515653529
 20
625.6902499821746
 30
0.0
 11
163.2365184996835
 21
625.6943618962789
 31
0.0
  0
LINE
  5
2D0
  8
0
  6
CONTINUOUS
 62
     7
 10
163.2365184996835
 20
625.6943618962789
 30
0.0
 11
163.2503071627674
 21
625.6992030381668
 31
0.0
  0
LINE
  5
2D1
  8
0
  6
CONTINUOUS
 62
     7
 10
163.2503071627674
 20
625.6992030381668
 30
0.0
 11
163.2638274966431
 21
625.7047502189731
 31
0.0
  0
LINE
  5
2D2
  8
0
  6
CONTINUOUS
 62
     7
 10
163.2638274966431
 20
625.7047502189731
 30
0.0
 11
163.2770253551732
 21
625.7109802498322
 31
0.0
  0
LINE
  5
2D3
  8
0
  6
CONTINUOUS
 62
     7
 10
138.7772629501505
 20
640.2500000000001
 30
0.0
 11
138.7673429336606
 21
640.249789539636
 31
0.0
  0
LINE
  5
2D4
  8
0
  6
CONTINUOUS
 62
     7
 10
138.7673429336606
 20
640.249789539636
 30
0.0
 11
138.7574318113568
 21
640.2491599937395
 31
0.0
  0
LINE
  5
2D5
  8
0
  6
CONTINUOUS
 62
     7
 10
138.7574318113568
 20
640.2491599937395
 30
0.0
 11
138.7475559004752
 21
640.2481141151031
 31
0.0
  0
LINE
  5
2D6
  8
0
  6
CONTINUOUS
 62
     7
 10
138.7475559004752
 20
640.2481141151031
 30
0.0
 11
138.737741518252
 21
640.2466546565207
 31
0.0
  0
LINE
  5
2D7
  8
0
  6
CONTINUOUS
 62
     7
 10
138.737741518252
 20
640.2466546565207
 30
0.0
 11
138.7277088335882
 21
640.2447203113325
 31
0.0
  0
LINE
  5
2D8
  8
0
  6
CONTINUOUS
 62
     7
 10
138.7277088335882
 20
640.2447203113325
 30
0.0
 11
138.7177597047414
 21
640.2423527721893
 31
0.0
  0
LINE
  5
2D9
  8
0
  6
CONTINUOUS
 62
     7
 10
138.7177597047414
 20
640.2423527721893
 30
0.0
 11
138.7079211246753
 21
640.2395607531945
 31
0.0
  0
LINE
  5
2DA
  8
0
  6
CONTINUOUS
 62
     7
 10
138.7079211246753
 20
640.2395607531945
 30
0.0
 11
138.6982200863534
 21
640.2363529684513
 31
0.0
  0
LINE
  5
2DB
  8
0
  6
CONTINUOUS
 62
     7
 10
138.6982200863534
 20
640.2363529684513
 30
0.0
 11
138.6889414165389
 21
640.2328440216626
 31
0.0
  0
LINE
  5
2DC
  8
0
  6
CONTINUOUS
 62
     7
 10
138.6889414165389
 20
640.2328440216626
 30
0.0
 11
138.6798074346804
 21
640.2289526200119
 31
0.0
  0
LINE
  5
2DD
  8
0
  6
CONTINUOUS
 62
     7
 10
138.6798074346804
 20
640.2289526200119
 30
0.0
 11
138.6708399998391
 21
640.224691040611
 31
0.0
  0
LINE
  5
2DE
  8
0
  6
CONTINUOUS
 62
     7
 10
138.6708399998391
 20
640.224691040611
 30
0.0
 11
138.6620609710764
 21
640.2200715605713
 31
0.0
  0
LINE
  5
2DF
  8
0
  6
CONTINUOUS
 62
     7
 10
138.6620609710764
 20
640.2200715605713
 30
0.0
 11
138.6532424148379
 21
640.2149564919347
 31
0.0
  0
LINE
  5
2E0
  8
0
  6
CONTINUOUS
 62
     7
 10
138.6532424148379
 20
640.2149564919347
 30
0.0
 11
138.6446355732388
 21
640.2094765548104
 31
0.0
  0
LINE
  5
2E1
  8
0
  6
CONTINUOUS
 62
     7
 10
138.6446355732388
 20
640.2094765548104
 30
0.0
 11
138.6362603251441
 21
640.2036484277261
 31
0.0
  0
LINE
  5
2E2
  8
0
  6
CONTINUOUS
 62
     7
 10
138.6362603251441
 20
640.2036484277261
 30
0.0
 11
138.6281365494192
 21
640.1974887892092
 31
0.0
  0
LINE
  5
2E3
  8
0
  6
CONTINUOUS
 62
     7
 10
138.6281365494192
 20
640.1974887892092
 30
0.0
 11
138.6202805178075
 21
640.191013266917
 31
0.0
  0
LINE
  5
2E4
  8
0
  6
CONTINUOUS
 62
     7
 10
138.6202805178075
 20
640.191013266917
 30
0.0
 11
138.6126846855286
 21
640.1842221826804
 31
0.0
  0
LINE
  5
2E5
  8
0
  6
CONTINUOUS
 62
     7
 10
138.6126846855286
 20
640.1842221826804
 30
0.0
 11
138.6053647890305
 21
640.1771342325138
 31
0.0
  0
LINE
  5
2E6
  8
0
  6
CONTINUOUS
 62
     7
 10
138.6053647890305
 20
640.1771342325138
 30
0.0
 11
138.5983365647614
 21
640.1697681124316
 31
0.0
  0
LINE
  5
2E7
  8
0
  6
CONTINUOUS
 62
     7
 10
138.5983365647614
 20
640.1697681124316
 30
0.0
 11
138.5914329716563
 21
640.1619286432515
 31
0.0
  0
LINE
  5
2E8
  8
0
  6
CONTINUOUS
 62
     7
 10
138.5914329716563
 20
640.1619286432515
 30
0.0
 11
138.5848431767709
 21
640.1538129299298
 31
0.0
  0
LINE
  5
2E9
  8
0
  6
CONTINUOUS
 62
     7
 10
138.5848431767709
 20
640.1538129299298
 30
0.0
 11
138.5785800074564
 21
640.1454422979311
 31
0.0
  0
LINE
  5
2EA
  8
0
  6
CONTINUOUS
 62
     7
 10
138.5785800074564
 20
640.1454422979311
 30
0.0
 11
138.5726562910638
 21
640.1368380727203
 31
0.0
  0
LINE
  5
2EB
  8
0
  6
CONTINUOUS
 62
     7
 10
138.5726562910638
 20
640.1368380727203
 30
0.0
 11
138.5669105667352
 21
640.1277356395021
 31
0.0
  0
LINE
  5
2EC
  8
0
  6
CONTINUOUS
 62
     7
 10
138.5669105667352
 20
640.1277356395021
 30
0.0
 11
138.5615297672068
 21
640.118402929506
 31
0.0
  0
LINE
  5
2ED
  8
0
  6
CONTINUOUS
 62
     7
 10
138.5615297672068
 20
640.118402929506
 30
0.0
 11
138.5565238160584
 21
640.1088636805824
 31
0.0
  0
LINE
  5
2EE
  8
0
  6
CONTINUOUS
 62
     7
 10
138.5565238160584
 20
640.1088636805824
 30
0.0
 11
138.5519026368698
 21
640.0991416305816
 31
0.0
  0
LINE
  5
2EF
  8
0
  6
CONTINUOUS
 62
     7
 10
138.5519026368698
 20
640.0991416305816
 30
0.0
 11
138.5475633279108
 21
640.0889848228205
 31
0.0
  0
LINE
  5
2F0
  8
0
  6
CONTINUOUS
 62
     7
 10
138.5475633279108
 20
640.0889848228205
 30
0.0
 11
138.5436317271299
 21
640.0786538806519
 31
0.0
  0
LINE
  5
2F1
  8
0
  6
CONTINUOUS
 62
     7
 10
138.5436317271299
 20
640.0786538806519
 30
0.0
 11
138.5401146894837
 21
640.068174385854
 31
0.0
  0
LINE
  5
2F2
  8
0
  6
CONTINUOUS
 62
     7
 10
138.5401146894837
 20
640.068174385854
 30
0.0
 11
138.5370190699288
 21
640.0575719202045
 31
0.0
  0
LINE
  5
2F3
  8
0
  6
CONTINUOUS
 62
     7
 10
138.5370190699288
 20
640.0575719202045
 30
0.0
 11
138.5335786689241
 21
640.0433891426572
 31
0.0
  0
LINE
  5
2F4
  8
0
  6
CONTINUOUS
 62
     7
 10
138.5335786689241
 20
640.0433891426572
 30
0.0
 11
138.5308768892405
 21
640.0290272391984
 31
0.0
  0
LINE
  5
2F5
  8
0
  6
CONTINUOUS
 62
     7
 10
138.5308768892405
 20
640.0290272391984
 30
0.0
 11
138.5289207218002
 21
640.0145446961913
 31
0.0
  0
LINE
  5
2F6
  8
0
  6
CONTINUOUS
 62
     7
 10
138.5289207218002
 20
640.0145446961913
 30
0.0
 11
138.5277171575255
 21
639.9999999999991
 31
0.0
  0
LINE
  5
2F7
  8
0
  6
CONTINUOUS
 62
     7
 10
171.2772489617629
 20
639.7500000000001
 30
0.0
 11
171.2871689782528
 21
639.7502104603642
 31
0.0
  0
LINE
  5
2F8
  8
0
  6
CONTINUOUS
 62
     7
 10
171.2871689782528
 20
639.7502104603642
 30
0.0
 11
171.2970801005566
 21
639.7508400062608
 31
0.0
  0
LINE
  5
2F9
  8
0
  6
CONTINUOUS
 62
     7
 10
171.2970801005566
 20
639.7508400062608
 30
0.0
 11
171.3069560114382
 21
639.7518858848971
 31
0.0
  0
LINE
  5
2FA
  8
0
  6
CONTINUOUS
 62
     7
 10
171.3069560114382
 20
639.7518858848971
 30
0.0
 11
171.3167703936614
 21
639.7533453434795
 31
0.0
  0
LINE
  5
2FB
  8
0
  6
CONTINUOUS
 62
     7
 10
171.3167703936614
 20
639.7533453434795
 30
0.0
 11
171.3268030783252
 21
639.7552796886678
 31
0.0
  0
LINE
  5
2FC
  8
0
  6
CONTINUOUS
 62
     7
 10
171.3268030783252
 20
639.7552796886678
 30
0.0
 11
171.336752207172
 21
639.7576472278109
 31
0.0
  0
LINE
  5
2FD
  8
0
  6
CONTINUOUS
 62
     7
 10
171.336752207172
 20
639.7576472278109
 30
0.0
 11
171.3465907872381
 21
639.7604392468057
 31
0.0
  0
LINE
  5
2FE
  8
0
  6
CONTINUOUS
 62
     7
 10
171.3465907872381
 20
639.7604392468057
 30
0.0
 11
171.35629182556
 21
639.7636470315489
 31
0.0
  0
LINE
  5
2FF
  8
0
  6
CONTINUOUS
 62
     7
 10
171.35629182556
 20
639.7636470315489
 30
0.0
 11
171.3655704953744
 21
639.7671559783377
 31
0.0
  0
LINE
  5
300
  8
0
  6
CONTINUOUS
 62
     7
 10
171.3655704953744
 20
639.7671559783377
 30
0.0
 11
171.374704477233
 21
639.7710473799883
 31
0.0
  0
LINE
  5
301
  8
0
  6
CONTINUOUS
 62
     7
 10
171.374704477233
 20
639.7710473799883
 30
0.0
 11
171.3836719120742
 21
639.7753089593892
 31
0.0
  0
LINE
  5
302
  8
0
  6
CONTINUOUS
 62
     7
 10
171.3836719120742
 20
639.7753089593892
 30
0.0
 11
171.392450940837
 21
639.7799284394289
 31
0.0
  0
LINE
  5
303
  8
0
  6
CONTINUOUS
 62
     7
 10
171.392450940837
 20
639.7799284394289
 30
0.0
 11
171.4012694970755
 21
639.7850435080655
 31
0.0
  0
LINE
  5
304
  8
0
  6
CONTINUOUS
 62
     7
 10
171.4012694970755
 20
639.7850435080655
 30
0.0
 11
171.4098763386746
 21
639.7905234451898
 31
0.0
  0
LINE
  5
305
  8
0
  6
CONTINUOUS
 62
     7
 10
171.4098763386746
 20
639.7905234451898
 30
0.0
 11
171.4182515867693
 21
639.796351572274
 31
0.0
  0
LINE
  5
306
  8
0
  6
CONTINUOUS
 62
     7
 10
171.4182515867693
 20
639.796351572274
 30
0.0
 11
171.4263753624942
 21
639.8025112107911
 31
0.0
  0
LINE
  5
307
  8
0
  6
CONTINUOUS
 62
     7
 10
171.4263753624942
 20
639.8025112107911
 30
0.0
 11
171.4342313941059
 21
639.8089867330832
 31
0.0
  0
LINE
  5
308
  8
0
  6
CONTINUOUS
 62
     7
 10
171.4342313941059
 20
639.8089867330832
 30
0.0
 11
171.4418272263848
 21
639.8157778173198
 31
0.0
  0
LINE
  5
309
  8
0
  6
CONTINUOUS
 62
     7
 10
171.4418272263848
 20
639.8157778173198
 30
0.0
 11
171.4491471228829
 21
639.8228657674864
 31
0.0
  0
LINE
  5
30A
  8
0
  6
CONTINUOUS
 62
     7
 10
171.4491471228829
 20
639.8228657674864
 30
0.0
 11
171.456175347152
 21
639.8302318875686
 31
0.0
  0
LINE
  5
30B
  8
0
  6
CONTINUOUS
 62
     7
 10
171.456175347152
 20
639.8302318875686
 30
0.0
 11
171.4630789402571
 21
639.8380713567487
 31
0.0
  0
LINE
  5
30C
  8
0
  6
CONTINUOUS
 62
     7
 10
171.4630789402571
 20
639.8380713567487
 30
0.0
 11
171.4696687351425
 21
639.8461870700704
 31
0.0
  0
LINE
  5
30D
  8
0
  6
CONTINUOUS
 62
     7
 10
171.4696687351425
 20
639.8461870700704
 30
0.0
 11
171.475931904457
 21
639.8545577020691
 31
0.0
  0
LINE
  5
30E
  8
0
  6
CONTINUOUS
 62
     7
 10
171.475931904457
 20
639.8545577020691
 30
0.0
 11
171.4818556208496
 21
639.86316192728
 31
0.0
  0
LINE
  5
30F
  8
0
  6
CONTINUOUS
 62
     7
 10
171.4818556208496
 20
639.86316192728
 30
0.0
 11
171.4876013451782
 21
639.872264360498
 31
0.0
  0
LINE
  5
310
  8
0
  6
CONTINUOUS
 62
     7
 10
171.4876013451782
 20
639.872264360498
 30
0.0
 11
171.4929821447066
 21
639.8815970704942
 31
0.0
  0
LINE
  5
311
  8
0
  6
CONTINUOUS
 62
     7
 10
171.4929821447066
 20
639.8815970704942
 30
0.0
 11
171.497988095855
 21
639.8911363194178
 31
0.0
  0
LINE
  5
312
  8
0
  6
CONTINUOUS
 62
     7
 10
171.497988095855
 20
639.8911363194178
 30
0.0
 11
171.5026092750437
 21
639.9008583694186
 31
0.0
  0
LINE
  5
313
  8
0
  6
CONTINUOUS
 62
     7
 10
171.5026092750437
 20
639.9008583694186
 30
0.0
 11
171.5069485840026
 21
639.9110151771797
 31
0.0
  0
LINE
  5
314
  8
0
  6
CONTINUOUS
 62
     7
 10
171.5069485840026
 20
639.9110151771797
 30
0.0
 11
171.5108801847835
 21
639.9213461193482
 31
0.0
  0
LINE
  5
315
  8
0
  6
CONTINUOUS
 62
     7
 10
171.5108801847835
 20
639.9213461193482
 30
0.0
 11
171.5143972224297
 21
639.9318256141462
 31
0.0
  0
LINE
  5
316
  8
0
  6
CONTINUOUS
 62
     7
 10
171.5143972224297
 20
639.9318256141462
 30
0.0
 11
171.5174928419846
 21
639.9424280797957
 31
0.0
  0
LINE
  5
317
  8
0
  6
CONTINUOUS
 62
     7
 10
171.5174928419846
 20
639.9424280797957
 30
0.0
 11
171.5209332429893
 21
639.956610857343
 31
0.0
  0
LINE
  5
318
  8
0
  6
CONTINUOUS
 62
     7
 10
171.5209332429893
 20
639.956610857343
 30
0.0
 11
171.5236350226729
 21
639.9709727608018
 31
0.0
  0
LINE
  5
319
  8
0
  6
CONTINUOUS
 62
     7
 10
171.5236350226729
 20
639.9709727608018
 30
0.0
 11
171.5255911901132
 21
639.985455303809
 31
0.0
  0
LINE
  5
31A
  8
0
  6
CONTINUOUS
 62
     7
 10
171.5255911901132
 20
639.985455303809
 30
0.0
 11
171.5267947543879
 21
640.0000000000011
 31
0.0
  0
LINE
  5
31B
  8
0
  6
CONTINUOUS
 62
     7
 10
163.3687588098059
 20
653.9479067543477
 30
0.0
 11
163.3735365540291
 21
653.9566029708159
 31
0.0
  0
LINE
  5
31C
  8
0
  6
CONTINUOUS
 62
     7
 10
163.3735365540291
 20
653.9566029708159
 30
0.0
 11
163.3779469124416
 21
653.9655010274594
 31
0.0
  0
LINE
  5
31D
  8
0
  6
CONTINUOUS
 62
     7
 10
163.3779469124416
 20
653.9655010274594
 30
0.0
 11
163.3819791104143
 21
653.9745767564865
 31
0.0
  0
LINE
  5
31E
  8
0
  6
CONTINUOUS
 62
     7
 10
163.3819791104143
 20
653.9745767564865
 30
0.0
 11
163.3856223733177
 21
653.9838059901056
 31
0.0
  0
LINE
  5
31F
  8
0
  6
CONTINUOUS
 62
     7
 10
163.3856223733177
 20
653.9838059901056
 30
0.0
 11
163.3889635235768
 21
653.9934617224866
 31
0.0
  0
LINE
  5
320
  8
0
  6
CONTINUOUS
 62
     7
 10
163.3889635235768
 20
653.9934617224866
 30
0.0
 11
163.3918877389577
 21
654.003261690385
 31
0.0
  0
LINE
  5
321
  8
0
  6
CONTINUOUS
 62
     7
 10
163.3918877389577
 20
654.003261690385
 30
0.0
 11
163.3943890696135
 21
654.0131781601568
 31
0.0
  0
LINE
  5
322
  8
0
  6
CONTINUOUS
 62
     7
 10
163.3943890696135
 20
654.0131781601568
 30
0.0
 11
163.396461565697
 21
654.0231833981583
 31
0.0
  0
LINE
  5
323
  8
0
  6
CONTINUOUS
 62
     7
 10
163.396461565697
 20
654.0231833981583
 30
0.0
 11
163.3980620635446
 21
654.0329734353253
 31
0.0
  0
LINE
  5
324
  8
0
  6
CONTINUOUS
 62
     7
 10
163.3980620635446
 20
654.0329734353253
 30
0.0
 11
163.3992590017881
 21
654.0428293964778
 31
0.0
  0
LINE
  5
325
  8
0
  6
CONTINUOUS
 62
     7
 10
163.3992590017881
 20
654.0428293964778
 30
0.0
 11
163.4000520831873
 21
654.0527262125576
 31
0.0
  0
LINE
  5
326
  8
0
  6
CONTINUOUS
 62
     7
 10
163.4000520831873
 20
654.0527262125576
 30
0.0
 11
163.400441010502
 21
654.0626388145065
 31
0.0
  0
LINE
  5
327
  8
0
  6
CONTINUOUS
 62
     7
 10
163.400441010502
 20
654.0626388145065
 30
0.0
 11
163.4004205092399
 21
654.0728334425521
 31
0.0
  0
LINE
  5
328
  8
0
  6
CONTINUOUS
 62
     7
 10
163.4004205092399
 20
654.0728334425521
 30
0.0
 11
163.3999781652787
 21
654.0830271545855
 31
0.0
  0
LINE
  5
329
  8
0
  6
CONTINUOUS
 62
     7
 10
163.3999781652787
 20
654.0830271545855
 30
0.0
 11
163.3991184832144
 21
654.0931943957405
 31
0.0
  0
LINE
  5
32A
  8
0
  6
CONTINUOUS
 62
     7
 10
163.3991184832144
 20
654.0931943957405
 30
0.0
 11
163.3978459676431
 21
654.1033096111514
 31
0.0
  0
LINE
  5
32B
  8
0
  6
CONTINUOUS
 62
     7
 10
163.3978459676431
 20
654.1033096111514
 30
0.0
 11
163.3961660166412
 21
654.1133508952461
 31
0.0
  0
LINE
  5
32C
  8
0
  6
CONTINUOUS
 62
     7
 10
163.3961660166412
 20
654.1133508952461
 30
0.0
 11
163.3940826813126
 21
654.1233246210809
 31
0.0
  0
LINE
  5
32D
  8
0
  6
CONTINUOUS
 62
     7
 10
163.3940826813126
 20
654.1233246210809
 30
0.0
 11
163.3916042846566
 21
654.1332078124847
 31
0.0
  0
LINE
  5
32E
  8
0
  6
CONTINUOUS
 62
     7
 10
163.3916042846566
 20
654.1332078124847
 30
0.0
 11
163.3887391496725
 21
654.1429774932861
 31
0.0
  0
LINE
  5
32F
  8
0
  6
CONTINUOUS
 62
     7
 10
163.3887391496725
 20
654.1429774932861
 30
0.0
 11
163.3854017667629
 21
654.1528759148828
 31
0.0
  0
LINE
  5
330
  8
0
  6
CONTINUOUS
 62
     7
 10
163.3854017667629
 20
654.1528759148828
 30
0.0
 11
163.3816682502992
 21
654.1626407013201
 31
0.0
  0
LINE
  5
331
  8
0
  6
CONTINUOUS
 62
     7
 10
163.3816682502992
 20
654.1626407013201
 30
0.0
 11
163.3775506549999
 21
654.1722500810539
 31
0.0
  0
LINE
  5
332
  8
0
  6
CONTINUOUS
 62
     7
 10
163.3775506549999
 20
654.1722500810539
 30
0.0
 11
163.3730610355837
 21
654.1816822825402
 31
0.0
  0
LINE
  5
333
  8
0
  6
CONTINUOUS
 62
     7
 10
163.3730610355837
 20
654.1816822825402
 30
0.0
 11
163.3680509593449
 21
654.1912094423809
 31
0.0
  0
LINE
  5
334
  8
0
  6
CONTINUOUS
 62
     7
 10
163.3680509593449
 20
654.1912094423809
 30
0.0
 11
163.3626589951663
 21
654.2005357064633
 31
0.0
  0
LINE
  5
335
  8
0
  6
CONTINUOUS
 62
     7
 10
163.3626589951663
 20
654.2005357064633
 30
0.0
 11
163.3569007388395
 21
654.2096406117897
 31
0.0
  0
LINE
  5
336
  8
0
  6
CONTINUOUS
 62
     7
 10
163.3569007388395
 20
654.2096406117897
 30
0.0
 11
163.3507917861563
 21
654.218503695363
 31
0.0
  0
LINE
  5
337
  8
0
  6
CONTINUOUS
 62
     7
 10
163.3507917861563
 20
654.218503695363
 30
0.0
 11
163.3441653870934
 21
654.2273400510368
 31
0.0
  0
LINE
  5
338
  8
0
  6
CONTINUOUS
 62
     7
 10
163.3441653870934
 20
654.2273400510368
 30
0.0
 11
163.3371843291209
 21
654.2359103882749
 31
0.0
  0
LINE
  5
339
  8
0
  6
CONTINUOUS
 62
     7
 10
163.3371843291209
 20
654.2359103882749
 30
0.0
 11
163.3298673392301
 21
654.2441959796215
 31
0.0
  0
LINE
  5
33A
  8
0
  6
CONTINUOUS
 62
     7
 10
163.3298673392301
 20
654.2441959796215
 30
0.0
 11
163.3222331444123
 21
654.2521780976213
 31
0.0
  0
LINE
  5
33B
  8
0
  6
CONTINUOUS
 62
     7
 10
163.3222331444123
 20
654.2521780976213
 30
0.0
 11
163.3116706992625
 21
654.2622489610642
 31
0.0
  0
LINE
  5
33C
  8
0
  6
CONTINUOUS
 62
     7
 10
163.3116706992625
 20
654.2622489610642
 30
0.0
 11
163.3005838158623
 21
654.2717697226351
 31
0.0
  0
LINE
  5
33D
  8
0
  6
CONTINUOUS
 62
     7
 10
163.3005838158623
 20
654.2717697226351
 30
0.0
 11
163.2890196494268
 21
654.280705084836
 31
0.0
  0
LINE
  5
33E
  8
0
  6
CONTINUOUS
 62
     7
 10
163.2890196494268
 20
654.280705084836
 30
0.0
 11
163.2770253551714
 21
654.289019750169
 31
0.0
  0
ARC
  5
33F
  8
0
  6
CONTINUOUS
 62
     7
 10
155.0272559559567
 20
640.0000000000001
 30
0.0
 40
20.5
 50
180.771879582475
 51
179.228120417525
  0
LINE
  5
340
  8
0
  6
CONTINUOUS
 62
     7
 10
134.5291162052093
 20
640.276164369223
 30
0.0
 11
136.5290650017895
 21
640.258711080487
 31
0.0
  0
LINE
  5
341
  8
0
  6
CONTINUOUS
 62
     7
 10
134.5291162052093
 20
639.7238356307771
 30
0.0
 11
136.5290650017895
 21
639.7412889195132
 31
0.0
  0
ARC
  5
342
  8
0
  6
CONTINUOUS
 62
     7
 10
74.97274404404328
 20
640.0000000000001
 30
0.0
 40
20.5
 50
0.7718795824749806
 51
180.0
  0
ARC
  5
343
  8
0
  6
CONTINUOUS
 62
   253
 10
74.97274404404328
 20
640.0000000000001
 30
0.0
 40
19.5
 50
0.785822238002032
 51
359.214177761998
  0
LINE
  5
344
  8
0
  6
CONTINUOUS
 62
     7
 10
95.4708837947907
 20
639.7238356307771
 30
0.0
 11
94.47091003626772
 21
639.732562269562
 31
0.0
  0
ARC
  5
345
  8
0
  6
CONTINUOUS
 62
     7
 10
74.97274404404328
 20
640.0000000000001
 30
0.0
 40
20.5
 50
180.0
 51
359.2281204175251
  0
LINE
  5
346
  8
0
  6
CONTINUOUS
 62
     7
 10
95.4708837947907
 20
640.276164369223
 30
0.0
 11
94.47091003626772
 21
640.2674377304382
 31
0.0
  0
CIRCLE
  5
347
  8
0
  6
CONTINUOUS
 62
   253
 10
74.97274404404328
 20
640.0000000000001
 30
0.0
 40
16.99307943002465
  0
LINE
  5
348
  8
0
  6
CONTINUOUS
 62
     7
 10
92.47274404404352
 20
639.7500000000001
 30
0.0
 11
92.47274404404313
 21
640.2500000000001
 31
0.0
  0
ARC
  5
349
  8
0
  6
CONTINUOUS
 62
   253
 10
74.97274404404328
 20
640.0000000000001
 30
0.0
 40
17.79304896847599
 50
0.8132424520979386
 51
359.1867575479021
  0
LINE
  5
34A
  8
0
  6
CONTINUOUS
 62
     7
 10
92.76400072407513
 20
639.7474582414603
 30
0.0
 11
92.47274404404352
 21
639.7500000000001
 31
0.0
  0
LINE
  5
34B
  8
0
  6
CONTINUOUS
 62
     7
 10
92.76400072407513
 20
640.2525417585399
 30
0.0
 11
92.47274404404313
 21
640.2500000000001
 31
0.0
  0
LINE
  5
34C
  8
0
  6
CONTINUOUS
 62
     7
 10
92.76400072407513
 20
639.7474582414603
 30
0.0
 11
94.47091003626772
 21
639.732562269562
 31
0.0
  0
LINE
  5
34D
  8
0
  6
CONTINUOUS
 62
     7
 10
92.76400072407513
 20
640.2525417585399
 30
0.0
 11
94.47091003626772
 21
640.2674377304382
 31
0.0
  0
CIRCLE
  5
34E
  8
0
  6
CONTINUOUS
 62
   253
 10
74.97274404404328
 20
640.0000000000001
 30
0.0
 40
16.96768774257773
  0
CIRCLE
  5
34F
  8
0
  6
CONTINUOUS
 62
   253
 10
74.97274404404328
 20
640.0000000000001
 30
0.0
 40
16.66769916565847
  0
LINE
  5
350
  8
0
  6
CONTINUOUS
 62
     7
 10
83.22251344325977
 20
654.289019750168
 30
0.0
 11
83.23260144162039
 21
654.2820885246609
 31
0.0
  0
LINE
  5
351
  8
0
  6
CONTINUOUS
 62
     7
 10
83.23260144162039
 20
654.2820885246609
 30
0.0
 11
83.24239314121209
 21
654.2747156348403
 31
0.0
  0
LINE
  5
352
  8
0
  6
CONTINUOUS
 62
     7
 10
83.24239314121209
 20
654.2747156348403
 30
0.0
 11
83.25186077200124
 21
654.2669220350866
 31
0.0
  0
LINE
  5
353
  8
0
  6
CONTINUOUS
 62
     7
 10
83.25186077200124
 20
654.2669220350866
 30
0.0
 11
83.26097656395424
 21
654.2587286797805
 31
0.0
  0
LINE
  5
354
  8
0
  6
CONTINUOUS
 62
     7
 10
83.26097656395424
 20
654.2587286797805
 30
0.0
 11
83.26971274703749
 21
654.2501565233024
 31
0.0
  0
LINE
  5
355
  8
0
  6
CONTINUOUS
 62
     7
 10
83.26971274703749
 20
654.2501565233024
 30
0.0
 11
83.27771261759607
 21
654.241598765766
 31
0.0
  0
LINE
  5
356
  8
0
  6
CONTINUOUS
 62
     7
 10
83.27771261759607
 20
654.241598765766
 30
0.0
 11
83.28535125141022
 21
654.2327031969118
 31
0.0
  0
LINE
  5
357
  8
0
  6
CONTINUOUS
 62
     7
 10
83.28535125141022
 20
654.2327031969118
 30
0.0
 11
83.29260649226211
 21
654.2234925268015
 31
0.0
  0
LINE
  5
358
  8
0
  6
CONTINUOUS
 62
     7
 10
83.29260649226211
 20
654.2234925268015
 30
0.0
 11
83.2994561839339
 21
654.2139894654966
 31
0.0
  0
LINE
  5
359
  8
0
  6
CONTINUOUS
 62
     7
 10
83.2994561839339
 20
654.2139894654966
 30
0.0
 11
83.30608264044614
 21
654.203892672559
 31
0.0
  0
LINE
  5
35A
  8
0
  6
CONTINUOUS
 62
     7
 10
83.30608264044614
 20
654.203892672559
 30
0.0
 11
83.31225903433163
 21
654.193500338843
 31
0.0
  0
LINE
  5
35B
  8
0
  6
CONTINUOUS
 62
     7
 10
83.31225903433163
 20
654.193500338843
 30
0.0
 11
83.31796390421933
 21
654.1828422516929
 31
0.0
  0
LINE
  5
35C
  8
0
  6
CONTINUOUS
 62
     7
 10
83.31796390421933
 20
654.1828422516929
 30
0.0
 11
83.32317578873815
 21
654.1719481984536
 31
0.0
  0
LINE
  5
35D
  8
0
  6
CONTINUOUS
 62
     7
 10
83.32317578873815
 20
654.1719481984536
 30
0.0
 11
83.32760698324374
 21
654.1615220752757
 31
0.0
  0
LINE
  5
35E
  8
0
  6
CONTINUOUS
 62
     7
 10
83.32760698324374
 20
654.1615220752757
 30
0.0
 11
83.33158857190904
 21
654.1509047245899
 31
0.0
  0
LINE
  5
35F
  8
0
  6
CONTINUOUS
 62
     7
 10
83.33158857190904
 20
654.1509047245899
 30
0.0
 11
83.33510623240188
 21
654.1401251087774
 31
0.0
  0
LINE
  5
360
  8
0
  6
CONTINUOUS
 62
     7
 10
83.33510623240188
 20
654.1401251087774
 30
0.0
 11
83.33814564239003
 21
654.1292121902196
 31
0.0
  0
LINE
  5
361
  8
0
  6
CONTINUOUS
 62
     7
 10
83.33814564239003
 20
654.1292121902196
 30
0.0
 11
83.340773473242
 21
654.1178116201143
 31
0.0
  0
LINE
  5
362
  8
0
  6
CONTINUOUS
 62
     7
 10
83.340773473242
 20
654.1178116201143
 30
0.0
 11
83.34287663139831
 21
654.1062899490854
 31
0.0
  0
LINE
  5
363
  8
0
  6
CONTINUOUS
 62
     7
 10
83.34287663139831
 20
654.1062899490854
 30
0.0
 11
83.34444477574232
 21
654.0946837374919
 31
0.0
  0
LINE
  5
364
  8
0
  6
CONTINUOUS
 62
     7
 10
83.34444477574232
 20
654.0946837374919
 30
0.0
 11
83.34546756515729
 21
654.0830295456926
 31
0.0
  0
LINE
  5
365
  8
0
  6
CONTINUOUS
 62
     7
 10
83.34546756515729
 20
654.0830295456926
 30
0.0
 11
83.34591824081183
 21
654.0723796179203
 31
0.0
  0
LINE
  5
366
  8
0
  6
CONTINUOUS
 62
     7
 10
83.34591824081183
 20
654.0723796179203
 30
0.0
 11
83.34590798145247
 21
654.0617100813607
 31
0.0
  0
LINE
  5
367
  8
0
  6
CONTINUOUS
 62
     7
 10
83.34590798145247
 20
654.0617100813607
 30
0.0
 11
83.34543443081493
 21
654.051051297862
 31
0.0
  0
LINE
  5
368
  8
0
  6
CONTINUOUS
 62
     7
 10
83.34543443081493
 20
654.051051297862
 30
0.0
 11
83.34449523263493
 21
654.0404336292722
 31
0.0
  0
LINE
  5
369
  8
0
  6
CONTINUOUS
 62
     7
 10
83.34449523263493
 20
654.0404336292722
 30
0.0
 11
83.3430327153038
 21
654.029523769447
 31
0.0
  0
LINE
  5
36A
  8
0
  6
CONTINUOUS
 62
     7
 10
83.3430327153038
 20
654.029523769447
 30
0.0
 11
83.34107022663368
 21
654.018680837772
 31
0.0
  0
LINE
  5
36B
  8
0
  6
CONTINUOUS
 62
     7
 10
83.34107022663368
 20
654.018680837772
 30
0.0
 11
83.33861236548002
 21
654.0079395690883
 31
0.0
  0
LINE
  5
36C
  8
0
  6
CONTINUOUS
 62
     7
 10
83.33861236548002
 20
654.0079395690883
 30
0.0
 11
83.33566373069836
 21
653.9973346982373
 31
0.0
  0
LINE
  5
36D
  8
0
  6
CONTINUOUS
 62
     7
 10
83.33566373069836
 20
653.9973346982373
 30
0.0
 11
83.3322968683432
 21
653.987088740822
 31
0.0
  0
LINE
  5
36E
  8
0
  6
CONTINUOUS
 62
     7
 10
83.3322968683432
 20
653.987088740822
 30
0.0
 11
83.32845910624005
 21
653.9769915124637
 31
0.0
  0
LINE
  5
36F
  8
0
  6
CONTINUOUS
 62
     7
 10
83.32845910624005
 20
653.9769915124637
 30
0.0
 11
83.32416309203407
 21
653.967074468424
 31
0.0
  0
LINE
  5
370
  8
0
  6
CONTINUOUS
 62
     7
 10
83.32416309203407
 20
653.967074468424
 30
0.0
 11
83.31942147337043
 21
653.9573690639647
 31
0.0
  0
LINE
  5
371
  8
0
  6
CONTINUOUS
 62
     7
 10
83.31942147337043
 20
653.9573690639647
 30
0.0
 11
83.31424689789249
 21
653.9479067543477
 31
0.0
  0
LINE
  5
372
  8
0
  6
CONTINUOUS
 62
     7
 10
82.88123419600026
 20
654.1979067543477
 30
0.0
 11
82.88637646826695
 21
654.2063925104519
 31
0.0
  0
LINE
  5
373
  8
0
  6
CONTINUOUS
 62
     7
 10
82.88637646826695
 20
654.2063925104519
 30
0.0
 11
82.89187723215827
 21
654.2146610211987
 31
0.0
  0
LINE
  5
374
  8
0
  6
CONTINUOUS
 62
     7
 10
82.89187723215827
 20
654.2146610211987
 30
0.0
 11
82.89772094506728
 21
654.2226908715896
 31
0.0
  0
LINE
  5
375
  8
0
  6
CONTINUOUS
 62
     7
 10
82.89772094506728
 20
654.2226908715896
 30
0.0
 11
82.90389206438705
 21
654.2304606466262
 31
0.0
  0
LINE
  5
376
  8
0
  6
CONTINUOUS
 62
     7
 10
82.90389206438705
 20
654.2304606466262
 30
0.0
 11
82.91058359879169
 21
654.238182033819
 31
0.0
  0
LINE
  5
377
  8
0
  6
CONTINUOUS
 62
     7
 10
82.91058359879169
 20
654.238182033819
 30
0.0
 11
82.91760851225752
 21
654.2456144625742
 31
0.0
  0
LINE
  5
378
  8
0
  6
CONTINUOUS
 62
     7
 10
82.91760851225752
 20
654.2456144625742
 30
0.0
 11
82.92494576166791
 21
654.2527389133512
 31
0.0
  0
LINE
  5
379
  8
0
  6
CONTINUOUS
 62
     7
 10
82.92494576166791
 20
654.2527389133512
 30
0.0
 11
82.93257430390624
 21
654.2595363666095
 31
0.0
  0
LINE
  5
37A
  8
0
  6
CONTINUOUS
 62
     7
 10
82.93257430390624
 20
654.2595363666095
 30
0.0
 11
82.94025247587317
 21
654.2658174569877
 31
0.0
  0
LINE
  5
37B
  8
0
  6
CONTINUOUS
 62
     7
 10
82.94025247587317
 20
654.2658174569877
 30
0.0
 11
82.94818951948821
 21
654.2717820164896
 31
0.0
  0
LINE
  5
37C
  8
0
  6
CONTINUOUS
 62
     7
 10
82.94818951948821
 20
654.2717820164896
 30
0.0
 11
82.95636387293027
 21
654.2774172531684
 31
0.0
  0
LINE
  5
37D
  8
0
  6
CONTINUOUS
 62
     7
 10
82.95636387293027
 20
654.2774172531684
 30
0.0
 11
82.96475397437823
 21
654.2827103750777
 31
0.0
  0
LINE
  5
37E
  8
0
  6
CONTINUOUS
 62
     7
 10
82.96475397437823
 20
654.2827103750777
 30
0.0
 11
82.97359303187892
 21
654.2877899344867
 31
0.0
  0
LINE
  5
37F
  8
0
  6
CONTINUOUS
 62
     7
 10
82.97359303187892
 20
654.2877899344867
 30
0.0
 11
82.98264221743926
 21
654.2925037093958
 31
0.0
  0
LINE
  5
380
  8
0
  6
CONTINUOUS
 62
     7
 10
82.98264221743926
 20
654.2925037093958
 30
0.0
 11
82.99187714759812
 21
654.2968428234666
 31
0.0
  0
LINE
  5
381
  8
0
  6
CONTINUOUS
 62
     7
 10
82.99187714759812
 20
654.2968428234666
 30
0.0
 11
83.00127343889437
 21
654.3007984003605
 31
0.0
  0
LINE
  5
382
  8
0
  6
CONTINUOUS
 62
     7
 10
83.00127343889437
 20
654.3007984003605
 30
0.0
 11
83.01080942150796
 21
654.3043641621631
 31
0.0
  0
LINE
  5
383
  8
0
  6
CONTINUOUS
 62
     7
 10
83.01080942150796
 20
654.3043641621631
 30
0.0
 11
83.02048858911552
 21
654.3075468037613
 31
0.0
  0
LINE
  5
384
  8
0
  6
CONTINUOUS
 62
     7
 10
83.02048858911552
 20
654.3075468037613
 30
0.0
 11
83.03028688226959
 21
654.3103420449984
 31
0.0
  0
LINE
  5
385
  8
0
  6
CONTINUOUS
 62
     7
 10
83.03028688226959
 20
654.3103420449984
 30
0.0
 11
83.04018024152269
 21
654.3127456057177
 31
0.0
  0
LINE
  5
386
  8
0
  6
CONTINUOUS
 62
     7
 10
83.04018024152269
 20
654.3127456057177
 30
0.0
 11
83.05042121753749
 21
654.314804558134
 31
0.0
  0
LINE
  5
387
  8
0
  6
CONTINUOUS
 62
     7
 10
83.05042121753749
 20
654.314804558134
 30
0.0
 11
83.06074452888657
 21
654.3164536312497
 31
0.0
  0
LINE
  5
388
  8
0
  6
CONTINUOUS
 62
     7
 10
83.06074452888657
 20
654.3164536312497
 30
0.0
 11
83.07112529350037
 21
654.3176923789849
 31
0.0
  0
LINE
  5
389
  8
0
  6
CONTINUOUS
 62
     7
 10
83.07112529350037
 20
654.3176923789849
 30
0.0
 11
83.0815386293092
 21
654.3185203552604
 31
0.0
  0
LINE
  5
38A
  8
0
  6
CONTINUOUS
 62
     7
 10
83.0815386293092
 20
654.3185203552604
 30
0.0
 11
83.09229442987655
 21
654.318945081883
 31
0.0
  0
LINE
  5
38B
  8
0
  6
CONTINUOUS
 62
     7
 10
83.09229442987655
 20
654.318945081883
 30
0.0
 11
83.10306719358357
 21
654.3189386359692
 31
0.0
  0
LINE
  5
38C
  8
0
  6
CONTINUOUS
 62
     7
 10
83.10306719358357
 20
654.3189386359692
 30
0.0
 11
83.11383140105875
 21
654.318504292372
 31
0.0
  0
LINE
  5
38D
  8
0
  6
CONTINUOUS
 62
     7
 10
83.11383140105875
 20
654.318504292372
 30
0.0
 11
83.12456153293057
 21
654.3176453259443
 31
0.0
  0
LINE
  5
38E
  8
0
  6
CONTINUOUS
 62
     7
 10
83.12456153293057
 20
654.3176453259443
 30
0.0
 11
83.13552724095251
 21
654.3163248738572
 31
0.0
  0
LINE
  5
38F
  8
0
  6
CONTINUOUS
 62
     7
 10
83.13552724095251
 20
654.3163248738572
 30
0.0
 11
83.14643989970591
 21
654.3145642689267
 31
0.0
  0
LINE
  5
390
  8
0
  6
CONTINUOUS
 62
     7
 10
83.14643989970591
 20
654.3145642689267
 30
0.0
 11
83.15727392724288
 21
654.3123703654754
 31
0.0
  0
LINE
  5
391
  8
0
  6
CONTINUOUS
 62
     7
 10
83.15727392724288
 20
654.3123703654754
 30
0.0
 11
83.16800374161554
 21
654.3097500178256
 31
0.0
  0
LINE
  5
392
  8
0
  6
CONTINUOUS
 62
     7
 10
83.16800374161554
 20
654.3097500178256
 30
0.0
 11
83.18200658777012
 21
654.3056381037213
 31
0.0
  0
LINE
  5
393
  8
0
  6
CONTINUOUS
 62
     7
 10
83.18200658777012
 20
654.3056381037213
 30
0.0
 11
83.19579525085396
 21
654.3007969618334
 31
0.0
  0
LINE
  5
394
  8
0
  6
CONTINUOUS
 62
     7
 10
83.19579525085396
 20
654.3007969618334
 30
0.0
 11
83.20931558472965
 21
654.2952497810271
 31
0.0
  0
LINE
  5
395
  8
0
  6
CONTINUOUS
 62
     7
 10
83.20931558472965
 20
654.2952497810271
 30
0.0
 11
83.22251344325977
 21
654.289019750168
 31
0.0
  0
LINE
  5
396
  8
0
  6
CONTINUOUS
 62
     7
 10
66.72297464482857
 20
654.289019750169
 30
0.0
 11
66.73402126137736
 21
654.294290600269
 31
0.0
  0
LINE
  5
397
  8
0
  6
CONTINUOUS
 62
     7
 10
66.73402126137736
 20
654.294290600269
 30
0.0
 11
66.74530222105717
 21
654.2990840159515
 31
0.0
  0
LINE
  5
398
  8
0
  6
CONTINUOUS
 62
     7
 10
66.74530222105717
 20
654.2990840159515
 30
0.0
 11
66.75678549182534
 21
654.3033864248516
 31
0.0
  0
LINE
  5
399
  8
0
  6
CONTINUOUS
 62
     7
 10
66.75678549182534
 20
654.3033864248516
 30
0.0
 11
66.7684390416392
 21
654.3071842546055
 31
0.0
  0
LINE
  5
39A
  8
0
  6
CONTINUOUS
 62
     7
 10
66.7684390416392
 20
654.3071842546055
 30
0.0
 11
66.78023083845608
 21
654.3104639328486
 31
0.0
  0
LINE
  5
39B
  8
0
  6
CONTINUOUS
 62
     7
 10
66.78023083845608
 20
654.3104639328486
 30
0.0
 11
66.7916420091614
 21
654.3131131452111
 31
0.0
  0
LINE
  5
39C
  8
0
  6
CONTINUOUS
 62
     7
 10
66.7916420091614
 20
654.3131131452111
 30
0.0
 11
66.8031651146773
 21
654.3152806117173
 31
0.0
  0
LINE
  5
39D
  8
0
  6
CONTINUOUS
 62
     7
 10
66.8031651146773
 20
654.3152806117173
 30
0.0
 11
66.81476940940462
 21
654.3169584995505
 31
0.0
  0
LINE
  5
39E
  8
0
  6
CONTINUOUS
 62
     7
 10
66.81476940940462
 20
654.3169584995505
 30
0.0
 11
66.8264241477442
 21
654.3181389758939
 31
0.0
  0
LINE
  5
39F
  8
0
  6
CONTINUOUS
 62
     7
 10
66.8264241477442
 20
654.3181389758939
 30
0.0
 11
66.83848145518101
 21
654.3188292591018
 31
0.0
  0
LINE
  5
3A0
  8
0
  6
CONTINUOUS
 62
     7
 10
66.83848145518101
 20
654.3188292591018
 30
0.0
 11
66.85056967712646
 21
654.3189820062523
 31
0.0
  0
LINE
  5
3A1
  8
0
  6
CONTINUOUS
 62
     7
 10
66.85056967712646
 20
654.3189820062523
 30
0.0
 11
66.86265228629794
 21
654.3185935249255
 31
0.0
  0
LINE
  5
3A2
  8
0
  6
CONTINUOUS
 62
     7
 10
66.86265228629794
 20
654.3185935249255
 30
0.0
 11
66.87469275541288
 21
654.3176601227007
 31
0.0
  0
LINE
  5
3A3
  8
0
  6
CONTINUOUS
 62
     7
 10
66.87469275541288
 20
654.3176601227007
 30
0.0
 11
66.88593764020074
 21
654.3162845881226
 31
0.0
  0
LINE
  5
3A4
  8
0
  6
CONTINUOUS
 62
     7
 10
66.88593764020074
 20
654.3162845881226
 30
0.0
 11
66.89712332994824
 21
654.3144240697113
 31
0.0
  0
LINE
  5
3A5
  8
0
  6
CONTINUOUS
 62
     7
 10
66.89712332994824
 20
654.3144240697113
 30
0.0
 11
66.9082175813313
 21
654.3120806451536
 31
0.0
  0
LINE
  5
3A6
  8
0
  6
CONTINUOUS
 62
     7
 10
66.9082175813313
 20
654.3120806451536
 30
0.0
 11
66.91918815102575
 21
654.3092563921371
 31
0.0
  0
LINE
  5
3A7
  8
0
  6
CONTINUOUS
 62
     7
 10
66.91918815102575
 20
654.3092563921371
 30
0.0
 11
66.93037524978065
 21
654.3058318753591
 31
0.0
  0
LINE
  5
3A8
  8
0
  6
CONTINUOUS
 62
     7
 10
66.93037524978065
 20
654.3058318753591
 30
0.0
 11
66.94140488866387
 21
654.3018924282362
 31
0.0
  0
LINE
  5
3A9
  8
0
  6
CONTINUOUS
 62
     7
 10
66.94140488866387
 20
654.3018924282362
 30
0.0
 11
66.95224023491754
 21
654.2974473752781
 31
0.0
  0
LINE
  5
3AA
  8
0
  6
CONTINUOUS
 62
     7
 10
66.95224023491754
 20
654.2974473752781
 30
0.0
 11
66.96284445578374
 21
654.2925060409947
 31
0.0
  0
LINE
  5
3AB
  8
0
  6
CONTINUOUS
 62
     7
 10
66.96284445578374
 20
654.2925060409947
 30
0.0
 11
66.97229290161033
 21
654.287571373674
 31
0.0
  0
LINE
  5
3AC
  8
0
  6
CONTINUOUS
 62
     7
 10
66.97229290161033
 20
654.287571373674
 30
0.0
 11
66.98152786163783
 21
654.2822277205286
 31
0.0
  0
LINE
  5
3AD
  8
0
  6
CONTINUOUS
 62
     7
 10
66.98152786163783
 20
654.2822277205286
 30
0.0
 11
66.9905218636024
 21
654.2764882218971
 31
0.0
  0
LINE
  5
3AE
  8
0
  6
CONTINUOUS
 62
     7
 10
66.9905218636024
 20
654.2764882218971
 30
0.0
 11
66.99924743524014
 21
654.270366018119
 31
0.0
  0
LINE
  5
3AF
  8
0
  6
CONTINUOUS
 62
     7
 10
66.99924743524014
 20
654.270366018119
 30
0.0
 11
67.00796439233497
 21
654.2636445110443
 31
0.0
  0
LINE
  5
3B0
  8
0
  6
CONTINUOUS
 62
     7
 10
67.00796439233497
 20
654.2636445110443
 30
0.0
 11
67.01637340228193
 21
654.2565234801637
 31
0.0
  0
LINE
  5
3B1
  8
0
  6
CONTINUOUS
 62
     7
 10
67.01637340228193
 20
654.2565234801637
 30
0.0
 11
67.02444668325397
 21
654.2490242756239
 31
0.0
  0
LINE
  5
3B2
  8
0
  6
CONTINUOUS
 62
     7
 10
67.02444668325397
 20
654.2490242756239
 30
0.0
 11
67.03215645342402
 21
654.241168247571
 31
0.0
  0
LINE
  5
3B3
  8
0
  6
CONTINUOUS
 62
     7
 10
67.03215645342402
 20
654.241168247571
 30
0.0
 11
67.03934628165423
 21
654.2331294805326
 31
0.0
  0
LINE
  5
3B4
  8
0
  6
CONTINUOUS
 62
     7
 10
67.03934628165423
 20
654.2331294805326
 30
0.0
 11
67.04617185686874
 21
654.2247572668786
 31
0.0
  0
LINE
  5
3B5
  8
0
  6
CONTINUOUS
 62
     7
 10
67.04617185686874
 20
654.2247572668786
 30
0.0
 11
67.05261226183451
 21
654.2160782874213
 31
0.0
  0
LINE
  5
3B6
  8
0
  6
CONTINUOUS
 62
     7
 10
67.05261226183451
 20
654.2160782874213
 30
0.0
 11
67.05864657931849
 21
654.2071192229739
 31
0.0
  0
LINE
  5
3B7
  8
0
  6
CONTINUOUS
 62
     7
 10
67.05864657931849
 20
654.2071192229739
 30
0.0
 11
67.06425389208626
 21
654.1979067543477
 31
0.0
  0
LINE
  5
3B8
  8
0
  6
CONTINUOUS
 62
     7
 10
66.63124119019405
 20
653.9479067543477
 30
0.0
 11
66.62646344597088
 21
653.9566029708159
 31
0.0
  0
LINE
  5
3B9
  8
0
  6
CONTINUOUS
 62
     7
 10
66.62646344597088
 20
653.9566029708159
 30
0.0
 11
66.62205308755833
 21
653.9655010274594
 31
0.0
  0
LINE
  5
3BA
  8
0
  6
CONTINUOUS
 62
     7
 10
66.62205308755833
 20
653.9655010274594
 30
0.0
 11
66.61802088958571
 21
653.9745767564865
 31
0.0
  0
LINE
  5
3BB
  8
0
  6
CONTINUOUS
 62
     7
 10
66.61802088958571
 20
653.9745767564865
 30
0.0
 11
66.6143776266823
 21
653.9838059901056
 31
0.0
  0
LINE
  5
3BC
  8
0
  6
CONTINUOUS
 62
     7
 10
66.6143776266823
 20
653.9838059901056
 30
0.0
 11
66.61103647642314
 21
653.9934617224866
 31
0.0
  0
LINE
  5
3BD
  8
0
  6
CONTINUOUS
 62
     7
 10
66.61103647642314
 20
653.9934617224866
 30
0.0
 11
66.60811226104222
 21
654.003261690385
 31
0.0
  0
LINE
  5
3BE
  8
0
  6
CONTINUOUS
 62
     7
 10
66.60811226104222
 20
654.003261690385
 30
0.0
 11
66.60561093038652
 21
654.0131781601568
 31
0.0
  0
LINE
  5
3BF
  8
0
  6
CONTINUOUS
 62
     7
 10
66.60561093038652
 20
654.0131781601568
 30
0.0
 11
66.60353843430295
 21
654.0231833981583
 31
0.0
  0
LINE
  5
3C0
  8
0
  6
CONTINUOUS
 62
     7
 10
66.60353843430295
 20
654.0231833981583
 30
0.0
 11
66.60193793645539
 21
654.0329734353253
 31
0.0
  0
LINE
  5
3C1
  8
0
  6
CONTINUOUS
 62
     7
 10
66.60193793645539
 20
654.0329734353253
 30
0.0
 11
66.60074099821192
 21
654.0428293964778
 31
0.0
  0
LINE
  5
3C2
  8
0
  6
CONTINUOUS
 62
     7
 10
66.60074099821192
 20
654.0428293964778
 30
0.0
 11
66.59994791681271
 21
654.0527262125576
 31
0.0
  0
LINE
  5
3C3
  8
0
  6
CONTINUOUS
 62
     7
 10
66.59994791681271
 20
654.0527262125576
 30
0.0
 11
66.59955898949794
 21
654.0626388145065
 31
0.0
  0
LINE
  5
3C4
  8
0
  6
CONTINUOUS
 62
     7
 10
66.59955898949794
 20
654.0626388145065
 30
0.0
 11
66.59957949076014
 21
654.0728334425521
 31
0.0
  0
LINE
  5
3C5
  8
0
  6
CONTINUOUS
 62
     7
 10
66.59957949076014
 20
654.0728334425521
 30
0.0
 11
66.6000218347213
 21
654.0830271545855
 31
0.0
  0
LINE
  5
3C6
  8
0
  6
CONTINUOUS
 62
     7
 10
66.6000218347213
 20
654.0830271545855
 30
0.0
 11
66.60088151678553
 21
654.0931943957405
 31
0.0
  0
LINE
  5
3C7
  8
0
  6
CONTINUOUS
 62
     7
 10
66.60088151678553
 20
654.0931943957405
 30
0.0
 11
66.60215403235686
 21
654.1033096111514
 31
0.0
  0
LINE
  5
3C8
  8
0
  6
CONTINUOUS
 62
     7
 10
66.60215403235686
 20
654.1033096111514
 30
0.0
 11
66.60383398335873
 21
654.1133508952461
 31
0.0
  0
LINE
  5
3C9
  8
0
  6
CONTINUOUS
 62
     7
 10
66.60383398335873
 20
654.1133508952461
 30
0.0
 11
66.60591731868739
 21
654.1233246210809
 31
0.0
  0
LINE
  5
3CA
  8
0
  6
CONTINUOUS
 62
     7
 10
66.60591731868739
 20
654.1233246210809
 30
0.0
 11
66.6083957153434
 21
654.1332078124847
 31
0.0
  0
LINE
  5
3CB
  8
0
  6
CONTINUOUS
 62
     7
 10
66.6083957153434
 20
654.1332078124847
 30
0.0
 11
66.61126085032743
 21
654.1429774932861
 31
0.0
  0
LINE
  5
3CC
  8
0
  6
CONTINUOUS
 62
     7
 10
66.61126085032743
 20
654.1429774932861
 30
0.0
 11
66.61459823323706
 21
654.1528759148828
 31
0.0
  0
LINE
  5
3CD
  8
0
  6
CONTINUOUS
 62
     7
 10
66.61459823323706
 20
654.1528759148828
 30
0.0
 11
66.6183317497008
 21
654.1626407013201
 31
0.0
  0
LINE
  5
3CE
  8
0
  6
CONTINUOUS
 62
     7
 10
66.6183317497008
 20
654.1626407013201
 30
0.0
 11
66.62244934500005
 21
654.1722500810539
 31
0.0
  0
LINE
  5
3CF
  8
0
  6
CONTINUOUS
 62
     7
 10
66.62244934500005
 20
654.1722500810539
 30
0.0
 11
66.62693896441627
 21
654.1816822825402
 31
0.0
  0
LINE
  5
3D0
  8
0
  6
CONTINUOUS
 62
     7
 10
66.62693896441627
 20
654.1816822825402
 30
0.0
 11
66.63194904065507
 21
654.1912094423809
 31
0.0
  0
LINE
  5
3D1
  8
0
  6
CONTINUOUS
 62
     7
 10
66.63194904065507
 20
654.1912094423809
 30
0.0
 11
66.63734100483367
 21
654.2005357064633
 31
0.0
  0
LINE
  5
3D2
  8
0
  6
CONTINUOUS
 62
     7
 10
66.63734100483367
 20
654.2005357064633
 30
0.0
 11
66.64309926116043
 21
654.2096406117897
 31
0.0
  0
LINE
  5
3D3
  8
0
  6
CONTINUOUS
 62
     7
 10
66.64309926116043
 20
654.2096406117897
 30
0.0
 11
66.64920821384361
 21
654.218503695363
 31
0.0
  0
LINE
  5
3D4
  8
0
  6
CONTINUOUS
 62
     7
 10
66.64920821384361
 20
654.218503695363
 30
0.0
 11
66.65583461290662
 21
654.2273400510368
 31
0.0
  0
LINE
  5
3D5
  8
0
  6
CONTINUOUS
 62
     7
 10
66.65583461290662
 20
654.2273400510368
 30
0.0
 11
66.66281567087911
 21
654.2359103882749
 31
0.0
  0
LINE
  5
3D6
  8
0
  6
CONTINUOUS
 62
     7
 10
66.66281567087911
 20
654.2359103882749
 30
0.0
 11
66.67013266076987
 21
654.2441959796215
 31
0.0
  0
LINE
  5
3D7
  8
0
  6
CONTINUOUS
 62
     7
 10
66.67013266076987
 20
654.2441959796215
 30
0.0
 11
66.67776685558765
 21
654.2521780976213
 31
0.0
  0
LINE
  5
3D8
  8
0
  6
CONTINUOUS
 62
     7
 10
66.67776685558765
 20
654.2521780976213
 30
0.0
 11
66.68832930073748
 21
654.2622489610642
 31
0.0
  0
LINE
  5
3D9
  8
0
  6
CONTINUOUS
 62
     7
 10
66.68832930073748
 20
654.2622489610642
 30
0.0
 11
66.69941618413772
 21
654.2717697226351
 31
0.0
  0
LINE
  5
3DA
  8
0
  6
CONTINUOUS
 62
     7
 10
66.69941618413772
 20
654.2717697226351
 30
0.0
 11
66.71098035057314
 21
654.280705084836
 31
0.0
  0
LINE
  5
3DB
  8
0
  6
CONTINUOUS
 62
     7
 10
66.71098035057314
 20
654.280705084836
 30
0.0
 11
66.72297464482857
 21
654.289019750169
 31
0.0
  0
LINE
  5
3DC
  8
0
  6
CONTINUOUS
 62
     7
 10
58.47320524561207
 20
640.0000000000011
 30
0.0
 11
58.47416386380025
 21
640.0122020756083
 31
0.0
  0
LINE
  5
3DD
  8
0
  6
CONTINUOUS
 62
     7
 10
58.47416386380025
 20
640.0122020756083
 30
0.0
 11
58.47565312388837
 21
640.0243683811113
 31
0.0
  0
LINE
  5
3DE
  8
0
  6
CONTINUOUS
 62
     7
 10
58.47565312388837
 20
640.0243683811113
 30
0.0
 11
58.47766876386738
 21
640.0364643897651
 31
0.0
  0
LINE
  5
3DF
  8
0
  6
CONTINUOUS
 62
     7
 10
58.47766876386738
 20
640.0364643897651
 30
0.0
 11
58.48020652172824
 21
640.0484555748251
 31
0.0
  0
LINE
  5
3E0
  8
0
  6
CONTINUOUS
 62
     7
 10
58.48020652172824
 20
640.0484555748251
 30
0.0
 11
58.48326213546189
 21
640.0603074095465
 31
0.0
  0
LINE
  5
3E1
  8
0
  6
CONTINUOUS
 62
     7
 10
58.48326213546189
 20
640.0603074095465
 30
0.0
 11
58.48667343560862
 21
640.0715143794453
 31
0.0
  0
LINE
  5
3E2
  8
0
  6
CONTINUOUS
 62
     7
 10
58.48667343560862
 20
640.0715143794453
 30
0.0
 11
58.49055790731035
 21
640.0825774148057
 31
0.0
  0
LINE
  5
3E3
  8
0
  6
CONTINUOUS
 62
     7
 10
58.49055790731035
 20
640.0825774148057
 30
0.0
 11
58.49490696118578
 21
640.0934659727492
 31
0.0
  0
LINE
  5
3E4
  8
0
  6
CONTINUOUS
 62
     7
 10
58.49490696118578
 20
640.0934659727492
 30
0.0
 11
58.49971200785357
 21
640.1041495103974
 31
0.0
  0
LINE
  5
3E5
  8
0
  6
CONTINUOUS
 62
     7
 10
58.49971200785357
 20
640.1041495103974
 30
0.0
 11
58.50514285877816
 21
640.1149365865429
 31
0.0
  0
LINE
  5
3E6
  8
0
  6
CONTINUOUS
 62
     7
 10
58.50514285877816
 20
640.1149365865429
 30
0.0
 11
58.51105468683811
 21
640.1254816674095
 31
0.0
  0
LINE
  5
3E7
  8
0
  6
CONTINUOUS
 62
     7
 10
58.51105468683811
 20
640.1254816674095
 30
0.0
 11
58.51743242612191
 21
640.1357512732325
 31
0.0
  0
LINE
  5
3E8
  8
0
  6
CONTINUOUS
 62
     7
 10
58.51743242612191
 20
640.1357512732325
 30
0.0
 11
58.52426101071801
 21
640.1457119242472
 31
0.0
  0
LINE
  5
3E9
  8
0
  6
CONTINUOUS
 62
     7
 10
58.52426101071801
 20
640.1457119242472
 30
0.0
 11
58.53107470100028
 21
640.1547625128471
 31
0.0
  0
LINE
  5
3EA
  8
0
  6
CONTINUOUS
 62
     7
 10
58.53107470100028
 20
640.1547625128471
 30
0.0
 11
58.53827880208248
 21
640.1635193451216
 31
0.0
  0
LINE
  5
3EB
  8
0
  6
CONTINUOUS
 62
     7
 10
58.53827880208248
 20
640.1635193451216
 30
0.0
 11
58.5458553929727
 21
640.1719555363765
 31
0.0
  0
LINE
  5
3EC
  8
0
  6
CONTINUOUS
 62
     7
 10
58.5458553929727
 20
640.1719555363765
 30
0.0
 11
58.55378655267899
 21
640.1800442019176
 31
0.0
  0
LINE
  5
3ED
  8
0
  6
CONTINUOUS
 62
     7
 10
58.55378655267899
 20
640.1800442019176
 30
0.0
 11
58.56234582058194
 21
640.1880202552449
 31
0.0
  0
LINE
  5
3EE
  8
0
  6
CONTINUOUS
 62
     7
 10
58.56234582058194
 20
640.1880202552449
 30
0.0
 11
58.57127230130883
 21
640.1956024791509
 31
0.0
  0
LINE
  5
3EF
  8
0
  6
CONTINUOUS
 62
     7
 10
58.57127230130883
 20
640.1956024791509
 30
0.0
 11
58.5805395032185
 21
640.2027636377863
 31
0.0
  0
LINE
  5
3F0
  8
0
  6
CONTINUOUS
 62
     7
 10
58.5805395032185
 20
640.2027636377863
 30
0.0
 11
58.59012093466972
 21
640.2094764953022
 31
0.0
  0
LINE
  5
3F1
  8
0
  6
CONTINUOUS
 62
     7
 10
58.59012093466972
 20
640.2094764953022
 30
0.0
 11
58.59911870484176
 21
640.215191755754
 31
0.0
  0
LINE
  5
3F2
  8
0
  6
CONTINUOUS
 62
     7
 10
58.59911870484176
 20
640.215191755754
 30
0.0
 11
58.60836392422863
 21
640.2205176391678
 31
0.0
  0
LINE
  5
3F3
  8
0
  6
CONTINUOUS
 62
     7
 10
58.60836392422863
 20
640.2205176391678
 30
0.0
 11
58.61783147683074
 21
640.2254369240352
 31
0.0
  0
LINE
  5
3F4
  8
0
  6
CONTINUOUS
 62
     7
 10
58.61783147683074
 20
640.2254369240352
 30
0.0
 11
58.62749624664848
 21
640.229932388847
 31
0.0
  0
LINE
  5
3F5
  8
0
  6
CONTINUOUS
 62
     7
 10
58.62749624664848
 20
640.229932388847
 30
0.0
 11
58.63767572107443
 21
640.2341207415975
 31
0.0
  0
LINE
  5
3F6
  8
0
  6
CONTINUOUS
 62
     7
 10
58.63767572107443
 20
640.2341207415975
 30
0.0
 11
58.64804721969154
 21
640.2378426423919
 31
0.0
  0
LINE
  5
3F7
  8
0
  6
CONTINUOUS
 62
     7
 10
58.64804721969154
 20
640.2378426423919
 30
0.0
 11
58.65857836181724
 21
640.2410847065357
 31
0.0
  0
LINE
  5
3F8
  8
0
  6
CONTINUOUS
 62
     7
 10
58.65857836181724
 20
640.2410847065357
 30
0.0
 11
58.66923676676895
 21
640.2438335493338
 31
0.0
  0
LINE
  5
3F9
  8
0
  6
CONTINUOUS
 62
     7
 10
58.66923676676895
 20
640.2438335493338
 30
0.0
 11
58.6797934573543
 21
640.2460407397109
 31
0.0
  0
LINE
  5
3FA
  8
0
  6
CONTINUOUS
 62
     7
 10
58.6797934573543
 20
640.2460407397109
 30
0.0
 11
58.69045679467197
 21
640.247765754415
 31
0.0
  0
LINE
  5
3FB
  8
0
  6
CONTINUOUS
 62
     7
 10
58.69045679467197
 20
640.247765754415
 30
0.0
 11
58.70119321384373
 21
640.2490038189974
 31
0.0
  0
LINE
  5
3FC
  8
0
  6
CONTINUOUS
 62
     7
 10
58.70119321384373
 20
640.2490038189974
 30
0.0
 11
58.71196914999136
 21
640.2497501590093
 31
0.0
  0
LINE
  5
3FD
  8
0
  6
CONTINUOUS
 62
     7
 10
58.71196914999136
 20
640.2497501590093
 30
0.0
 11
58.72275103823706
 21
640.2500000000001
 31
0.0
  0
LINE
  5
3FE
  8
0
  6
CONTINUOUS
 62
     7
 10
58.72275103823706
 20
639.7500000000001
 30
0.0
 11
58.71283102174722
 21
639.7502104603642
 31
0.0
  0
LINE
  5
3FF
  8
0
  6
CONTINUOUS
 62
     7
 10
58.71283102174722
 20
639.7502104603642
 30
0.0
 11
58.70291989944336
 21
639.7508400062608
 31
0.0
  0
LINE
  5
400
  8
0
  6
CONTINUOUS
 62
     7
 10
58.70291989944336
 20
639.7508400062608
 30
0.0
 11
58.69304398856172
 21
639.7518858848971
 31
0.0
  0
LINE
  5
401
  8
0
  6
CONTINUOUS
 62
     7
 10
58.69304398856172
 20
639.7518858848971
 30
0.0
 11
58.68322960633853
 21
639.7533453434795
 31
0.0
  0
LINE
  5
402
  8
0
  6
CONTINUOUS
 62
     7
 10
58.68322960633853
 20
639.7533453434795
 30
0.0
 11
58.67319692167473
 21
639.7552796886678
 31
0.0
  0
LINE
  5
403
  8
0
  6
CONTINUOUS
 62
     7
 10
58.67319692167473
 20
639.7552796886678
 30
0.0
 11
58.663247792828
 21
639.7576472278109
 31
0.0
  0
LINE
  5
404
  8
0
  6
CONTINUOUS
 62
     7
 10
58.663247792828
 20
639.7576472278109
 30
0.0
 11
58.65340921276189
 21
639.7604392468057
 31
0.0
  0
LINE
  5
405
  8
0
  6
CONTINUOUS
 62
     7
 10
58.65340921276189
 20
639.7604392468057
 30
0.0
 11
58.64370817443999
 21
639.7636470315489
 31
0.0
  0
LINE
  5
406
  8
0
  6
CONTINUOUS
 62
     7
 10
58.64370817443999
 20
639.7636470315489
 30
0.0
 11
58.63442950462552
 21
639.7671559783377
 31
0.0
  0
LINE
  5
407
  8
0
  6
CONTINUOUS
 62
     7
 10
58.63442950462552
 20
639.7671559783377
 30
0.0
 11
58.625295522767
 21
639.7710473799883
 31
0.0
  0
LINE
  5
408
  8
0
  6
CONTINUOUS
 62
     7
 10
58.625295522767
 20
639.7710473799883
 30
0.0
 11
58.61632808792573
 21
639.7753089593892
 31
0.0
  0
LINE
  5
409
  8
0
  6
CONTINUOUS
 62
     7
 10
58.61632808792573
 20
639.7753089593892
 30
0.0
 11
58.60754905916298
 21
639.7799284394289
 31
0.0
  0
LINE
  5
40A
  8
0
  6
CONTINUOUS
 62
     7
 10
58.60754905916298
 20
639.7799284394289
 30
0.0
 11
58.59873050292448
 21
639.7850435080655
 31
0.0
  0
LINE
  5
40B
  8
0
  6
CONTINUOUS
 62
     7
 10
58.59873050292448
 20
639.7850435080655
 30
0.0
 11
58.59012366132532
 21
639.7905234451898
 31
0.0
  0
LINE
  5
40C
  8
0
  6
CONTINUOUS
 62
     7
 10
58.59012366132532
 20
639.7905234451898
 30
0.0
 11
58.58174841323068
 21
639.796351572274
 31
0.0
  0
LINE
  5
40D
  8
0
  6
CONTINUOUS
 62
     7
 10
58.58174841323068
 20
639.796351572274
 30
0.0
 11
58.57362463750576
 21
639.8025112107911
 31
0.0
  0
LINE
  5
40E
  8
0
  6
CONTINUOUS
 62
     7
 10
58.57362463750576
 20
639.8025112107911
 30
0.0
 11
58.56576860589406
 21
639.8089867330832
 31
0.0
  0
LINE
  5
40F
  8
0
  6
CONTINUOUS
 62
     7
 10
58.56576860589406
 20
639.8089867330832
 30
0.0
 11
58.55817277361515
 21
639.8157778173198
 31
0.0
  0
LINE
  5
410
  8
0
  6
CONTINUOUS
 62
     7
 10
58.55817277361515
 20
639.8157778173198
 30
0.0
 11
58.5508528771171
 21
639.8228657674864
 31
0.0
  0
LINE
  5
411
  8
0
  6
CONTINUOUS
 62
     7
 10
58.5508528771171
 20
639.8228657674864
 30
0.0
 11
58.54382465284802
 21
639.8302318875686
 31
0.0
  0
LINE
  5
412
  8
0
  6
CONTINUOUS
 62
     7
 10
58.54382465284802
 20
639.8302318875686
 30
0.0
 11
58.53692105974287
 21
639.8380713567487
 31
0.0
  0
LINE
  5
413
  8
0
  6
CONTINUOUS
 62
     7
 10
58.53692105974287
 20
639.8380713567487
 30
0.0
 11
58.5303312648575
 21
639.8461870700704
 31
0.0
  0
LINE
  5
414
  8
0
  6
CONTINUOUS
 62
     7
 10
58.5303312648575
 20
639.8461870700704
 30
0.0
 11
58.52406809554297
 21
639.8545577020691
 31
0.0
  0
LINE
  5
415
  8
0
  6
CONTINUOUS
 62
     7
 10
58.52406809554297
 20
639.8545577020691
 30
0.0
 11
58.51814437915034
 21
639.86316192728
 31
0.0
  0
LINE
  5
416
  8
0
  6
CONTINUOUS
 62
     7
 10
58.51814437915034
 20
639.86316192728
 30
0.0
 11
58.51239865482182
 21
639.872264360498
 31
0.0
  0
LINE
  5
417
  8
0
  6
CONTINUOUS
 62
     7
 10
58.51239865482182
 20
639.872264360498
 30
0.0
 11
58.5070178552934
 21
639.8815970704942
 31
0.0
  0
LINE
  5
418
  8
0
  6
CONTINUOUS
 62
     7
 10
58.5070178552934
 20
639.8815970704942
 30
0.0
 11
58.50201190414496
 21
639.8911363194178
 31
0.0
  0
LINE
  5
419
  8
0
  6
CONTINUOUS
 62
     7
 10
58.50201190414496
 20
639.8911363194178
 30
0.0
 11
58.49739072495633
 21
639.9008583694186
 31
0.0
  0
LINE
  5
41A
  8
0
  6
CONTINUOUS
 62
     7
 10
58.49739072495633
 20
639.9008583694186
 30
0.0
 11
58.4930514159974
 21
639.9110151771797
 31
0.0
  0
LINE
  5
41B
  8
0
  6
CONTINUOUS
 62
     7
 10
58.4930514159974
 20
639.9110151771797
 30
0.0
 11
58.48911981521649
 21
639.9213461193482
 31
0.0
  0
LINE
  5
41C
  8
0
  6
CONTINUOUS
 62
     7
 10
58.48911981521649
 20
639.9213461193482
 30
0.0
 11
58.48560277757027
 21
639.9318256141462
 31
0.0
  0
LINE
  5
41D
  8
0
  6
CONTINUOUS
 62
     7
 10
58.48560277757027
 20
639.9318256141462
 30
0.0
 11
58.48250715801539
 21
639.9424280797957
 31
0.0
  0
LINE
  5
41E
  8
0
  6
CONTINUOUS
 62
     7
 10
58.48250715801539
 20
639.9424280797957
 30
0.0
 11
58.47906675701065
 21
639.956610857343
 31
0.0
  0
LINE
  5
41F
  8
0
  6
CONTINUOUS
 62
     7
 10
58.47906675701065
 20
639.956610857343
 30
0.0
 11
58.47636497732703
 21
639.9709727608018
 31
0.0
  0
LINE
  5
420
  8
0
  6
CONTINUOUS
 62
     7
 10
58.47636497732703
 20
639.9709727608018
 30
0.0
 11
58.47440880988677
 21
639.985455303809
 31
0.0
  0
LINE
  5
421
  8
0
  6
CONTINUOUS
 62
     7
 10
58.47440880988677
 20
639.985455303809
 30
0.0
 11
58.47320524561207
 21
640.0000000000011
 31
0.0
  0
LINE
  5
422
  8
0
  6
CONTINUOUS
 62
     7
 10
66.72297464482679
 20
625.7109802498322
 30
0.0
 11
66.71288664646616
 21
625.7179114753393
 31
0.0
  0
LINE
  5
423
  8
0
  6
CONTINUOUS
 62
     7
 10
66.71288664646616
 20
625.7179114753393
 30
0.0
 11
66.70309494687447
 21
625.72528436516
 31
0.0
  0
LINE
  5
424
  8
0
  6
CONTINUOUS
 62
     7
 10
66.70309494687447
 20
625.72528436516
 30
0.0
 11
66.69362731608533
 21
625.7330779649136
 31
0.0
  0
LINE
  5
425
  8
0
  6
CONTINUOUS
 62
     7
 10
66.69362731608533
 20
625.7330779649136
 30
0.0
 11
66.68451152413232
 21
625.7412713202198
 31
0.0
  0
LINE
  5
426
  8
0
  6
CONTINUOUS
 62
     7
 10
66.68451152413232
 20
625.7412713202198
 30
0.0
 11
66.67577534104907
 21
625.7498434766978
 31
0.0
  0
LINE
  5
427
  8
0
  6
CONTINUOUS
 62
     7
 10
66.67577534104907
 20
625.7498434766978
 30
0.0
 11
66.66777547049051
 21
625.7584012342343
 31
0.0
  0
LINE
  5
428
  8
0
  6
CONTINUOUS
 62
     7
 10
66.66777547049051
 20
625.7584012342343
 30
0.0
 11
66.66013683667634
 21
625.7672968030885
 31
0.0
  0
LINE
  5
429
  8
0
  6
CONTINUOUS
 62
     7
 10
66.66013683667634
 20
625.7672968030885
 30
0.0
 11
66.65288159582444
 21
625.7765074731988
 31
0.0
  0
LINE
  5
42A
  8
0
  6
CONTINUOUS
 62
     7
 10
66.65288159582444
 20
625.7765074731988
 30
0.0
 11
66.64603190415266
 21
625.7860105345036
 31
0.0
  0
LINE
  5
42B
  8
0
  6
CONTINUOUS
 62
     7
 10
66.64603190415266
 20
625.7860105345036
 30
0.0
 11
66.63940544764044
 21
625.7961073274412
 31
0.0
  0
LINE
  5
42C
  8
0
  6
CONTINUOUS
 62
     7
 10
66.63940544764044
 20
625.7961073274412
 30
0.0
 11
66.63322905375493
 21
625.8064996611572
 31
0.0
  0
LINE
  5
42D
  8
0
  6
CONTINUOUS
 62
     7
 10
66.63322905375493
 20
625.8064996611572
 30
0.0
 11
66.62752418386724
 21
625.8171577483073
 31
0.0
  0
LINE
  5
42E
  8
0
  6
CONTINUOUS
 62
     7
 10
66.62752418386724
 20
625.8171577483073
 30
0.0
 11
66.62231229934841
 21
625.8280518015466
 31
0.0
  0
LINE
  5
42F
  8
0
  6
CONTINUOUS
 62
     7
 10
66.62231229934841
 20
625.8280518015466
 30
0.0
 11
66.61788110484284
 21
625.8384779247245
 31
0.0
  0
LINE
  5
430
  8
0
  6
CONTINUOUS
 62
     7
 10
66.61788110484284
 20
625.8384779247245
 30
0.0
 11
66.61389951617753
 21
625.8490952754104
 31
0.0
  0
LINE
  5
431
  8
0
  6
CONTINUOUS
 62
     7
 10
66.61389951617753
 20
625.8490952754104
 30
0.0
 11
66.61038185568468
 21
625.8598748912228
 31
0.0
  0
LINE
  5
432
  8
0
  6
CONTINUOUS
 62
     7
 10
66.61038185568468
 20
625.8598748912228
 30
0.0
 11
66.60734244569652
 21
625.8707878097805
 31
0.0
  0
LINE
  5
433
  8
0
  6
CONTINUOUS
 62
     7
 10
66.60734244569652
 20
625.8707878097805
 30
0.0
 11
66.60471461484457
 21
625.882188379886
 31
0.0
  0
LINE
  5
434
  8
0
  6
CONTINUOUS
 62
     7
 10
66.60471461484457
 20
625.882188379886
 30
0.0
 11
66.60261145668824
 21
625.8937100509148
 31
0.0
  0
LINE
  5
435
  8
0
  6
CONTINUOUS
 62
     7
 10
66.60261145668824
 20
625.8937100509148
 30
0.0
 11
66.60104331234423
 21
625.9053162625083
 31
0.0
  0
LINE
  5
436
  8
0
  6
CONTINUOUS
 62
     7
 10
66.60104331234423
 20
625.9053162625083
 30
0.0
 11
66.60002052292927
 21
625.9169704543076
 31
0.0
  0
LINE
  5
437
  8
0
  6
CONTINUOUS
 62
     7
 10
66.60002052292927
 20
625.9169704543076
 30
0.0
 11
66.59956984727472
 21
625.9276203820799
 31
0.0
  0
LINE
  5
438
  8
0
  6
CONTINUOUS
 62
     7
 10
66.59956984727472
 20
625.9276203820799
 30
0.0
 11
66.59958010663408
 21
625.9382899186395
 31
0.0
  0
LINE
  5
439
  8
0
  6
CONTINUOUS
 62
     7
 10
66.59958010663408
 20
625.9382899186395
 30
0.0
 11
66.60005365727162
 21
625.9489487021382
 31
0.0
  0
LINE
  5
43A
  8
0
  6
CONTINUOUS
 62
     7
 10
66.60005365727162
 20
625.9489487021382
 30
0.0
 11
66.60099285545162
 21
625.959566370728
 31
0.0
  0
LINE
  5
43B
  8
0
  6
CONTINUOUS
 62
     7
 10
66.60099285545162
 20
625.959566370728
 30
0.0
 11
66.60245537278274
 21
625.9704762305532
 31
0.0
  0
LINE
  5
43C
  8
0
  6
CONTINUOUS
 62
     7
 10
66.60245537278274
 20
625.9704762305532
 30
0.0
 11
66.60441786145287
 21
625.9813191622283
 31
0.0
  0
LINE
  5
43D
  8
0
  6
CONTINUOUS
 62
     7
 10
66.60441786145287
 20
625.9813191622283
 30
0.0
 11
66.60687572260653
 21
625.9920604309118
 31
0.0
  0
LINE
  5
43E
  8
0
  6
CONTINUOUS
 62
     7
 10
66.60687572260653
 20
625.9920604309118
 30
0.0
 11
66.6098243573882
 21
626.0026653017629
 31
0.0
  0
LINE
  5
43F
  8
0
  6
CONTINUOUS
 62
     7
 10
66.6098243573882
 20
626.0026653017629
 30
0.0
 11
66.61319121974334
 21
626.0129112591783
 31
0.0
  0
LINE
  5
440
  8
0
  6
CONTINUOUS
 62
     7
 10
66.61319121974334
 20
626.0129112591783
 30
0.0
 11
66.61702898184649
 21
626.0230084875366
 31
0.0
  0
LINE
  5
441
  8
0
  6
CONTINUOUS
 62
     7
 10
66.61702898184649
 20
626.0230084875366
 30
0.0
 11
66.62132499605246
 21
626.0329255315762
 31
0.0
  0
LINE
  5
442
  8
0
  6
CONTINUOUS
 62
     7
 10
66.62132499605246
 20
626.0329255315762
 30
0.0
 11
66.62606661471612
 21
626.0426309360355
 31
0.0
  0
LINE
  5
443
  8
0
  6
CONTINUOUS
 62
     7
 10
66.62606661471612
 20
626.0426309360355
 30
0.0
 11
66.63124119019406
 21
626.0520932456525
 31
0.0
  0
LINE
  5
444
  8
0
  6
CONTINUOUS
 62
     7
 10
67.06425389208628
 20
625.8020932456525
 30
0.0
 11
67.05911161981962
 21
625.7936074895483
 31
0.0
  0
LINE
  5
445
  8
0
  6
CONTINUOUS
 62
     7
 10
67.05911161981962
 20
625.7936074895483
 30
0.0
 11
67.05361085592828
 21
625.7853389788015
 31
0.0
  0
LINE
  5
446
  8
0
  6
CONTINUOUS
 62
     7
 10
67.05361085592828
 20
625.7853389788015
 30
0.0
 11
67.04776714301927
 21
625.7773091284106
 31
0.0
  0
LINE
  5
447
  8
0
  6
CONTINUOUS
 62
     7
 10
67.04776714301927
 20
625.7773091284106
 30
0.0
 11
67.0415960236995
 21
625.7695393533741
 31
0.0
  0
LINE
  5
448
  8
0
  6
CONTINUOUS
 62
     7
 10
67.0415960236995
 20
625.7695393533741
 30
0.0
 11
67.03490448929486
 21
625.7618179661812
 31
0.0
  0
LINE
  5
449
  8
0
  6
CONTINUOUS
 62
     7
 10
67.03490448929486
 20
625.7618179661812
 30
0.0
 11
67.02787957582903
 21
625.7543855374261
 31
0.0
  0
LINE
  5
44A
  8
0
  6
CONTINUOUS
 62
     7
 10
67.02787957582903
 20
625.7543855374261
 30
0.0
 11
67.02054232641866
 21
625.747261086649
 31
0.0
  0
LINE
  5
44B
  8
0
  6
CONTINUOUS
 62
     7
 10
67.02054232641866
 20
625.747261086649
 30
0.0
 11
67.01291378418031
 21
625.7404636333907
 31
0.0
  0
LINE
  5
44C
  8
0
  6
CONTINUOUS
 62
     7
 10
67.01291378418031
 20
625.7404636333907
 30
0.0
 11
67.00523561221338
 21
625.7341825430125
 31
0.0
  0
LINE
  5
44D
  8
0
  6
CONTINUOUS
 62
     7
 10
67.00523561221338
 20
625.7341825430125
 30
0.0
 11
66.99729856859834
 21
625.7282179835106
 31
0.0
  0
LINE
  5
44E
  8
0
  6
CONTINUOUS
 62
     7
 10
66.99729856859834
 20
625.7282179835106
 30
0.0
 11
66.98912421515628
 21
625.7225827468318
 31
0.0
  0
LINE
  5
44F
  8
0
  6
CONTINUOUS
 62
     7
 10
66.98912421515628
 20
625.7225827468318
 30
0.0
 11
66.98073411370832
 21
625.7172896249225
 31
0.0
  0
LINE
  5
450
  8
0
  6
CONTINUOUS
 62
     7
 10
66.98073411370832
 20
625.7172896249225
 30
0.0
 11
66.97189505620763
 21
625.7122100655135
 31
0.0
  0
LINE
  5
451
  8
0
  6
CONTINUOUS
 62
     7
 10
66.97189505620763
 20
625.7122100655135
 30
0.0
 11
66.9628458706473
 21
625.7074962906045
 31
0.0
  0
LINE
  5
452
  8
0
  6
CONTINUOUS
 62
     7
 10
66.9628458706473
 20
625.7074962906045
 30
0.0
 11
66.95361094048843
 21
625.7031571765336
 31
0.0
  0
LINE
  5
453
  8
0
  6
CONTINUOUS
 62
     7
 10
66.95361094048843
 20
625.7031571765336
 30
0.0
 11
66.94421464919218
 21
625.6992015996398
 31
0.0
  0
LINE
  5
454
  8
0
  6
CONTINUOUS
 62
     7
 10
66.94421464919218
 20
625.6992015996398
 30
0.0
 11
66.93467866657859
 21
625.6956358378371
 31
0.0
  0
LINE
  5
455
  8
0
  6
CONTINUOUS
 62
     7
 10
66.93467866657859
 20
625.6956358378371
 30
0.0
 11
66.92499949897103
 21
625.692453196239
 31
0.0
  0
LINE
  5
456
  8
0
  6
CONTINUOUS
 62
     7
 10
66.92499949897103
 20
625.692453196239
 30
0.0
 11
66.91520120581696
 21
625.6896579550018
 31
0.0
  0
LINE
  5
457
  8
0
  6
CONTINUOUS
 62
     7
 10
66.91520120581696
 20
625.6896579550018
 30
0.0
 11
66.90530784656387
 21
625.6872543942825
 31
0.0
  0
LINE
  5
458
  8
0
  6
CONTINUOUS
 62
     7
 10
66.90530784656387
 20
625.6872543942825
 30
0.0
 11
66.89506687054907
 21
625.6851954418662
 31
0.0
  0
LINE
  5
459
  8
0
  6
CONTINUOUS
 62
     7
 10
66.89506687054907
 20
625.6851954418662
 30
0.0
 11
66.88474355919998
 21
625.6835463687505
 31
0.0
  0
LINE
  5
45A
  8
0
  6
CONTINUOUS
 62
     7
 10
66.88474355919998
 20
625.6835463687505
 30
0.0
 11
66.87436279458619
 21
625.6823076210153
 31
0.0
  0
LINE
  5
45B
  8
0
  6
CONTINUOUS
 62
     7
 10
66.87436279458619
 20
625.6823076210153
 30
0.0
 11
66.86394945877736
 21
625.6814796447399
 31
0.0
  0
LINE
  5
45C
  8
0
  6
CONTINUOUS
 62
     7
 10
66.86394945877736
 20
625.6814796447399
 30
0.0
 11
66.85319365821002
 21
625.6810549181172
 31
0.0
  0
LINE
  5
45D
  8
0
  6
CONTINUOUS
 62
     7
 10
66.85319365821002
 20
625.6810549181172
 30
0.0
 11
66.84242089450298
 21
625.681061364031
 31
0.0
  0
LINE
  5
45E
  8
0
  6
CONTINUOUS
 62
     7
 10
66.84242089450298
 20
625.681061364031
 30
0.0
 11
66.83165668702782
 21
625.6814957076282
 31
0.0
  0
LINE
  5
45F
  8
0
  6
CONTINUOUS
 62
     7
 10
66.83165668702782
 20
625.6814957076282
 30
0.0
 11
66.82092655515599
 21
625.6823546740559
 31
0.0
  0
LINE
  5
460
  8
0
  6
CONTINUOUS
 62
     7
 10
66.82092655515599
 20
625.6823546740559
 30
0.0
 11
66.80996084713406
 21
625.683675126143
 31
0.0
  0
LINE
  5
461
  8
0
  6
CONTINUOUS
 62
     7
 10
66.80996084713406
 20
625.683675126143
 30
0.0
 11
66.79904818838064
 21
625.6854357310734
 31
0.0
  0
LINE
  5
462
  8
0
  6
CONTINUOUS
 62
     7
 10
66.79904818838064
 20
625.6854357310734
 30
0.0
 11
66.78821416084367
 21
625.6876296345248
 31
0.0
  0
LINE
  5
463
  8
0
  6
CONTINUOUS
 62
     7
 10
66.78821416084367
 20
625.6876296345248
 30
0.0
 11
66.77748434647101
 21
625.6902499821746
 31
0.0
  0
LINE
  5
464
  8
0
  6
CONTINUOUS
 62
     7
 10
66.77748434647101
 20
625.6902499821746
 30
0.0
 11
66.76348150031644
 21
625.6943618962789
 31
0.0
  0
LINE
  5
465
  8
0
  6
CONTINUOUS
 62
     7
 10
66.76348150031644
 20
625.6943618962789
 30
0.0
 11
66.74969283723259
 21
625.6992030381668
 31
0.0
  0
LINE
  5
466
  8
0
  6
CONTINUOUS
 62
     7
 10
66.74969283723259
 20
625.6992030381668
 30
0.0
 11
66.7361725033569
 21
625.7047502189731
 31
0.0
  0
LINE
  5
467
  8
0
  6
CONTINUOUS
 62
     7
 10
66.7361725033569
 20
625.7047502189731
 30
0.0
 11
66.72297464482679
 21
625.7109802498322
 31
0.0
  0
LINE
  5
468
  8
0
  6
CONTINUOUS
 62
     7
 10
83.22251344325797
 20
625.7109802498312
 30
0.0
 11
83.21146682670917
 21
625.7057093997312
 31
0.0
  0
LINE
  5
469
  8
0
  6
CONTINUOUS
 62
     7
 10
83.21146682670917
 20
625.7057093997312
 30
0.0
 11
83.20018586702936
 21
625.7009159840487
 31
0.0
  0
LINE
  5
46A
  8
0
  6
CONTINUOUS
 62
     7
 10
83.20018586702936
 20
625.7009159840487
 30
0.0
 11
83.1887025962612
 21
625.6966135751486
 31
0.0
  0
LINE
  5
46B
  8
0
  6
CONTINUOUS
 62
     7
 10
83.1887025962612
 20
625.6966135751486
 30
0.0
 11
83.17704904644735
 21
625.6928157453947
 31
0.0
  0
LINE
  5
46C
  8
0
  6
CONTINUOUS
 62
     7
 10
83.17704904644735
 20
625.6928157453947
 30
0.0
 11
83.16525724963046
 21
625.6895360671516
 31
0.0
  0
LINE
  5
46D
  8
0
  6
CONTINUOUS
 62
     7
 10
83.16525724963046
 20
625.6895360671516
 30
0.0
 11
83.15384607892516
 21
625.6868868547891
 31
0.0
  0
LINE
  5
46E
  8
0
  6
CONTINUOUS
 62
     7
 10
83.15384607892516
 20
625.6868868547891
 30
0.0
 11
83.14232297340926
 21
625.6847193882829
 31
0.0
  0
LINE
  5
46F
  8
0
  6
CONTINUOUS
 62
     7
 10
83.14232297340926
 20
625.6847193882829
 30
0.0
 11
83.13071867868193
 21
625.6830415004497
 31
0.0
  0
LINE
  5
470
  8
0
  6
CONTINUOUS
 62
     7
 10
83.13071867868193
 20
625.6830415004497
 30
0.0
 11
83.11906394034236
 21
625.6818610241063
 31
0.0
  0
LINE
  5
471
  8
0
  6
CONTINUOUS
 62
     7
 10
83.11906394034236
 20
625.6818610241063
 30
0.0
 11
83.10700663290552
 21
625.6811707408984
 31
0.0
  0
LINE
  5
472
  8
0
  6
CONTINUOUS
 62
     7
 10
83.10700663290552
 20
625.6811707408984
 30
0.0
 11
83.09491841096009
 21
625.6810179937479
 31
0.0
  0
LINE
  5
473
  8
0
  6
CONTINUOUS
 62
     7
 10
83.09491841096009
 20
625.6810179937479
 30
0.0
 11
83.08283580178859
 21
625.6814064750747
 31
0.0
  0
LINE
  5
474
  8
0
  6
CONTINUOUS
 62
     7
 10
83.08283580178859
 20
625.6814064750747
 30
0.0
 11
83.07079533267365
 21
625.6823398772996
 31
0.0
  0
LINE
  5
475
  8
0
  6
CONTINUOUS
 62
     7
 10
83.07079533267365
 20
625.6823398772996
 30
0.0
 11
83.05955044788583
 21
625.6837154118776
 31
0.0
  0
LINE
  5
476
  8
0
  6
CONTINUOUS
 62
     7
 10
83.05955044788583
 20
625.6837154118776
 30
0.0
 11
83.0483647581383
 21
625.6855759302889
 31
0.0
  0
LINE
  5
477
  8
0
  6
CONTINUOUS
 62
     7
 10
83.0483647581383
 20
625.6855759302889
 30
0.0
 11
83.03727050675525
 21
625.6879193548466
 31
0.0
  0
LINE
  5
478
  8
0
  6
CONTINUOUS
 62
     7
 10
83.03727050675525
 20
625.6879193548466
 30
0.0
 11
83.02629993706078
 21
625.6907436078632
 31
0.0
  0
LINE
  5
479
  8
0
  6
CONTINUOUS
 62
     7
 10
83.02629993706078
 20
625.6907436078632
 30
0.0
 11
83.0151128383059
 21
625.6941681246411
 31
0.0
  0
LINE
  5
47A
  8
0
  6
CONTINUOUS
 62
     7
 10
83.0151128383059
 20
625.6941681246411
 30
0.0
 11
83.00408319942267
 21
625.698107571764
 31
0.0
  0
LINE
  5
47B
  8
0
  6
CONTINUOUS
 62
     7
 10
83.00408319942267
 20
625.698107571764
 30
0.0
 11
82.99324785316901
 21
625.7025526247221
 31
0.0
  0
LINE
  5
47C
  8
0
  6
CONTINUOUS
 62
     7
 10
82.99324785316901
 20
625.7025526247221
 30
0.0
 11
82.98264363230281
 21
625.7074939590055
 31
0.0
  0
LINE
  5
47D
  8
0
  6
CONTINUOUS
 62
     7
 10
82.98264363230281
 20
625.7074939590055
 30
0.0
 11
82.97319518647622
 21
625.7124286263262
 31
0.0
  0
LINE
  5
47E
  8
0
  6
CONTINUOUS
 62
     7
 10
82.97319518647622
 20
625.7124286263262
 30
0.0
 11
82.9639602264487
 21
625.7177722794717
 31
0.0
  0
LINE
  5
47F
  8
0
  6
CONTINUOUS
 62
     7
 10
82.9639602264487
 20
625.7177722794717
 30
0.0
 11
82.95496622448414
 21
625.7235117781031
 31
0.0
  0
LINE
  5
480
  8
0
  6
CONTINUOUS
 62
     7
 10
82.95496622448414
 20
625.7235117781031
 30
0.0
 11
82.94624065284641
 21
625.7296339818812
 31
0.0
  0
LINE
  5
481
  8
0
  6
CONTINUOUS
 62
     7
 10
82.94624065284641
 20
625.7296339818812
 30
0.0
 11
82.93752369575158
 21
625.736355488956
 31
0.0
  0
LINE
  5
482
  8
0
  6
CONTINUOUS
 62
     7
 10
82.93752369575158
 20
625.736355488956
 30
0.0
 11
82.9291146858046
 21
625.7434765198363
 31
0.0
  0
LINE
  5
483
  8
0
  6
CONTINUOUS
 62
     7
 10
82.9291146858046
 20
625.7434765198363
 30
0.0
 11
82.92104140483256
 21
625.7509757243763
 31
0.0
  0
LINE
  5
484
  8
0
  6
CONTINUOUS
 62
     7
 10
82.92104140483256
 20
625.7509757243763
 30
0.0
 11
82.91333163466253
 21
625.7588317524293
 31
0.0
  0
LINE
  5
485
  8
0
  6
CONTINUOUS
 62
     7
 10
82.91333163466253
 20
625.7588317524293
 30
0.0
 11
82.90614180643233
 21
625.7668705194675
 31
0.0
  0
LINE
  5
486
  8
0
  6
CONTINUOUS
 62
     7
 10
82.90614180643233
 20
625.7668705194675
 30
0.0
 11
82.89931623121781
 21
625.7752427331217
 31
0.0
  0
LINE
  5
487
  8
0
  6
CONTINUOUS
 62
     7
 10
82.89931623121781
 20
625.7752427331217
 30
0.0
 11
82.89287582625202
 21
625.783921712579
 31
0.0
  0
LINE
  5
488
  8
0
  6
CONTINUOUS
 62
     7
 10
82.89287582625202
 20
625.783921712579
 30
0.0
 11
82.88684150876804
 21
625.7928807770263
 31
0.0
  0
LINE
  5
489
  8
0
  6
CONTINUOUS
 62
     7
 10
82.88684150876804
 20
625.7928807770263
 30
0.0
 11
82.88123419600028
 21
625.8020932456525
 31
0.0
  0
LINE
  5
48A
  8
0
  6
CONTINUOUS
 62
     7
 10
83.31424689789249
 20
626.0520932456525
 30
0.0
 11
83.31902464211565
 21
626.0433970291843
 31
0.0
  0
LINE
  5
48B
  8
0
  6
CONTINUOUS
 62
     7
 10
83.31902464211565
 20
626.0433970291843
 30
0.0
 11
83.3234350005282
 21
626.0344989725409
 31
0.0
  0
LINE
  5
48C
  8
0
  6
CONTINUOUS
 62
     7
 10
83.3234350005282
 20
626.0344989725409
 30
0.0
 11
83.32746719850083
 21
626.0254232435137
 31
0.0
  0
LINE
  5
48D
  8
0
  6
CONTINUOUS
 62
     7
 10
83.32746719850083
 20
626.0254232435137
 30
0.0
 11
83.33111046140425
 21
626.0161940098947
 31
0.0
  0
LINE
  5
48E
  8
0
  6
CONTINUOUS
 62
     7
 10
83.33111046140425
 20
626.0161940098947
 30
0.0
 11
83.3344516116634
 21
626.0065382775136
 31
0.0
  0
LINE
  5
48F
  8
0
  6
CONTINUOUS
 62
     7
 10
83.3344516116634
 20
626.0065382775136
 30
0.0
 11
83.33737582704431
 21
625.9967383096152
 31
0.0
  0
LINE
  5
490
  8
0
  6
CONTINUOUS
 62
     7
 10
83.33737582704431
 20
625.9967383096152
 30
0.0
 11
83.33987715770003
 21
625.9868218398434
 31
0.0
  0
LINE
  5
491
  8
0
  6
CONTINUOUS
 62
     7
 10
83.33987715770003
 20
625.9868218398434
 30
0.0
 11
83.34194965378359
 21
625.976816601842
 31
0.0
  0
LINE
  5
492
  8
0
  6
CONTINUOUS
 62
     7
 10
83.34194965378359
 20
625.976816601842
 30
0.0
 11
83.34355015163115
 21
625.9670265646749
 31
0.0
  0
LINE
  5
493
  8
0
  6
CONTINUOUS
 62
     7
 10
83.34355015163115
 20
625.9670265646749
 30
0.0
 11
83.34474708987462
 21
625.9571706035224
 31
0.0
  0
LINE
  5
494
  8
0
  6
CONTINUOUS
 62
     7
 10
83.34474708987462
 20
625.9571706035224
 30
0.0
 11
83.34554017127383
 21
625.9472737874427
 31
0.0
  0
LINE
  5
495
  8
0
  6
CONTINUOUS
 62
     7
 10
83.34554017127383
 20
625.9472737874427
 30
0.0
 11
83.34592909858861
 21
625.9373611854937
 31
0.0
  0
LINE
  5
496
  8
0
  6
CONTINUOUS
 62
     7
 10
83.34592909858861
 20
625.9373611854937
 30
0.0
 11
83.34590859732641
 21
625.9271665574481
 31
0.0
  0
LINE
  5
497
  8
0
  6
CONTINUOUS
 62
     7
 10
83.34590859732641
 20
625.9271665574481
 30
0.0
 11
83.34546625336523
 21
625.9169728454148
 31
0.0
  0
LINE
  5
498
  8
0
  6
CONTINUOUS
 62
     7
 10
83.34546625336523
 20
625.9169728454148
 30
0.0
 11
83.34460657130101
 21
625.9068056042597
 31
0.0
  0
LINE
  5
499
  8
0
  6
CONTINUOUS
 62
     7
 10
83.34460657130101
 20
625.9068056042597
 30
0.0
 11
83.34333405572968
 21
625.8966903888487
 31
0.0
  0
LINE
  5
49A
  8
0
  6
CONTINUOUS
 62
     7
 10
83.34333405572968
 20
625.8966903888487
 30
0.0
 11
83.34165410472781
 21
625.886649104754
 31
0.0
  0
LINE
  5
49B
  8
0
  6
CONTINUOUS
 62
     7
 10
83.34165410472781
 20
625.886649104754
 30
0.0
 11
83.33957076939916
 21
625.8766753789193
 31
0.0
  0
LINE
  5
49C
  8
0
  6
CONTINUOUS
 62
     7
 10
83.33957076939916
 20
625.8766753789193
 30
0.0
 11
83.33709237274313
 21
625.8667921875156
 31
0.0
  0
LINE
  5
49D
  8
0
  6
CONTINUOUS
 62
     7
 10
83.33709237274313
 20
625.8667921875156
 30
0.0
 11
83.33422723775911
 21
625.8570225067141
 31
0.0
  0
LINE
  5
49E
  8
0
  6
CONTINUOUS
 62
     7
 10
83.33422723775911
 20
625.8570225067141
 30
0.0
 11
83.33088985484949
 21
625.8471240851175
 31
0.0
  0
LINE
  5
49F
  8
0
  6
CONTINUOUS
 62
     7
 10
83.33088985484949
 20
625.8471240851175
 30
0.0
 11
83.32715633838575
 21
625.8373592986801
 31
0.0
  0
LINE
  5
4A0
  8
0
  6
CONTINUOUS
 62
     7
 10
83.32715633838575
 20
625.8373592986801
 30
0.0
 11
83.3230387430865
 21
625.8277499189463
 31
0.0
  0
LINE
  5
4A1
  8
0
  6
CONTINUOUS
 62
     7
 10
83.3230387430865
 20
625.8277499189463
 30
0.0
 11
83.31854912367028
 21
625.81831771746
 31
0.0
  0
LINE
  5
4A2
  8
0
  6
CONTINUOUS
 62
     7
 10
83.31854912367028
 20
625.81831771746
 30
0.0
 11
83.31353904743148
 21
625.8087905576193
 31
0.0
  0
LINE
  5
4A3
  8
0
  6
CONTINUOUS
 62
     7
 10
83.31353904743148
 20
625.8087905576193
 30
0.0
 11
83.30814708325286
 21
625.799464293537
 31
0.0
  0
LINE
  5
4A4
  8
0
  6
CONTINUOUS
 62
     7
 10
83.30814708325286
 20
625.799464293537
 30
0.0
 11
83.30238882692612
 21
625.7903593882105
 31
0.0
  0
LINE
  5
4A5
  8
0
  6
CONTINUOUS
 62
     7
 10
83.30238882692612
 20
625.7903593882105
 30
0.0
 11
83.29627987424293
 21
625.7814963046372
 31
0.0
  0
LINE
  5
4A6
  8
0
  6
CONTINUOUS
 62
     7
 10
83.29627987424293
 20
625.7814963046372
 30
0.0
 11
83.28965347517993
 21
625.7726599489635
 31
0.0
  0
LINE
  5
4A7
  8
0
  6
CONTINUOUS
 62
     7
 10
83.28965347517993
 20
625.7726599489635
 30
0.0
 11
83.28267241720744
 21
625.7640896117254
 31
0.0
  0
LINE
  5
4A8
  8
0
  6
CONTINUOUS
 62
     7
 10
83.28267241720744
 20
625.7640896117254
 30
0.0
 11
83.27535542731668
 21
625.7558040203786
 31
0.0
  0
LINE
  5
4A9
  8
0
  6
CONTINUOUS
 62
     7
 10
83.27535542731668
 20
625.7558040203786
 30
0.0
 11
83.2677212324989
 21
625.747821902379
 31
0.0
  0
LINE
  5
4AA
  8
0
  6
CONTINUOUS
 62
     7
 10
83.2677212324989
 20
625.747821902379
 30
0.0
 11
83.25715878734906
 21
625.737751038936
 31
0.0
  0
LINE
  5
4AB
  8
0
  6
CONTINUOUS
 62
     7
 10
83.25715878734906
 20
625.737751038936
 30
0.0
 11
83.24607190394882
 21
625.7282302773651
 31
0.0
  0
LINE
  5
4AC
  8
0
  6
CONTINUOUS
 62
     7
 10
83.24607190394882
 20
625.7282302773651
 30
0.0
 11
83.2345077375134
 21
625.7192949151643
 31
0.0
  0
LINE
  5
4AD
  8
0
  6
CONTINUOUS
 62
     7
 10
83.2345077375134
 20
625.7192949151643
 30
0.0
 11
83.22251344325797
 21
625.7109802498312
 31
0.0
  0
LINE
  5
4AE
  8
0
  6
CONTINUOUS
 62
     7
 10
91.47228284247448
 20
639.9999999999991
 30
0.0
 11
91.4713242242863
 21
639.9877979243919
 31
0.0
  0
LINE
  5
4AF
  8
0
  6
CONTINUOUS
 62
     7
 10
91.4713242242863
 20
639.9877979243919
 30
0.0
 11
91.46983496419817
 21
639.9756316188889
 31
0.0
  0
LINE
  5
4B0
  8
0
  6
CONTINUOUS
 62
     7
 10
91.46983496419817
 20
639.9756316188889
 30
0.0
 11
91.46781932421916
 21
639.9635356102351
 31
0.0
  0
LINE
  5
4B1
  8
0
  6
CONTINUOUS
 62
     7
 10
91.46781932421916
 20
639.9635356102351
 30
0.0
 11
91.4652815663583
 21
639.9515444251751
 31
0.0
  0
LINE
  5
4B2
  8
0
  6
CONTINUOUS
 62
     7
 10
91.4652815663583
 20
639.9515444251751
 30
0.0
 11
91.46222595262466
 21
639.9396925904538
 31
0.0
  0
LINE
  5
4B3
  8
0
  6
CONTINUOUS
 62
     7
 10
91.46222595262466
 20
639.9396925904538
 30
0.0
 11
91.45881465247793
 21
639.928485620555
 31
0.0
  0
LINE
  5
4B4
  8
0
  6
CONTINUOUS
 62
     7
 10
91.45881465247793
 20
639.928485620555
 30
0.0
 11
91.4549301807762
 21
639.9174225851946
 31
0.0
  0
LINE
  5
4B5
  8
0
  6
CONTINUOUS
 62
     7
 10
91.4549301807762
 20
639.9174225851946
 30
0.0
 11
91.45058112690077
 21
639.906534027251
 31
0.0
  0
LINE
  5
4B6
  8
0
  6
CONTINUOUS
 62
     7
 10
91.45058112690077
 20
639.906534027251
 30
0.0
 11
91.44577608023297
 21
639.8958504896028
 31
0.0
  0
LINE
  5
4B7
  8
0
  6
CONTINUOUS
 62
     7
 10
91.44577608023297
 20
639.8958504896028
 30
0.0
 11
91.44034522930839
 21
639.8850634134574
 31
0.0
  0
LINE
  5
4B8
  8
0
  6
CONTINUOUS
 62
     7
 10
91.44034522930839
 20
639.8850634134574
 30
0.0
 11
91.43443340124843
 21
639.8745183325907
 31
0.0
  0
LINE
  5
4B9
  8
0
  6
CONTINUOUS
 62
     7
 10
91.43443340124843
 20
639.8745183325907
 30
0.0
 11
91.42805566196465
 21
639.8642487267678
 31
0.0
  0
LINE
  5
4BA
  8
0
  6
CONTINUOUS
 62
     7
 10
91.42805566196465
 20
639.8642487267678
 30
0.0
 11
91.42122707736853
 21
639.8542880757531
 31
0.0
  0
LINE
  5
4BB
  8
0
  6
CONTINUOUS
 62
     7
 10
91.42122707736853
 20
639.8542880757531
 30
0.0
 11
91.41441338708627
 21
639.8452374871531
 31
0.0
  0
LINE
  5
4BC
  8
0
  6
CONTINUOUS
 62
     7
 10
91.41441338708627
 20
639.8452374871531
 30
0.0
 11
91.40720928600408
 21
639.8364806548786
 31
0.0
  0
LINE
  5
4BD
  8
0
  6
CONTINUOUS
 62
     7
 10
91.40720928600408
 20
639.8364806548786
 30
0.0
 11
91.39963269511385
 21
639.8280444636238
 31
0.0
  0
LINE
  5
4BE
  8
0
  6
CONTINUOUS
 62
     7
 10
91.39963269511385
 20
639.8280444636238
 30
0.0
 11
91.39170153540755
 21
639.8199557980827
 31
0.0
  0
LINE
  5
4BF
  8
0
  6
CONTINUOUS
 62
     7
 10
91.39170153540755
 20
639.8199557980827
 30
0.0
 11
91.38314226750461
 21
639.8119797447554
 31
0.0
  0
LINE
  5
4C0
  8
0
  6
CONTINUOUS
 62
     7
 10
91.38314226750461
 20
639.8119797447554
 30
0.0
 11
91.37421578677773
 21
639.8043975208493
 31
0.0
  0
LINE
  5
4C1
  8
0
  6
CONTINUOUS
 62
     7
 10
91.37421578677773
 20
639.8043975208493
 30
0.0
 11
91.36494858486806
 21
639.7972363622139
 31
0.0
  0
LINE
  5
4C2
  8
0
  6
CONTINUOUS
 62
     7
 10
91.36494858486806
 20
639.7972363622139
 30
0.0
 11
91.35536715341682
 21
639.7905235046981
 31
0.0
  0
LINE
  5
4C3
  8
0
  6
CONTINUOUS
 62
     7
 10
91.35536715341682
 20
639.7905235046981
 30
0.0
 11
91.34636938324479
 21
639.7848082442463
 31
0.0
  0
LINE
  5
4C4
  8
0
  6
CONTINUOUS
 62
     7
 10
91.34636938324479
 20
639.7848082442463
 30
0.0
 11
91.33712416385792
 21
639.7794823608324
 31
0.0
  0
LINE
  5
4C5
  8
0
  6
CONTINUOUS
 62
     7
 10
91.33712416385792
 20
639.7794823608324
 30
0.0
 11
91.3276566112558
 21
639.774563075965
 31
0.0
  0
LINE
  5
4C6
  8
0
  6
CONTINUOUS
 62
     7
 10
91.3276566112558
 20
639.774563075965
 30
0.0
 11
91.31799184143807
 21
639.7700676111532
 31
0.0
  0
LINE
  5
4C7
  8
0
  6
CONTINUOUS
 62
     7
 10
91.31799184143807
 20
639.7700676111532
 30
0.0
 11
91.30781236701212
 21
639.7658792584027
 31
0.0
  0
LINE
  5
4C8
  8
0
  6
CONTINUOUS
 62
     7
 10
91.30781236701212
 20
639.7658792584027
 30
0.0
 11
91.297440868395
 21
639.7621573576083
 31
0.0
  0
LINE
  5
4C9
  8
0
  6
CONTINUOUS
 62
     7
 10
91.297440868395
 20
639.7621573576083
 30
0.0
 11
91.2869097262693
 21
639.7589152934645
 31
0.0
  0
LINE
  5
4CA
  8
0
  6
CONTINUOUS
 62
     7
 10
91.2869097262693
 20
639.7589152934645
 30
0.0
 11
91.2762513213176
 21
639.7561664506665
 31
0.0
  0
LINE
  5
4CB
  8
0
  6
CONTINUOUS
 62
     7
 10
91.2762513213176
 20
639.7561664506665
 30
0.0
 11
91.26569463073226
 21
639.7539592602893
 31
0.0
  0
LINE
  5
4CC
  8
0
  6
CONTINUOUS
 62
     7
 10
91.26569463073226
 20
639.7539592602893
 30
0.0
 11
91.25503129341459
 21
639.7522342455852
 31
0.0
  0
LINE
  5
4CD
  8
0
  6
CONTINUOUS
 62
     7
 10
91.25503129341459
 20
639.7522342455852
 30
0.0
 11
91.24429487424283
 21
639.7509961810028
 31
0.0
  0
LINE
  5
4CE
  8
0
  6
CONTINUOUS
 62
     7
 10
91.24429487424283
 20
639.7509961810028
 30
0.0
 11
91.2335189380952
 21
639.7502498409909
 31
0.0
  0
LINE
  5
4CF
  8
0
  6
CONTINUOUS
 62
     7
 10
91.2335189380952
 20
639.7502498409909
 30
0.0
 11
91.22273704984948
 21
639.7500000000001
 31
0.0
  0
LINE
  5
4D0
  8
0
  6
CONTINUOUS
 62
     7
 10
91.22273704984948
 20
640.2500000000001
 30
0.0
 11
91.23265706633933
 21
640.249789539636
 31
0.0
  0
LINE
  5
4D1
  8
0
  6
CONTINUOUS
 62
     7
 10
91.23265706633933
 20
640.249789539636
 30
0.0
 11
91.24256818864319
 21
640.2491599937395
 31
0.0
  0
LINE
  5
4D2
  8
0
  6
CONTINUOUS
 62
     7
 10
91.24256818864319
 20
640.2491599937395
 30
0.0
 11
91.25244409952484
 21
640.2481141151031
 31
0.0
  0
LINE
  5
4D3
  8
0
  6
CONTINUOUS
 62
     7
 10
91.25244409952484
 20
640.2481141151031
 30
0.0
 11
91.26225848174802
 21
640.2466546565207
 31
0.0
  0
LINE
  5
4D4
  8
0
  6
CONTINUOUS
 62
     7
 10
91.26225848174802
 20
640.2466546565207
 30
0.0
 11
91.27229116641182
 21
640.2447203113325
 31
0.0
  0
LINE
  5
4D5
  8
0
  6
CONTINUOUS
 62
     7
 10
91.27229116641182
 20
640.2447203113325
 30
0.0
 11
91.28224029525855
 21
640.2423527721893
 31
0.0
  0
LINE
  5
4D6
  8
0
  6
CONTINUOUS
 62
     7
 10
91.28224029525855
 20
640.2423527721893
 30
0.0
 11
91.29207887532466
 21
640.2395607531945
 31
0.0
  0
LINE
  5
4D7
  8
0
  6
CONTINUOUS
 62
     7
 10
91.29207887532466
 20
640.2395607531945
 30
0.0
 11
91.30177991364656
 21
640.2363529684513
 31
0.0
  0
LINE
  5
4D8
  8
0
  6
CONTINUOUS
 62
     7
 10
91.30177991364656
 20
640.2363529684513
 30
0.0
 11
91.31105858346103
 21
640.2328440216626
 31
0.0
  0
LINE
  5
4D9
  8
0
  6
CONTINUOUS
 62
     7
 10
91.31105858346103
 20
640.2328440216626
 30
0.0
 11
91.32019256531956
 21
640.2289526200119
 31
0.0
  0
LINE
  5
4DA
  8
0
  6
CONTINUOUS
 62
     7
 10
91.32019256531956
 20
640.2289526200119
 30
0.0
 11
91.32916000016083
 21
640.224691040611
 31
0.0
  0
LINE
  5
4DB
  8
0
  6
CONTINUOUS
 62
     7
 10
91.32916000016083
 20
640.224691040611
 30
0.0
 11
91.33793902892356
 21
640.2200715605713
 31
0.0
  0
LINE
  5
4DC
  8
0
  6
CONTINUOUS
 62
     7
 10
91.33793902892356
 20
640.2200715605713
 30
0.0
 11
91.34675758516207
 21
640.2149564919347
 31
0.0
  0
LINE
  5
4DD
  8
0
  6
CONTINUOUS
 62
     7
 10
91.34675758516207
 20
640.2149564919347
 30
0.0
 11
91.35536442676123
 21
640.2094765548104
 31
0.0
  0
LINE
  5
4DE
  8
0
  6
CONTINUOUS
 62
     7
 10
91.35536442676123
 20
640.2094765548104
 30
0.0
 11
91.36373967485586
 21
640.2036484277261
 31
0.0
  0
LINE
  5
4DF
  8
0
  6
CONTINUOUS
 62
     7
 10
91.36373967485586
 20
640.2036484277261
 30
0.0
 11
91.37186345058079
 21
640.1974887892092
 31
0.0
  0
LINE
  5
4E0
  8
0
  6
CONTINUOUS
 62
     7
 10
91.37186345058079
 20
640.1974887892092
 30
0.0
 11
91.37971948219248
 21
640.191013266917
 31
0.0
  0
LINE
  5
4E1
  8
0
  6
CONTINUOUS
 62
     7
 10
91.37971948219248
 20
640.191013266917
 30
0.0
 11
91.38731531447141
 21
640.1842221826804
 31
0.0
  0
LINE
  5
4E2
  8
0
  6
CONTINUOUS
 62
     7
 10
91.38731531447141
 20
640.1842221826804
 30
0.0
 11
91.39463521096945
 21
640.1771342325138
 31
0.0
  0
LINE
  5
4E3
  8
0
  6
CONTINUOUS
 62
     7
 10
91.39463521096945
 20
640.1771342325138
 30
0.0
 11
91.40166343523853
 21
640.1697681124316
 31
0.0
  0
LINE
  5
4E4
  8
0
  6
CONTINUOUS
 62
     7
 10
91.40166343523853
 20
640.1697681124316
 30
0.0
 11
91.40856702834368
 21
640.1619286432515
 31
0.0
  0
LINE
  5
4E5
  8
0
  6
CONTINUOUS
 62
     7
 10
91.40856702834368
 20
640.1619286432515
 30
0.0
 11
91.41515682322905
 21
640.1538129299298
 31
0.0
  0
LINE
  5
4E6
  8
0
  6
CONTINUOUS
 62
     7
 10
91.41515682322905
 20
640.1538129299298
 30
0.0
 11
91.42141999254358
 21
640.1454422979311
 31
0.0
  0
LINE
  5
4E7
  8
0
  6
CONTINUOUS
 62
     7
 10
91.42141999254358
 20
640.1454422979311
 30
0.0
 11
91.4273437089362
 21
640.1368380727203
 31
0.0
  0
LINE
  5
4E8
  8
0
  6
CONTINUOUS
 62
     7
 10
91.4273437089362
 20
640.1368380727203
 30
0.0
 11
91.43308943326474
 21
640.1277356395021
 31
0.0
  0
LINE
  5
4E9
  8
0
  6
CONTINUOUS
 62
     7
 10
91.43308943326474
 20
640.1277356395021
 30
0.0
 11
91.43847023279315
 21
640.118402929506
 31
0.0
  0
LINE
  5
4EA
  8
0
  6
CONTINUOUS
 62
     7
 10
91.43847023279315
 20
640.118402929506
 30
0.0
 11
91.4434761839416
 21
640.1088636805824
 31
0.0
  0
LINE
  5
4EB
  8
0
  6
CONTINUOUS
 62
     7
 10
91.4434761839416
 20
640.1088636805824
 30
0.0
 11
91.44809736313023
 21
640.0991416305816
 31
0.0
  0
LINE
  5
4EC
  8
0
  6
CONTINUOUS
 62
     7
 10
91.44809736313023
 20
640.0991416305816
 30
0.0
 11
91.45243667208916
 21
640.0889848228205
 31
0.0
  0
LINE
  5
4ED
  8
0
  6
CONTINUOUS
 62
     7
 10
91.45243667208916
 20
640.0889848228205
 30
0.0
 11
91.45636827287007
 21
640.0786538806519
 31
0.0
  0
LINE
  5
4EE
  8
0
  6
CONTINUOUS
 62
     7
 10
91.45636827287007
 20
640.0786538806519
 30
0.0
 11
91.45988531051628
 21
640.068174385854
 31
0.0
  0
LINE
  5
4EF
  8
0
  6
CONTINUOUS
 62
     7
 10
91.45988531051628
 20
640.068174385854
 30
0.0
 11
91.46298093007115
 21
640.0575719202045
 31
0.0
  0
LINE
  5
4F0
  8
0
  6
CONTINUOUS
 62
     7
 10
91.46298093007115
 20
640.0575719202045
 30
0.0
 11
91.4664213310759
 21
640.0433891426572
 31
0.0
  0
LINE
  5
4F1
  8
0
  6
CONTINUOUS
 62
     7
 10
91.4664213310759
 20
640.0433891426572
 30
0.0
 11
91.46912311075953
 21
640.0290272391984
 31
0.0
  0
LINE
  5
4F2
  8
0
  6
CONTINUOUS
 62
     7
 10
91.46912311075953
 20
640.0290272391984
 30
0.0
 11
91.47107927819978
 21
640.0145446961913
 31
0.0
  0
LINE
  5
4F3
  8
0
  6
CONTINUOUS
 62
     7
 10
91.47107927819978
 20
640.0145446961913
 30
0.0
 11
91.47228284247448
 21
639.9999999999991
 31
0.0
  0
LINE
  5
4F4
  8
0
  6
CONTINUOUS
 62
     7
 10
74.53973134215106
 20
639.7500000000001
 30
0.0
 11
66.63124119019406
 21
626.0520932456525
 31
0.0
  0
LINE
  5
4F5
  8
0
  6
CONTINUOUS
 62
     7
 10
74.97274404404328
 20
640.5
 30
0.0
 11
67.06425389208626
 21
654.1979067543477
 31
0.0
  0
LINE
  5
4F6
  8
0
  6
CONTINUOUS
 62
     7
 10
74.53973134215106
 20
640.2500000000001
 30
0.0
 11
58.72275103823706
 21
640.2500000000001
 31
0.0
  0
LINE
  5
4F7
  8
0
  6
CONTINUOUS
 62
     7
 10
75.40575674593549
 20
639.7500000000001
 30
0.0
 11
91.22273704984948
 21
639.7500000000001
 31
0.0
  0
LINE
  5
4F8
  8
0
  6
CONTINUOUS
 62
     7
 10
74.97274404404328
 20
639.5000000000001
 30
0.0
 11
82.88123419600028
 21
625.8020932456525
 31
0.0
  0
LINE
  5
4F9
  8
0
  6
CONTINUOUS
 62
     7
 10
58.72275103823706
 20
639.7500000000001
 30
0.0
 11
74.53973134215106
 21
639.7500000000001
 31
0.0
  0
LINE
  5
4FA
  8
0
  6
CONTINUOUS
 62
     7
 10
82.88123419600026
 20
654.1979067543477
 30
0.0
 11
74.97274404404328
 21
640.5
 31
0.0
  0
LINE
  5
4FB
  8
0
  6
CONTINUOUS
 62
     7
 10
91.22273704984948
 20
640.2500000000001
 30
0.0
 11
75.40575674593549
 21
640.2500000000001
 31
0.0
  0
LINE
  5
4FC
  8
0
  6
CONTINUOUS
 62
     7
 10
67.06425389208628
 20
625.8020932456525
 30
0.0
 11
74.97274404404328
 21
639.5000000000001
 31
0.0
  0
LINE
  5
4FD
  8
0
  6
CONTINUOUS
 62
     7
 10
83.31424689789249
 20
626.0520932456525
 30
0.0
 11
75.40575674593549
 21
639.7500000000001
 31
0.0
  0
LINE
  5
4FE
  8
0
  6
CONTINUOUS
 62
     7
 10
66.63124119019405
 20
653.9479067543477
 30
0.0
 11
74.53973134215106
 21
640.2500000000001
 31
0.0
  0
LINE
  5
4FF
  8
0
  6
CONTINUOUS
 62
     7
 10
75.40575674593549
 20
640.2500000000001
 30
0.0
 11
83.31424689789249
 21
653.9479067543477
 31
0.0
  0
LINE
  5
500
  8
0
  6
CONTINUOUS
 62
   253
 10
106.778186080583
 20
660.5000000000001
 30
0.0
 11
106.778186080583
 21
640.276164369223
 31
0.0
  0
LINE
  5
501
  8
0
  6
CONTINUOUS
 62
     7
 10
105.778186080583
 20
620.5000000000001
 30
0.0
 11
105.778186080583
 21
639.732562269562
 31
0.0
  0
LINE
  5
502
  8
0
  6
CONTINUOUS
 62
     7
 10
105.778186080583
 20
640.2674377304382
 30
0.0
 11
105.778186080583
 21
659.5000000000002
 31
0.0
  0
LINE
  5
503
  8
0
  6
CONTINUOUS
 62
     7
 10
106.778186080583
 20
639.7238356307771
 30
0.0
 11
105.778186080583
 21
639.732562269562
 31
0.0
  0
LINE
  5
504
  8
0
  6
CONTINUOUS
 62
   253
 10
106.778186080583
 20
639.7238356307771
 30
0.0
 11
106.778186080583
 21
619.5000000000001
 31
0.0
  0
LINE
  5
505
  8
0
  6
CONTINUOUS
 62
     7
 10
106.778186080583
 20
640.276164369223
 30
0.0
 11
105.778186080583
 21
640.2674377304382
 31
0.0
  0
LINE
  5
506
  8
0
  6
CONTINUOUS
 62
     7
 10
106.778186080583
 20
640.276164369223
 30
0.0
 11
109.278186080583
 21
640.276164369223
 31
0.0
  0
LINE
  5
507
  8
0
  6
CONTINUOUS
 62
     7
 10
109.278186080583
 20
640.276164369223
 30
0.0
 11
109.278186080583
 21
640.258711080487
 31
0.0
  0
LINE
  5
508
  8
0
  6
CONTINUOUS
 62
     7
 10
109.278186080583
 20
640.258711080487
 30
0.0
 11
120.778186080583
 21
640.258711080487
 31
0.0
  0
LINE
  5
509
  8
0
  6
CONTINUOUS
 62
     7
 10
120.778186080583
 20
640.258711080487
 30
0.0
 11
124.278186080583
 21
640.2521660845604
 31
0.0
  0
LINE
  5
50A
  8
0
  6
CONTINUOUS
 62
     7
 10
124.278186080583
 20
640.2521660845605
 30
0.0
 11
124.278186080583
 21
640.2500000000002
 31
0.0
  0
LINE
  5
50B
  8
0
  6
CONTINUOUS
 62
     7
 10
124.278186080583
 20
640.2500000000001
 30
0.0
 11
105.8330916814019
 21
640.2500000000001
 31
0.0
  0
LINE
  5
50C
  8
0
  6
CONTINUOUS
 62
     7
 10
105.778186080583
 20
640.2525417585399
 30
0.0
 11
105.8330916814019
 21
640.2500000000001
 31
0.0
  0
LINE
  5
50D
  8
0
  6
CONTINUOUS
 62
     7
 10
105.778186080583
 20
640.2525417585399
 30
0.0
 11
105.778186080583
 21
640.2674377304382
 31
0.0
  0
LINE
  5
50E
  8
0
  6
CONTINUOUS
 62
     7
 10
105.778186080583
 20
639.7474582414603
 30
0.0
 11
105.778186080583
 21
639.732562269562
 31
0.0
  0
LINE
  5
50F
  8
0
  6
CONTINUOUS
 62
     7
 10
105.778186080583
 20
639.7474582414603
 30
0.0
 11
105.8330916814017
 21
639.7500000000001
 31
0.0
  0
LINE
  5
510
  8
0
  6
CONTINUOUS
 62
     7
 10
124.278186080583
 20
639.7500000000001
 30
0.0
 11
105.8330916814017
 21
639.7500000000001
 31
0.0
  0
LINE
  5
511
  8
0
  6
CONTINUOUS
 62
     7
 10
124.278186080583
 20
639.7478339154397
 30
0.0
 11
124.278186080583
 21
639.75
 31
0.0
  0
LINE
  5
512
  8
0
  6
CONTINUOUS
 62
     7
 10
120.778186080583
 20
639.7412889195132
 30
0.0
 11
124.278186080583
 21
639.7478339154399
 31
0.0
  0
LINE
  5
513
  8
0
  6
CONTINUOUS
 62
     7
 10
109.278186080583
 20
639.7412889195132
 30
0.0
 11
120.778186080583
 21
639.7412889195132
 31
0.0
  0
LINE
  5
514
  8
0
  6
CONTINUOUS
 62
     7
 10
109.278186080583
 20
639.7238356307771
 30
0.0
 11
109.278186080583
 21
639.7412889195132
 31
0.0
  0
LINE
  5
515
  8
0
  6
CONTINUOUS
 62
     7
 10
106.778186080583
 20
639.7238356307771
 30
0.0
 11
109.278186080583
 21
639.7238356307771
 31
0.0
  0
LINE
  5
516
  8
0
  6
CONTINUOUS
 62
     7
 10
109.278186080583
 20
619.5000000000001
 30
0.0
 11
109.278186080583
 21
639.7238356307771
 31
0.0
  0
LINE
  5
517
  8
0
  6
CONTINUOUS
 62
     7
 10
109.278186080583
 20
640.276164369223
 30
0.0
 11
109.278186080583
 21
660.5000000000001
 31
0.0
  0
LINE
  5
518
  8
0
  6
CONTINUOUS
 62
     7
 10
124.278186080583
 20
622.2500000000001
 30
0.0
 11
124.278186080583
 21
639.7478339154397
 31
0.0
  0
LINE
  5
519
  8
0
  6
CONTINUOUS
 62
     7
 10
120.778186080583
 20
621.5000000000001
 30
0.0
 11
120.778186080583
 21
639.7412889195132
 31
0.0
  0
LINE
  5
51A
  8
0
  6
CONTINUOUS
 62
     7
 10
124.278186080583
 20
640.2521660845605
 30
0.0
 11
124.278186080583
 21
657.7500000000001
 31
0.0
  0
LINE
  5
51B
  8
0
  6
CONTINUOUS
 62
     7
 10
120.778186080583
 20
640.258711080487
 30
0.0
 11
120.778186080583
 21
658.5000000000001
 31
0.0
  0
LINE
  5
51C
  8
0
  6
CONTINUOUS
 62
     7
 10
105.8330916814017
 20
639.7500000000001
 30
0.0
 11
105.8330916814019
 21
640.2500000000002
 31
0.0
  0
LINE
  5
51D
  8
0
  6
CONTINUOUS
 62
     7
 10
124.278186080583
 20
639.7500000000001
 30
0.0
 11
124.278186080583
 21
640.2500000000001
 31
0.0
  0
ARC
  5
51E
  8
0
  6
CONTINUOUS
 62
     7
 10
106.778186080583
 20
659.5000000000001
 30
0.0
 40
1.000000000000001
 50
90.0
 51
180.0
  0
ARC
  5
51F
  8
0
  6
CONTINUOUS
 62
     7
 10
106.778186080583
 20
620.5000000000001
 30
0.0
 40
0.9999999999999991
 50
180.0
 51
270.0
  0
LINE
  5
520
  8
0
  6
CONTINUOUS
 62
     7
 10
106.778186080583
 20
619.5000000000001
 30
0.0
 11
109.278186080583
 21
619.5000000000001
 31
0.0
  0
LINE
  5
521
  8
0
  6
CONTINUOUS
 62
     7
 10
109.278186080583
 20
660.5000000000001
 30
0.0
 11
106.778186080583
 21
660.5000000000001
 31
0.0
  0
LINE
  5
522
  8
0
  6
CONTINUOUS
 62
     7
 10
120.778186080583
 20
621.5000000000001
 30
0.0
 11
124.278186080583
 21
622.2500000000002
 31
0.0
  0
LINE
  5
523
  8
0
  6
CONTINUOUS
 62
     7
 10
124.278186080583
 20
657.7500000000001
 30
0.0
 11
120.778186080583
 21
658.5000000000002
 31
0.0
  0
LINE
  5
524
  8
0
  6
CONTINUOUS
 62
     7
 10
109.278186080583
 20
621.5000000000001
 30
0.0
 11
120.778186080583
 21
621.5000000000001
 31
0.0
  0
LINE
  5
525
  8
0
  6
CONTINUOUS
 62
     7
 10
120.778186080583
 20
658.5000000000001
 30
0.0
 11
109.278186080583
 21
658.5000000000001
 31
0.0
  0
ENDSEC
  0
EOF
