  0
SECTION
  2
HEADER
  9
$ACADVER
  1
AC1014
  9
$ACADMAINTVER
 70
     9
  9
$DWGCODEPAGE
  3
ANSI_932
  9
$INSBASE
 10
0.0
 20
0.0
 30
0.0
  9
$EXTMIN
 10
-509.5000000000001
 20
278.7772727272727
 30
0.0
  9
$EXTMAX
 10
-285.9999999999999
 20
480.7499999999999
 30
0.0
  9
$LIMMIN
 10
0.0
 20
0.0
  9
$LIMMAX
 10
12.0
 20
9.0
  9
$ORTHOMODE
 70
     0
  9
$REGENMODE
 70
     1
  9
$FILLMODE
 70
     1
  9
$QTEXTMODE
 70
     0
  9
$MIRRTEXT
 70
     1
  9
$DRAGMODE
 70
     2
  9
$LTSCALE
 40
1.0
  9
$OSMODE
 70
    37
  9
$ATTMODE
 70
     1
  9
$TEXTSIZE
 40
0.2
  9
$TRACEWID
 40
0.05
  9
$TEXTSTYLE
  7
STANDARD
  9
$CLAYER
  8
0
  9
$CELTYPE
  6
BYLAYER
  9
$CECOLOR
 62
   256
  9
$CELTSCALE
 40
1.0
  9
$DELOBJ
 70
     1
  9
$DISPSILH
 70
     0
  9
$DIMSCALE
 40
1.0
  9
$DIMASZ
 40
3.0
  9
$DIMEXO
 40
0.0625
  9
$DIMDLI
 40
0.38
  9
$DIMRND
 40
0.0
  9
$DIMDLE
 40
0.0
  9
$DIMEXE
 40
1.5
  9
$DIMTP
 40
0.0
  9
$DIMTM
 40
0.0
  9
$DIMTXT
 40
3.0
  9
$DIMCEN
 40
0.09
  9
$DIMTSZ
 40
0.0
  9
$DIMTOL
 70
     0
  9
$DIMLIM
 70
     0
  9
$DIMTIH
 70
     1
  9
$DIMTOH
 70
     1
  9
$DIMSE1
 70
     0
  9
$DIMSE2
 70
     0
  9
$DIMTAD
 70
     1
  9
$DIMZIN
 70
     0
  9
$DIMBLK
  1

  9
$DIMASO
 70
     1
  9
$DIMSHO
 70
     1
  9
$DIMPOST
  1

  9
$DIMAPOST
  1

  9
$DIMALT
 70
     0
  9
$DIMALTD
 70
     2
  9
$DIMALTF
 40
25.4
  9
$DIMLFAC
 40
1.0
  9
$DIMTOFL
 70
     0
  9
$DIMTVP
 40
0.0
  9
$DIMTIX
 70
     0
  9
$DIMSOXD
 70
     0
  9
$DIMSAH
 70
     0
  9
$DIMBLK1
  1

  9
$DIMBLK2
  1

  9
$DIMSTYLE
  2
STANDARD
  9
$DIMCLRD
 70
     0
  9
$DIMCLRE
 70
     0
  9
$DIMCLRT
 70
     0
  9
$DIMTFAC
 40
1.0
  9
$DIMGAP
 40
1.5
  9
$DIMJUST
 70
     0
  9
$DIMSD1
 70
     0
  9
$DIMSD2
 70
     0
  9
$DIMTOLJ
 70
     1
  9
$DIMTZIN
 70
     0
  9
$DIMALTZ
 70
     0
  9
$DIMALTTZ
 70
     0
  9
$DIMFIT
 70
     3
  9
$DIMUPT
 70
     0
  9
$DIMUNIT
 70
     2
  9
$DIMDEC
 70
     2
  9
$DIMTDEC
 70
     4
  9
$DIMALTU
 70
     2
  9
$DIMALTTD
 70
     2
  9
$DIMTXSTY
  7
ＭＳ_ゴシック
  9
$DIMAUNIT
 70
     0
  9
$LUNITS
 70
     2
  9
$LUPREC
 70
     4
  9
$SKETCHINC
 40
0.1
  9
$FILLETRAD
 40
0.5
  9
$AUNITS
 70
     0
  9
$AUPREC
 70
     0
  9
$MENU
  1
.
  9
$ELEVATION
 40
0.0
  9
$PELEVATION
 40
0.0
  9
$THICKNESS
 40
0.0
  9
$LIMCHECK
 70
     0
  9
$CHAMFERA
 40
0.0
  9
$CHAMFERB
 40
0.0
  9
$CHAMFERC
 40
0.0
  9
$CHAMFERD
 40
0.0
  9
$SKPOLY
 70
     0
  9
$TDCREATE
 40
2460662.809858507
  9
$TDUPDATE
 40
2460662.809858669
  9
$TDINDWG
 40
0.0000000116
  9
$TDUSRTIMER
 40
0.0000000116
  9
$USRTIMER
 70
     1
  9
$ANGBASE
 50
0.0
  9
$ANGDIR
 70
     0
  9
$PDMODE
 70
     0
  9
$PDSIZE
 40
0.0
  9
$PLINEWID
 40
0.0
  9
$COORDS
 70
     1
  9
$SPLFRAME
 70
     0
  9
$SPLINETYPE
 70
     6
  9
$SPLINESEGS
 70
     8
  9
$ATTDIA
 70
     0
  9
$ATTREQ
 70
     1
  9
$HANDLING
 70
     1
  9
$HANDSEED
  5
1F8
  9
$SURFTAB1
 70
     6
  9
$SURFTAB2
 70
     6
  9
$SURFTYPE
 70
     6
  9
$SURFU
 70
     6
  9
$SURFV
 70
     6
  9
$UCSNAME
  2

  9
$UCSORG
 10
0.0
 20
0.0
 30
0.0
  9
$UCSXDIR
 10
1.0
 20
0.0
 30
0.0
  9
$UCSYDIR
 10
0.0
 20
1.0
 30
0.0
  9
$PUCSNAME
  2

  9
$PUCSORG
 10
0.0
 20
0.0
 30
0.0
  9
$PUCSXDIR
 10
1.0
 20
0.0
 30
0.0
  9
$PUCSYDIR
 10
0.0
 20
1.0
 30
0.0
  9
$USERI1
 70
     0
  9
$USERI2
 70
     0
  9
$USERI3
 70
     0
  9
$USERI4
 70
     0
  9
$USERI5
 70
     0
  9
$USERR1
 40
0.0
  9
$USERR2
 40
0.0
  9
$USERR3
 40
0.0
  9
$USERR4
 40
0.0
  9
$USERR5
 40
0.0
  9
$WORLDVIEW
 70
     1
  9
$SHADEDGE
 70
     3
  9
$SHADEDIF
 70
    70
  9
$TILEMODE
 70
     1
  9
$MAXACTVP
 70
    64
  9
$PINSBASE
 10
0.0
 20
0.0
 30
0.0
  9
$PLIMCHECK
 70
     0
  9
$PEXTMIN
 10
1.000000000000000E+20
 20
1.000000000000000E+20
 30
1.000000000000000E+20
  9
$PEXTMAX
 10
-1.000000000000000E+20
 20
-1.000000000000000E+20
 30
-1.000000000000000E+20
  9
$PLIMMIN
 10
0.0
 20
0.0
  9
$PLIMMAX
 10
12.0
 20
9.0
  9
$UNITMODE
 70
     0
  9
$VISRETAIN
 70
     1
  9
$PLINEGEN
 70
     0
  9
$PSLTSCALE
 70
     1
  9
$TREEDEPTH
 70
  3020
  9
$PICKSTYLE
 70
     1
  9
$CMLSTYLE
  2
STANDARD
  9
$CMLJUST
 70
     0
  9
$CMLSCALE
 40
1.0
  9
$PROXYGRAPHICS
 70
     1
  9
$MEASUREMENT
 70
     1
  0
ENDSEC
  0
SECTION
  2
CLASSES
  0
CLASS
  1
ACDBDICTIONARYWDFLT
  2
AcDbDictionaryWithDefault
  3
ObjectDBX Classes
 90
        0
280
     0
281
     0
  0
CLASS
  1
VISUALSTYLE
  2
AcDbVisualStyle
  3
ObjectDBX Classes
 90
     4095
280
     0
281
     0
  0
CLASS
  1
MATERIAL
  2
AcDbMaterial
  3
ObjectDBX Classes
 90
     1153
280
     0
281
     0
  0
CLASS
  1
SCALE
  2
AcDbScale
  3
ObjectDBX Classes
 90
     1153
280
     0
281
     0
  0
CLASS
  1
TABLESTYLE
  2
AcDbTableStyle
  3
ObjectDBX Classes
 90
     4095
280
     0
281
     0
  0
CLASS
  1
MLEADERSTYLE
  2
AcDbMLeaderStyle
  3
ACDB_MLEADERSTYLE_CLASS
 90
     4095
280
     0
281
     0
  0
CLASS
  1
SUN
  2
AcDbSun
  3
SCENEOE
 90
     1153
280
     0
281
     0
  0
CLASS
  1
DICTIONARYVAR
  2
AcDbDictionaryVar
  3
ObjectDBX Classes
 90
        0
280
     0
281
     0
  0
CLASS
  1
XRECORD
  2
AcDbXrecord
  3
ObjectDBX Classes
 90
        0
280
     0
281
     0
  0
CLASS
  1
LWPOLYLINE
  2
AcDbPolyline
  3
ObjectDBX Classes
 90
        0
280
     0
281
     1
  0
CLASS
  1
HATCH
  2
AcDbHatch
  3
ObjectDBX Classes
 90
        0
280
     0
281
     1
  0
CLASS
  1
ACDBPLACEHOLDER
  2
AcDbPlaceHolder
  3
ObjectDBX Classes
 90
        0
280
     0
281
     0
  0
CLASS
  1
LAYOUT
  2
AcDbLayout
  3
ObjectDBX Classes
 90
        0
280
     0
281
     0
  0
ENDSEC
  0
SECTION
  2
TABLES
  0
TABLE
  2
VPORT
  5
8
102
{ACAD_XDICTIONARY
360
1ED
102
}
330
0
100
AcDbSymbolTable
 70
     1
  0
VPORT
  5
29
330
8
100
AcDbSymbolTableRecord
100
AcDbViewportTableRecord
  2
*ACTIVE
 70
     0
 10
0.0
 20
0.0
 11
1.0
 21
1.0
 12
-397.75
 22
379.7636363636364
 13
0.0
 23
0.0
 14
0.5
 24
0.5
 15
0.5
 25
0.5
 16
0.0
 26
0.0
 36
1.0
 17
0.0
 27
0.0
 37
0.0
 40
201.9727272727272
 41
1.6
 42
50.0
 43
0.0
 44
0.0
 50
0.0
 51
0.0
 71
     0
 72
   100
 73
     1
 74
     3
 75
     0
 76
     0
 77
     0
 78
     0
  0
ENDTAB
  0
TABLE
  2
LTYPE
  5
5
330
0
100
AcDbSymbolTable
 70
     2
  0
LTYPE
  5
14
330
5
100
AcDbSymbolTableRecord
100
AcDbLinetypeTableRecord
  2
BYBLOCK
 70
     0
  3

 72
    65
 73
     0
 40
0.0
  0
LTYPE
  5
15
330
5
100
AcDbSymbolTableRecord
100
AcDbLinetypeTableRecord
  2
BYLAYER
 70
     0
  3

 72
    65
 73
     0
 40
0.0
  0
LTYPE
  5
16
330
5
100
AcDbSymbolTableRecord
100
AcDbLinetypeTableRecord
  2
CONTINUOUS
 70
     0
  3
Solid line
 72
    65
 73
     0
 40
0.0
  0
LTYPE
  5
70
330
5
100
AcDbSymbolTableRecord
100
AcDbLinetypeTableRecord
  2
CENTER
 70
     0
  3

 72
    65
 73
     0
 40
0.0
  0
ENDTAB
  0
TABLE
  2
LAYER
  5
2
330
0
100
AcDbSymbolTable
 70
     1
  0
LAYER
  5
10
330
2
100
AcDbSymbolTableRecord
100
AcDbLayerTableRecord
  2
0
 70
     0
 62
     7
  6
CONTINUOUS
  0
ENDTAB
  0
TABLE
  2
STYLE
  5
3
330
0
100
AcDbSymbolTable
 70
     2
  0
STYLE
  5
11
330
3
100
AcDbSymbolTableRecord
100
AcDbTextStyleTableRecord
  2
STANDARD
 70
     0
 40
0.0
 41
1.0
 50
0.0
 71
     0
 42
0.2
  3
txt
  4

  0
STYLE
  5
6E
330
3
100
AcDbSymbolTableRecord
100
AcDbTextStyleTableRecord
  2
ＭＳ_ゴシック
 70
     0
 40
0.0
 41
1.0
 50
0.0
 71
     0
 42
0.2
  3
ＭＳ ゴシック.shx
  4

  0
ENDTAB
  0
TABLE
  2
VIEW
  5
6
330
0
100
AcDbSymbolTable
 70
     0
  0
ENDTAB
  0
TABLE
  2
UCS
  5
7
330
0
100
AcDbSymbolTable
 70
     0
  0
ENDTAB
  0
TABLE
  2
APPID
  5
9
330
0
100
AcDbSymbolTable
 70
     2
  0
APPID
  5
12
330
9
100
AcDbSymbolTableRecord
100
AcDbRegAppTableRecord
  2
ACAD
 70
     0
  0
APPID
  5
1F7
330
9
100
AcDbSymbolTableRecord
100
AcDbRegAppTableRecord
  2
ACAD_MLEADERVER
 70
     0
  0
ENDTAB
  0
TABLE
  2
DIMSTYLE
  5
A
330
0
100
AcDbSymbolTable
 70
     1
  0
DIMSTYLE
105
27
330
A
100
AcDbSymbolTableRecord
100
AcDbDimStyleTableRecord
  2
STANDARD
 70
     0
  3

  4

  5

  6

  7

 40
1.0
 41
0.18
 42
0.0625
 43
0.38
 44
0.18
 45
0.0
 46
0.0
 47
0.0
 48
0.0
140
0.18
141
0.09
142
0.0
143
25.4
144
1.0
145
0.0
146
1.0
147
0.09
 71
     0
 72
     0
 73
     1
 74
     1
 75
     0
 76
     0
 77
     0
 78
     0
170
     0
171
     2
172
     0
173
     0
174
     0
175
     0
176
     0
177
     0
178
     0
270
     2
271
     4
272
     4
273
     2
274
     2
340
11
275
     0
280
     0
281
     0
282
     0
283
     1
284
     0
285
     0
286
     0
287
     3
288
     0
  0
ENDTAB
  0
TABLE
  2
BLOCK_RECORD
  5
1
330
0
100
AcDbSymbolTable
 70
     3
  0
BLOCK_RECORD
  5
1F
330
1
100
AcDbSymbolTableRecord
100
AcDbBlockTableRecord
  2
*MODEL_SPACE
  0
BLOCK_RECORD
  5
1B
330
1
100
AcDbSymbolTableRecord
100
AcDbBlockTableRecord
  2
*PAPER_SPACE
  0
BLOCK_RECORD
  5
75
330
1
100
AcDbSymbolTableRecord
100
AcDbBlockTableRecord
  2
D_FRAME_VIEW_3668
  0
BLOCK_RECORD
  5
EB
330
1
100
AcDbSymbolTableRecord
100
AcDbBlockTableRecord
  2
D_FRAME_VIEW_3549
  0
BLOCK_RECORD
  5
147
330
1
100
AcDbSymbolTableRecord
100
AcDbBlockTableRecord
  2
D_FRAME_VIEW_3133
  0
ENDTAB
  0
ENDSEC
  0
SECTION
  2
BLOCKS
  0
BLOCK
  5
20
330
1F
100
AcDbEntity
  8
0
100
AcDbBlockBegin
  2
*MODEL_SPACE
 70
     0
 10
0.0
 20
0.0
 30
0.0
  3
*MODEL_SPACE
  1

  0
ENDBLK
  5
21
330
1F
100
AcDbEntity
  8
0
100
AcDbBlockEnd
  0
BLOCK
  5
1C
330
1B
100
AcDbEntity
 67
     1
  8
0
100
AcDbBlockBegin
  2
*PAPER_SPACE
 70
     0
 10
0.0
 20
0.0
 30
0.0
  3
*PAPER_SPACE
  1

  0
ENDBLK
  5
1D
330
1B
100
AcDbEntity
 67
     1
  8
0
100
AcDbBlockEnd
  0
BLOCK
  5
EC
330
75
100
AcDbEntity
  8
0
100
AcDbBlockBegin
  2
D_FRAME_VIEW_3668
 70
     0
 10
0.0
 20
0.0
 30
0.0
  3
D_FRAME_VIEW_3668
  1

  0
LINE
  5
76
330
75
100
AcDbEntity
  8
0
  6
CONTINUOUS
 62
     7
100
AcDbLine
 10
-482.0400816492908
 20
469.1999999999999
 30
0.0
 11
-475.2183664205671
 21
469.1999999999999
 31
0.0
  0
LINE
  5
77
330
75
100
AcDbEntity
  8
0
  6
CONTINUOUS
 62
     7
100
AcDbLine
 10
-496.3620472106033
 20
469.1999999999999
 30
0.0
 11
-482.0400816492909
 21
469.1999999999999
 31
0.0
  0
LINE
  5
78
330
75
100
AcDbEntity
  8
0
  6
CONTINUOUS
 62
     7
100
AcDbLine
 10
-482.0400816492909
 20
459.6999999999999
 30
0.0
 11
-496.3620472106033
 21
459.6999999999999
 31
0.0
  0
LINE
  5
79
330
75
100
AcDbEntity
  8
0
  6
CONTINUOUS
 62
     7
100
AcDbLine
 10
-496.3620472106033
 20
442.7999999999999
 30
0.0
 11
-482.0400816492909
 21
442.7999999999999
 31
0.0
  0
LINE
  5
7A
330
75
100
AcDbEntity
  8
0
  6
CONTINUOUS
 62
     7
100
AcDbLine
 10
-397.9599183507092
 20
442.7999999999999
 30
0.0
 11
-404.7816335794329
 21
442.7999999999999
 31
0.0
  0
LINE
  5
7B
330
75
100
AcDbEntity
  8
0
  6
CONTINUOUS
 62
     7
100
AcDbLine
 10
-404.7816335794329
 20
459.6999999999999
 30
0.0
 11
-397.9599183507092
 21
459.6999999999999
 31
0.0
  0
LINE
  5
7C
330
75
100
AcDbEntity
  8
0
  6
CONTINUOUS
 62
     7
100
AcDbLine
 10
-404.7816335794329
 20
433.3
 30
0.0
 11
-397.9599183507092
 21
433.3
 31
0.0
  0
LINE
  5
7D
330
75
100
AcDbEntity
  8
0
  6
CONTINUOUS
 62
     7
100
AcDbLine
 10
-482.0400816492909
 20
442.7999999999999
 30
0.0
 11
-475.2183664205672
 21
442.7999999999999
 31
0.0
  0
LINE
  5
7E
330
75
100
AcDbEntity
  8
0
  6
CONTINUOUS
 62
     7
100
AcDbLine
 10
-397.9599183507092
 20
459.6999999999999
 30
0.0
 11
-383.6379527893968
 21
459.6999999999999
 31
0.0
  0
LINE
  5
7F
330
75
100
AcDbEntity
  8
0
  6
CONTINUOUS
 62
     7
100
AcDbLine
 10
-383.6379527893968
 20
442.7999999999999
 30
0.0
 11
-397.9599183507092
 21
442.7999999999999
 31
0.0
  0
LINE
  5
80
330
75
100
AcDbEntity
  8
0
  6
CONTINUOUS
 62
     7
100
AcDbLine
 10
-383.6379527893968
 20
469.1999999999999
 30
0.0
 11
-397.9599183507092
 21
469.1999999999999
 31
0.0
  0
LINE
  5
81
330
75
100
AcDbEntity
  8
0
  6
CONTINUOUS
 62
     7
100
AcDbLine
 10
-397.9599183507092
 20
469.1999999999999
 30
0.0
 11
-404.7816335794329
 21
469.1999999999999
 31
0.0
  0
LINE
  5
82
330
75
100
AcDbEntity
  8
0
  6
CONTINUOUS
 62
     7
100
AcDbLine
 10
-482.0400816492909
 20
433.3
 30
0.0
 11
-496.3620472106033
 21
433.3
 31
0.0
  0
LINE
  5
83
330
75
100
AcDbEntity
  8
0
  6
CONTINUOUS
 62
     7
100
AcDbLine
 10
-475.2183664205671
 20
459.6999999999999
 30
0.0
 11
-482.0400816492908
 21
459.6999999999999
 31
0.0
  0
LINE
  5
84
330
75
100
AcDbEntity
  8
0
  6
CONTINUOUS
 62
     7
100
AcDbLine
 10
-475.2183664205671
 20
433.3
 30
0.0
 11
-482.0400816492909
 21
433.3
 31
0.0
  0
LINE
  5
85
330
75
100
AcDbEntity
  8
0
  6
CONTINUOUS
 62
     7
100
AcDbLine
 10
-397.9599183507092
 20
433.3
 30
0.0
 11
-383.6379527893968
 21
433.2999999999999
 31
0.0
  0
ELLIPSE
  5
86
330
75
100
AcDbEntity
  8
0
  6
CONTINUOUS
 62
     7
100
AcDbEllipse
 10
-472.331615074619
 20
435.3
 30
0.0
 11
0.0
 21
-2.0
 31
0.0
210
0.0
220
0.0
230
1.0
 40
0.5773502691896254
 41
0.0
 42
1.570796326794886
  0
LINE
  5
87
330
75
100
AcDbEntity
  8
0
  6
CONTINUOUS
 62
     7
100
AcDbLine
 10
-472.331615074619
 20
433.3
 30
0.0
 11
-475.2183664205671
 21
433.3
 31
0.0
  0
LINE
  5
88
330
75
100
AcDbEntity
  8
0
  6
CONTINUOUS
 62
     7
100
AcDbLine
 10
-408.8230854637602
 20
461.6999999999999
 30
0.0
 11
-408.8230854637602
 21
467.1999999999999
 31
0.0
  0
ELLIPSE
  5
89
330
75
100
AcDbEntity
  8
0
  6
CONTINUOUS
 62
     7
100
AcDbEllipse
 10
-472.331615074619
 20
461.6999999999999
 30
0.0
 11
0.0
 21
-2.0
 31
0.0
210
0.0
220
0.0
230
-1.0
 40
0.5773502691896254
 41
4.712388980384707
 42
6.283185307179586
  0
LINE
  5
8A
330
75
100
AcDbEntity
  8
0
  6
CONTINUOUS
 62
     7
100
AcDbLine
 10
-472.331615074619
 20
459.6999999999999
 30
0.0
 11
-475.2183664205672
 21
459.6999999999999
 31
0.0
  0
LINE
  5
8B
330
75
100
AcDbEntity
  8
0
  6
CONTINUOUS
 62
     7
100
AcDbLine
 10
-404.7816335794329
 20
459.6999999999999
 30
0.0
 11
-407.6683849253809
 21
459.6999999999999
 31
0.0
  0
ELLIPSE
  5
8C
330
75
100
AcDbEntity
  8
0
  6
CONTINUOUS
 62
     7
100
AcDbEllipse
 10
-407.668384925381
 20
461.6999999999999
 30
0.0
 11
0.0
 21
2.0
 31
0.0
210
0.0
220
0.0
230
-1.0
 40
0.5773502691896254
 41
3.141592653589762
 42
4.712388980384675
  0
ELLIPSE
  5
8D
330
75
100
AcDbEntity
  8
0
  6
CONTINUOUS
 62
     7
100
AcDbEllipse
 10
-407.6683849253809
 20
467.1999999999999
 30
0.0
 11
0.0
 21
-2.0
 31
0.0
210
0.0
220
0.0
230
-1.0
 40
0.5773502691896254
 41
1.570796326794883
 42
3.141592653589801
  0
LINE
  5
8E
330
75
100
AcDbEntity
  8
0
  6
CONTINUOUS
 62
     7
100
AcDbLine
 10
-404.7816335794329
 20
469.1999999999999
 30
0.0
 11
-407.6683849253809
 21
469.1999999999999
 31
0.0
  0
LINE
  5
8F
330
75
100
AcDbEntity
  8
0
  6
CONTINUOUS
 62
     7
100
AcDbLine
 10
-475.2183664205671
 20
442.7999999999999
 30
0.0
 11
-472.331615074619
 21
442.7999999999999
 31
0.0
  0
ELLIPSE
  5
90
330
75
100
AcDbEntity
  8
0
  6
CONTINUOUS
 62
     7
100
AcDbEllipse
 10
-472.3316150746189
 20
440.7999999999999
 30
0.0
 11
0.0
 21
2.0
 31
0.0
210
0.0
220
0.0
230
-1.0
 40
0.5773502691896254
 41
0.0
 42
1.570796326794911
  0
ELLIPSE
  5
91
330
75
100
AcDbEntity
  8
0
  6
CONTINUOUS
 62
     7
100
AcDbEllipse
 10
-407.6683849253809
 20
440.7999999999999
 30
0.0
 11
0.0
 21
-2.0
 31
0.0
210
0.0
220
0.0
230
-1.0
 40
0.5773502691896254
 41
1.570796326794881
 42
3.141592653589816
  0
LINE
  5
92
330
75
100
AcDbEntity
  8
0
  6
CONTINUOUS
 62
     7
100
AcDbLine
 10
-407.668384925381
 20
442.7999999999999
 30
0.0
 11
-404.7816335794329
 21
442.7999999999999
 31
0.0
  0
ELLIPSE
  5
93
330
75
100
AcDbEntity
  8
0
  6
CONTINUOUS
 62
     7
100
AcDbEllipse
 10
-407.668384925381
 20
435.3
 30
0.0
 11
0.0
 21
-2.0
 31
0.0
210
0.0
220
0.0
230
-1.0
 40
0.5773502691896254
 41
0.0
 42
1.570796326794886
  0
LINE
  5
94
330
75
100
AcDbEntity
  8
0
  6
CONTINUOUS
 62
     7
100
AcDbLine
 10
-407.668384925381
 20
433.3
 30
0.0
 11
-404.7816335794329
 21
433.3
 31
0.0
  0
LINE
  5
95
330
75
100
AcDbEntity
  8
0
  6
CONTINUOUS
 62
     7
100
AcDbLine
 10
-408.8230854637602
 20
435.2999999999999
 30
0.0
 11
-408.8230854637602
 21
440.7999999999998
 31
0.0
  0
ELLIPSE
  5
96
330
75
100
AcDbEntity
  8
0
  6
CONTINUOUS
 62
     7
100
AcDbEllipse
 10
-472.3316150746191
 20
467.1999999999999
 30
0.0
 11
0.0
 21
-2.0
 31
0.0
210
0.0
220
0.0
230
1.0
 40
0.5773502691896254
 41
1.570796326794883
 42
3.141592653589801
  0
LINE
  5
97
330
75
100
AcDbEntity
  8
0
  6
CONTINUOUS
 62
     7
100
AcDbLine
 10
-475.2183664205672
 20
469.1999999999999
 30
0.0
 11
-472.3316150746191
 21
469.1999999999999
 31
0.0
  0
LINE
  5
98
330
75
100
AcDbEntity
  8
0
  6
CONTINUOUS
 62
     7
100
AcDbLine
 10
-471.1769145362398
 20
461.6999999999999
 30
0.0
 11
-471.1769145362398
 21
467.1999999999999
 31
0.0
  0
LINE
  5
99
330
75
100
AcDbEntity
  8
0
  6
CONTINUOUS
 62
     7
100
AcDbLine
 10
-471.1769145362398
 20
435.2999999999999
 30
0.0
 11
-471.1769145362398
 21
440.7999999999999
 31
0.0
  0
LINE
  5
9A
330
75
100
AcDbEntity
  8
0
  6
CONTINUOUS
 62
     7
100
AcDbLine
 10
-472.331615074619
 20
469.1999999999999
 30
0.0
 11
-407.6683849253809
 21
469.1999999999999
 31
0.0
  0
LINE
  5
9B
330
75
100
AcDbEntity
  8
0
  6
CONTINUOUS
 62
     7
100
AcDbLine
 10
-407.668384925381
 20
433.3
 30
0.0
 11
-472.331615074619
 21
433.3
 31
0.0
  0
LINE
  5
9C
330
75
100
AcDbEntity
  8
0
  6
CONTINUOUS
 62
     7
100
AcDbLine
 10
-407.668384925381
 20
442.7999999999999
 30
0.0
 11
-472.331615074619
 21
442.8
 31
0.0
  0
LINE
  5
9D
330
75
100
AcDbEntity
  8
0
  6
CONTINUOUS
 62
     7
100
AcDbLine
 10
-472.331615074619
 20
459.6999999999999
 30
0.0
 11
-407.668384925381
 21
459.6999999999999
 31
0.0
  0
LINE
  5
9E
330
75
100
AcDbEntity
  8
0
  6
CONTINUOUS
 62
     7
100
AcDbLine
 10
-497.8219655613125
 20
442.7999999999999
 30
0.0
 11
-496.3620472106033
 21
442.7999999999999
 31
0.0
  0
LINE
  5
9F
330
75
100
AcDbEntity
  8
0
  6
CONTINUOUS
 62
     7
100
AcDbLine
 10
-382.1780344386875
 20
442.7999999999999
 30
0.0
 11
-383.6379527893968
 21
442.7999999999999
 31
0.0
  0
LINE
  5
A0
330
75
100
AcDbEntity
  8
0
  6
CONTINUOUS
 62
     7
100
AcDbLine
 10
-382.1780344386875
 20
469.1999999999999
 30
0.0
 11
-383.6379527893968
 21
469.1999999999999
 31
0.0
  0
LINE
  5
A1
330
75
100
AcDbEntity
  8
0
  6
CONTINUOUS
 62
     7
100
AcDbLine
 10
-497.8219655613125
 20
469.1999999999999
 30
0.0
 11
-496.3620472106033
 21
469.1999999999999
 31
0.0
  0
LINE
  5
A2
330
75
100
AcDbEntity
  8
0
  6
CONTINUOUS
 62
     7
100
AcDbLine
 10
-496.3620472106033
 20
459.6999999999999
 30
0.0
 11
-497.8219655613125
 21
459.6999999999999
 31
0.0
  0
LINE
  5
A3
330
75
100
AcDbEntity
  8
0
  6
CONTINUOUS
 62
     7
100
AcDbLine
 10
-383.6379527893968
 20
459.6999999999999
 30
0.0
 11
-382.1780344386876
 21
459.6999999999999
 31
0.0
  0
LINE
  5
A4
330
75
100
AcDbEntity
  8
0
  6
CONTINUOUS
 62
     7
100
AcDbLine
 10
-383.6379527893968
 20
433.2999999999999
 30
0.0
 11
-382.1780344386876
 21
433.2999999999999
 31
0.0
  0
LINE
  5
A5
330
75
100
AcDbEntity
  8
0
  6
CONTINUOUS
 62
     7
100
AcDbLine
 10
-496.3620472106033
 20
433.3
 30
0.0
 11
-497.8219655613125
 21
433.3
 31
0.0
  0
ARC
  5
A6
330
75
100
AcDbEntity
  8
0
  6
CONTINUOUS
 62
     7
100
AcDbCircle
 10
493.0
 20
443.7999999999999
 30
0.0
 40
1.000000000000001
210
0.0
220
0.0
230
-1.0
100
AcDbArc
 50
179.9999999999998
 51
270.0000000000004
  0
ARC
  5
A7
330
75
100
AcDbEntity
  8
0
  6
CONTINUOUS
 62
     7
100
AcDbCircle
 10
387.0
 20
458.6999999999999
 30
0.0
 40
1.000000000000001
210
0.0
220
0.0
230
-1.0
100
AcDbArc
 50
0.000000000000014
 51
90.00000000000043
  0
ARC
  5
A8
330
75
100
AcDbEntity
  8
0
  6
CONTINUOUS
 62
     7
100
AcDbCircle
 10
493.0
 20
458.6999999999999
 30
0.0
 40
1.000000000000001
210
0.0
220
0.0
230
-1.0
100
AcDbArc
 50
89.99999999999962
 51
180.0
  0
ARC
  5
A9
330
75
100
AcDbEntity
  8
0
  6
CONTINUOUS
 62
     7
100
AcDbCircle
 10
387.0
 20
443.7999999999999
 30
0.0
 40
1.000000000000001
210
0.0
220
0.0
230
-1.0
100
AcDbArc
 50
269.9999999999996
 51
0.0000000000002274
  0
ARC
  5
AA
330
75
100
AcDbEntity
  8
0
  6
CONTINUOUS
 62
     7
100
AcDbCircle
 10
-375.5
 20
467.1999999999999
 30
0.0
 40
2.000000000000002
100
AcDbArc
 50
0.0
 51
90.0
  0
LINE
  5
AB
330
75
100
AcDbEntity
  8
0
  6
CONTINUOUS
 62
     7
100
AcDbLine
 10
-375.5
 20
469.1999999999999
 30
0.0
 11
-382.1780344386875
 21
469.1999999999999
 31
0.0
  0
LINE
  5
AC
330
75
100
AcDbEntity
  8
0
  6
CONTINUOUS
 62
     7
100
AcDbLine
 10
-506.4999999999999
 20
467.1999999999999
 30
0.0
 11
-506.4999999999999
 21
461.6999999999999
 31
0.0
  0
ARC
  5
AD
330
75
100
AcDbEntity
  8
0
  6
CONTINUOUS
 62
     7
100
AcDbCircle
 10
504.5000000000001
 20
440.7999999999999
 30
0.0
 40
2.000000000000002
210
0.0
220
0.0
230
-1.0
100
AcDbArc
 50
0.000000000000014
 51
90.00000000000001
  0
LINE
  5
AE
330
75
100
AcDbEntity
  8
0
  6
CONTINUOUS
 62
     7
100
AcDbLine
 10
-504.5000000000001
 20
442.7999999999999
 30
0.0
 11
-497.8219655613125
 21
442.7999999999999
 31
0.0
  0
ARC
  5
AF
330
75
100
AcDbEntity
  8
0
  6
CONTINUOUS
 62
     7
100
AcDbCircle
 10
-375.5000000000001
 20
435.2999999999999
 30
0.0
 40
2.000000000000002
100
AcDbArc
 50
270.0
 51
0.0
  0
LINE
  5
B0
330
75
100
AcDbEntity
  8
0
  6
CONTINUOUS
 62
     7
100
AcDbLine
 10
-382.1780344386875
 20
433.2999999999999
 30
0.0
 11
-375.5000000000001
 21
433.2999999999999
 31
0.0
  0
LINE
  5
B1
330
75
100
AcDbEntity
  8
0
  6
CONTINUOUS
 62
     7
100
AcDbLine
 10
-373.5000000000001
 20
440.7999999999999
 30
0.0
 11
-373.5000000000001
 21
435.2999999999999
 31
0.0
  0
LINE
  5
B2
330
75
100
AcDbEntity
  8
0
  6
CONTINUOUS
 62
     7
100
AcDbLine
 10
-373.5000000000001
 20
467.1999999999999
 30
0.0
 11
-373.5000000000001
 21
461.6999999999999
 31
0.0
  0
ARC
  5
B3
330
75
100
AcDbEntity
  8
0
  6
CONTINUOUS
 62
     7
100
AcDbCircle
 10
504.5000000000001
 20
435.3
 30
0.0
 40
1.999999999999974
210
0.0
220
0.0
230
-1.0
100
AcDbArc
 50
270.0
 51
0.0
  0
LINE
  5
B4
330
75
100
AcDbEntity
  8
0
  6
CONTINUOUS
 62
     7
100
AcDbLine
 10
-497.8219655613125
 20
433.3
 30
0.0
 11
-504.5000000000001
 21
433.3
 31
0.0
  0
ARC
  5
B5
330
75
100
AcDbEntity
  8
0
  6
CONTINUOUS
 62
     7
100
AcDbCircle
 10
-375.5
 20
461.6999999999999
 30
0.0
 40
2.000000000000002
100
AcDbArc
 50
270.0
 51
0.0
  0
LINE
  5
B6
330
75
100
AcDbEntity
  8
0
  6
CONTINUOUS
 62
     7
100
AcDbLine
 10
-382.1780344386875
 20
459.6999999999999
 30
0.0
 11
-375.5
 21
459.6999999999999
 31
0.0
  0
ARC
  5
B7
330
75
100
AcDbEntity
  8
0
  6
CONTINUOUS
 62
     7
100
AcDbCircle
 10
-375.5000000000001
 20
440.7999999999999
 30
0.0
 40
2.000000000000002
100
AcDbArc
 50
0.0
 51
90.0
  0
LINE
  5
B8
330
75
100
AcDbEntity
  8
0
  6
CONTINUOUS
 62
     7
100
AcDbLine
 10
-375.5000000000001
 20
442.7999999999999
 30
0.0
 11
-382.1780344386876
 21
442.7999999999999
 31
0.0
  0
ARC
  5
B9
330
75
100
AcDbEntity
  8
0
  6
CONTINUOUS
 62
     7
100
AcDbCircle
 10
504.5000000000001
 20
467.1999999999999
 30
0.0
 40
2.000000000000002
210
0.0
220
0.0
230
-1.0
100
AcDbArc
 50
0.000000000000014
 51
90.00000000000001
  0
LINE
  5
BA
330
75
100
AcDbEntity
  8
0
  6
CONTINUOUS
 62
     7
100
AcDbLine
 10
-504.5000000000001
 20
469.1999999999999
 30
0.0
 11
-497.8219655613125
 21
469.1999999999999
 31
0.0
  0
LINE
  5
BB
330
75
100
AcDbEntity
  8
0
  6
CONTINUOUS
 62
     7
100
AcDbLine
 10
-506.5000000000001
 20
440.7999999999999
 30
0.0
 11
-506.5000000000001
 21
435.2999999999999
 31
0.0
  0
ARC
  5
BC
330
75
100
AcDbEntity
  8
0
  6
CONTINUOUS
 62
     7
100
AcDbCircle
 10
504.5000000000001
 20
461.6999999999999
 30
0.0
 40
2.000000000000002
210
0.0
220
0.0
230
-1.0
100
AcDbArc
 50
270.0
 51
0.0
  0
LINE
  5
BD
330
75
100
AcDbEntity
  8
0
  6
CONTINUOUS
 62
     7
100
AcDbLine
 10
-497.8219655613125
 20
459.6999999999999
 30
0.0
 11
-504.5000000000001
 21
459.6999999999999
 31
0.0
  0
LINE
  5
BE
330
75
100
AcDbEntity
  8
0
  6
CONTINUOUS
 62
     7
100
AcDbLine
 10
-388.0
 20
458.6999999999999
 30
0.0
 11
-388.0
 21
443.7999999999999
 31
0.0
  0
LINE
  5
BF
330
75
100
AcDbEntity
  8
0
  6
CONTINUOUS
 62
     7
100
AcDbLine
 10
-492.0000000000001
 20
458.6999999999999
 30
0.0
 11
-492.0000000000001
 21
443.8
 31
0.0
  0
LINE
  5
C0
330
75
100
AcDbEntity
  8
0
  6
CONTINUOUS
 62
     7
100
AcDbLine
 10
-491.754451704871
 20
476.7674524064373
 30
0.0
 11
-491.8865420779666
 21
469.1999999999999
 31
0.0
  0
LINE
  5
C1
330
75
100
AcDbEntity
  8
0
  6
CONTINUOUS
 62
     7
100
AcDbLine
 10
-388.245548295129
 20
476.7674524064372
 30
0.0
 11
-388.1134579220334
 21
469.1999999999999
 31
0.0
  0
LINE
  5
C2
330
75
100
AcDbEntity
  8
0
  6
CONTINUOUS
 62
     7
100
AcDbLine
 10
-491.8865420779666
 20
433.3
 30
0.0
 11
-491.7544517048711
 21
425.7325475935627
 31
0.0
  0
LINE
  5
C3
330
75
100
AcDbEntity
  8
0
  6
CONTINUOUS
 62
     7
100
AcDbLine
 10
-388.1134579220334
 20
433.2999999999999
 30
0.0
 11
-388.245548295129
 21
425.7325475935626
 31
0.0
  0
LINE
  5
C4
330
75
100
AcDbEntity
  8
0
  6
CONTINUOUS
 62
     7
100
AcDbLine
 10
-389.2453959902854
 20
424.7499999999999
 30
0.0
 11
-403.5
 21
424.7499999999999
 31
0.0
  0
ARC
  5
C5
330
75
100
AcDbEntity
  8
0
  6
CONTINUOUS
 62
     7
100
AcDbCircle
 10
-389.2453959902853
 20
425.7499999999999
 30
0.0
 40
1.000000000000001
100
AcDbArc
 50
270.0
 51
359.0000000000002
  0
LINE
  5
C6
330
75
100
AcDbEntity
  8
0
  6
CONTINUOUS
 62
     7
100
AcDbLine
 10
-403.5
 20
477.7499999999999
 30
0.0
 11
-389.2453959902854
 21
477.7499999999999
 31
0.0
  0
ARC
  5
C7
330
75
100
AcDbEntity
  8
0
  6
CONTINUOUS
 62
     7
100
AcDbCircle
 10
-389.2453959902853
 20
476.7499999999999
 30
0.0
 40
0.9999999999999841
100
AcDbArc
 50
0.9999999999998328
 51
90.00000000000158
  0
ARC
  5
C8
330
75
100
AcDbEntity
  8
0
  6
CONTINUOUS
 62
     7
100
AcDbCircle
 10
490.7546040097146
 20
476.7499999999999
 30
0.0
 40
0.999999999999998
210
0.0
220
0.0
230
-1.0
100
AcDbArc
 50
0.999999999999868
 51
90.00000000000043
  0
LINE
  5
C9
330
75
100
AcDbEntity
  8
0
  6
CONTINUOUS
 62
     7
100
AcDbLine
 10
-490.7546040097146
 20
477.7499999999999
 30
0.0
 11
-476.5
 21
477.7499999999999
 31
0.0
  0
LINE
  5
CA
330
75
100
AcDbEntity
  8
0
  6
CONTINUOUS
 62
     7
100
AcDbLine
 10
-476.5
 20
424.7499999999999
 30
0.0
 11
-490.7546040097146
 21
424.7499999999999
 31
0.0
  0
ARC
  5
CB
330
75
100
AcDbEntity
  8
0
  6
CONTINUOUS
 62
     7
100
AcDbCircle
 10
-490.7546040097147
 20
425.7499999999999
 30
0.0
 40
0.9999999999999974
100
AcDbArc
 50
180.9999999999999
 51
270.0000000000015
  0
LINE
  5
CC
330
75
100
AcDbEntity
  8
0
  6
CONTINUOUS
 62
     7
100
AcDbLine
 10
-403.5
 20
424.7499999999999
 30
0.0
 11
-476.5
 21
424.7499999999999
 31
0.0
  0
LINE
  5
CD
330
75
100
AcDbEntity
  8
0
  6
CONTINUOUS
 62
     7
100
AcDbLine
 10
-476.5
 20
477.7499999999999
 30
0.0
 11
-403.5
 21
477.7499999999999
 31
0.0
  0
LINE
  5
CE
330
75
100
AcDbEntity
  8
0
  6
CONTINUOUS
 62
     7
100
AcDbLine
 10
-387.8
 20
448.4404555686723
 30
0.0
 11
-387.8
 21
451.0222737504905
 31
0.0
  0
LINE
  5
CF
330
75
100
AcDbEntity
  8
0
  6
CONTINUOUS
 62
     7
100
AcDbLine
 10
-387.8
 20
447.8586373868541
 30
0.0
 11
-387.8
 21
448.4404555686723
 31
0.0
  0
LINE
  5
D0
330
75
100
AcDbEntity
  8
0
  6
CONTINUOUS
 62
     7
100
AcDbLine
 10
-388.0000000000001
 20
447.8586373868541
 30
0.0
 11
-387.8
 21
447.8586373868541
 31
0.0
  0
LINE
  5
D1
330
75
100
AcDbEntity
  8
0
  6
CONTINUOUS
 62
     7
100
AcDbLine
 10
-388.0000000000001
 20
451.0222737504905
 30
0.0
 11
-387.8
 21
451.0222737504905
 31
0.0
  0
LINE
  5
D2
330
75
100
AcDbEntity
  8
0
  6
CONTINUOUS
 62
     7
100
AcDbLine
 10
-388.0000000000001
 20
451.6040919323087
 30
0.0
 11
-387.8
 21
451.6040919323087
 31
0.0
  0
LINE
  5
D3
330
75
100
AcDbEntity
  8
0
  6
CONTINUOUS
 62
     7
100
AcDbLine
 10
-387.8
 20
451.6040919323087
 30
0.0
 11
-387.8
 21
455.3131828413995
 31
0.0
  0
LINE
  5
D4
330
75
100
AcDbEntity
  8
0
  6
CONTINUOUS
 62
     7
100
AcDbLine
 10
-387.8
 20
451.0222737504905
 30
0.0
 11
-387.8
 21
451.6040919323087
 31
0.0
  0
LINE
  5
D5
330
75
100
AcDbEntity
  8
0
  6
CONTINUOUS
 62
     7
100
AcDbLine
 10
-387.8
 20
451.0476283582694
 30
0.0
 11
-387.8
 21
451.5670068763454
 31
0.0
  0
LINE
  5
D6
330
75
100
AcDbEntity
  8
0
  6
CONTINUOUS
 62
     7
100
AcDbLine
 10
-388.0000000000001
 20
455.3131828413995
 30
0.0
 11
-387.8
 21
455.3131828413995
 31
0.0
  0
LINE
  5
D7
330
75
100
AcDbEntity
  8
0
  6
CONTINUOUS
 62
     7
100
AcDbLine
 10
-387.8
 20
447.7273735994344
 30
0.0
 11
-387.8
 21
447.8164550882564
 31
0.0
  0
LINE
  5
D8
330
75
100
AcDbEntity
  8
0
  6
CONTINUOUS
 62
     7
100
AcDbLine
 10
-388.0000000000001
 20
446.9098126959502
 30
0.0
 11
-387.8
 21
446.9098126959502
 31
0.0
  0
LINE
  5
D9
330
75
100
AcDbEntity
  8
0
  6
CONTINUOUS
 62
     7
100
AcDbLine
 10
-387.8
 20
446.9098126959502
 30
0.0
 11
-387.8
 21
445.1155840618903
 31
0.0
  0
LINE
  5
DA
330
75
100
AcDbEntity
  8
0
  6
CONTINUOUS
 62
     7
100
AcDbLine
 10
-388.0000000000001
 20
445.1155840618903
 30
0.0
 11
-387.8
 21
445.1155840618903
 31
0.0
  0
LINE
  5
DB
330
75
100
AcDbEntity
  8
0
  6
CONTINUOUS
 62
     7
100
AcDbLine
 10
-388.0
 20
447.2018595936689
 30
0.0
 11
-387.8
 21
447.2018595936689
 31
0.0
  0
LINE
  5
DC
330
75
100
AcDbEntity
  8
0
  6
CONTINUOUS
 62
     7
100
AcDbLine
 10
-387.8
 20
447.2018595936689
 30
0.0
 11
-387.8
 21
446.9098126959502
 31
0.0
  0
LINE
  5
DD
330
75
100
AcDbEntity
  8
0
  6
CONTINUOUS
 62
     7
100
AcDbLine
 10
-388.0
 20
447.4527238592069
 30
0.0
 11
-387.8
 21
447.4527238592069
 31
0.0
  0
LINE
  5
DE
330
75
100
AcDbEntity
  8
0
  6
CONTINUOUS
 62
     7
100
AcDbLine
 10
-387.8
 20
447.4527238592069
 30
0.0
 11
-387.8
 21
447.2018595936689
 31
0.0
  0
LINE
  5
DF
330
75
100
AcDbEntity
  8
0
  6
CONTINUOUS
 62
     7
100
AcDbLine
 10
-388.0000000000001
 20
447.6061538307574
 30
0.0
 11
-387.8
 21
447.6061538307574
 31
0.0
  0
LINE
  5
E0
330
75
100
AcDbEntity
  8
0
  6
CONTINUOUS
 62
     7
100
AcDbLine
 10
-387.8
 20
447.6061538307574
 30
0.0
 11
-387.8
 21
447.4527238592069
 31
0.0
  0
LINE
  5
E1
330
75
100
AcDbEntity
  8
0
  6
CONTINUOUS
 62
     7
100
AcDbLine
 10
-387.8
 20
447.7090152909379
 30
0.0
 11
-387.8
 21
447.6061538307574
 31
0.0
  0
LINE
  5
E2
330
75
100
AcDbEntity
  8
0
  6
CONTINUOUS
 62
     7
100
AcDbLine
 10
-388.0000000000001
 20
457.105572926019
 30
0.0
 11
-387.8
 21
457.105572926019
 31
0.0
  0
LINE
  5
E3
330
75
100
AcDbEntity
  8
0
  6
CONTINUOUS
 62
     7
100
AcDbLine
 10
-387.8
 20
457.105572926019
 30
0.0
 11
-387.8
 21
455.3752510967561
 31
0.0
  0
LINE
  5
E4
330
75
100
AcDbEntity
  8
0
  6
CONTINUOUS
 62
     7
100
AcDbLine
 10
-387.8
 20
457.1155840618902
 30
0.0
 11
-387.8
 21
457.105572926019
 31
0.0
  0
LINE
  5
E5
330
75
100
AcDbEntity
  8
0
  6
CONTINUOUS
 62
     7
100
AcDbLine
 10
-387.8
 20
448.4404555686723
 30
0.0
 11
-388.0000000000001
 21
448.4404555686723
 31
0.0
  0
LINE
  5
E6
330
75
100
AcDbEntity
  8
0
  6
CONTINUOUS
 62
     7
100
AcDbLine
 10
-387.8000000000001
 20
455.3131828413995
 30
0.0
 11
-388.0000000000002
 21
455.3131828413995
 31
0.0
  0
LINE
  5
E7
330
75
100
AcDbEntity
  8
0
  6
CONTINUOUS
 62
     7
100
AcDbLine
 10
-387.8
 20
455.3252746854731
 30
0.0
 11
-388.0000000000002
 21
455.3252746854731
 31
0.0
  0
LINE
  5
E8
330
75
100
AcDbEntity
  8
0
  6
CONTINUOUS
 62
     7
100
AcDbLine
 10
-388.0000000000001
 20
447.7273735994343
 30
0.0
 11
-387.8
 21
447.7273735994343
 31
0.0
  0
LINE
  5
E9
330
75
100
AcDbEntity
  8
0
  6
CONTINUOUS
 62
     7
100
AcDbLine
 10
-387.8000000000001
 20
457.1155840618902
 30
0.0
 11
-388.0000000000002
 21
457.1155840618902
 31
0.0
  0
ENDBLK
  5
ED
330
75
100
AcDbEntity
  8
0
100
AcDbBlockEnd
  0
BLOCK
  5
148
330
EB
100
AcDbEntity
  8
0
100
AcDbBlockBegin
  2
D_FRAME_VIEW_3549
 70
     0
 10
0.0
 20
0.0
 30
0.0
  3
D_FRAME_VIEW_3549
  1

  0
LINE
  5
EE
330
EB
100
AcDbEntity
  8
0
  6
CONTINUOUS
 62
     7
100
AcDbLine
 10
-294.55
 20
300.0220354090235
 30
0.0
 11
-294.55
 21
322.7653763846736
 31
0.0
  0
LINE
  5
EF
330
EB
100
AcDbEntity
  8
0
  6
CONTINUOUS
 62
     7
100
AcDbLine
 10
-294.55
 20
292.7084983928318
 30
0.0
 11
-294.55
 21
300.0220354090235
 31
0.0
  0
LINE
  5
F0
330
EB
100
AcDbEntity
  8
0
  6
CONTINUOUS
 62
     7
100
AcDbLine
 10
-294.55
 20
374.0821797604626
 30
0.0
 11
-294.55
 21
389.4406074944652
 31
0.0
  0
LINE
  5
F1
330
EB
100
AcDbEntity
  8
0
  6
CONTINUOUS
 62
     7
100
AcDbLine
 10
-294.55
 20
356.1217749093827
 30
0.0
 11
-294.55
 21
374.0821797604626
 31
0.0
  0
LINE
  5
F2
330
EB
100
AcDbEntity
  8
0
  6
CONTINUOUS
 62
     7
100
AcDbLine
 10
-304.05
 20
322.7653763846736
 30
0.0
 11
-304.05
 21
300.0220354090235
 31
0.0
  0
LINE
  5
F3
330
EB
100
AcDbEntity
  8
0
  6
CONTINUOUS
 62
     7
100
AcDbLine
 10
-330.45
 20
322.7653763846736
 30
0.0
 11
-330.45
 21
300.0220354090234
 31
0.0
  0
LINE
  5
F4
330
EB
100
AcDbEntity
  8
0
  6
CONTINUOUS
 62
     7
100
AcDbLine
 10
-320.9499999999999
 20
292.7084983928318
 30
0.0
 11
-320.9499999999999
 21
300.0220354090235
 31
0.0
  0
LINE
  5
F5
330
EB
100
AcDbEntity
  8
0
  6
CONTINUOUS
 62
     7
100
AcDbLine
 10
-320.9499999999999
 20
300.0220354090235
 30
0.0
 11
-320.9499999999999
 21
322.7653763846737
 31
0.0
  0
LINE
  5
F6
330
EB
100
AcDbEntity
  8
0
  6
CONTINUOUS
 62
     7
100
AcDbLine
 10
-304.05
 20
300.0220354090235
 30
0.0
 11
-304.05
 21
292.7084983928318
 31
0.0
  0
LINE
  5
F7
330
EB
100
AcDbEntity
  8
0
  6
CONTINUOUS
 62
     7
100
AcDbLine
 10
-330.4499999999999
 20
300.0220354090235
 30
0.0
 11
-330.4499999999999
 21
292.7084983928318
 31
0.0
  0
LINE
  5
F8
330
EB
100
AcDbEntity
  8
0
  6
CONTINUOUS
 62
     7
100
AcDbLine
 10
-330.45
 20
374.0821797604626
 30
0.0
 11
-330.45
 21
356.1217749093827
 31
0.0
  0
LINE
  5
F9
330
EB
100
AcDbEntity
  8
0
  6
CONTINUOUS
 62
     7
100
AcDbLine
 10
-304.05
 20
389.4406074944652
 30
0.0
 11
-304.05
 21
374.0821797604627
 31
0.0
  0
LINE
  5
FA
330
EB
100
AcDbEntity
  8
0
  6
CONTINUOUS
 62
     7
100
AcDbLine
 10
-320.9499999999999
 20
356.1217749093827
 30
0.0
 11
-320.9499999999999
 21
374.0821797604626
 31
0.0
  0
LINE
  5
FB
330
EB
100
AcDbEntity
  8
0
  6
CONTINUOUS
 62
     7
100
AcDbLine
 10
-304.05
 20
374.0821797604626
 30
0.0
 11
-304.05
 21
356.1217749093827
 31
0.0
  0
LINE
  5
FC
330
EB
100
AcDbEntity
  8
0
  6
CONTINUOUS
 62
     7
100
AcDbLine
 10
-320.9499999999999
 20
374.0821797604626
 30
0.0
 11
-320.9499999999999
 21
389.4406074944652
 31
0.0
  0
LINE
  5
FD
330
EB
100
AcDbEntity
  8
0
  6
CONTINUOUS
 62
     7
100
AcDbLine
 10
-330.4499999999999
 20
389.4406074944652
 30
0.0
 11
-330.4499999999999
 21
374.0821797604627
 31
0.0
  0
LINE
  5
FE
330
EB
100
AcDbEntity
  8
0
  6
CONTINUOUS
 62
     7
100
AcDbLine
 10
-302.05
 20
325.3252105505705
 30
0.0
 11
-296.55
 21
325.3252105505705
 31
0.0
  0
LINE
  5
FF
330
EB
100
AcDbEntity
  8
0
  6
CONTINUOUS
 62
     7
100
AcDbLine
 10
-302.05
 20
353.5619407434858
 30
0.0
 11
-296.55
 21
353.5619407434858
 31
0.0
  0
ELLIPSE
  5
100
330
EB
100
AcDbEntity
  8
0
  6
CONTINUOUS
 62
     7
100
AcDbEllipse
 10
-296.55
 20
323.6470112882159
 30
0.0
 11
2.0
 21
0.0
 31
0.0
210
0.0
220
0.0
230
1.0
 40
0.83909963117728
 41
0.0
 42
1.570796326794911
  0
LINE
  5
101
330
EB
100
AcDbEntity
  8
0
  6
CONTINUOUS
 62
     7
100
AcDbLine
 10
-294.55
 20
322.7653763846736
 30
0.0
 11
-294.55
 21
323.6470112882159
 31
0.0
  0
LINE
  5
102
330
EB
100
AcDbEntity
  8
0
  6
CONTINUOUS
 62
     7
100
AcDbLine
 10
-294.55
 20
355.2401400058404
 30
0.0
 11
-294.55
 21
356.1217749093827
 31
0.0
  0
ELLIPSE
  5
103
330
EB
100
AcDbEntity
  8
0
  6
CONTINUOUS
 62
     7
100
AcDbEllipse
 10
-296.55
 20
355.2401400058404
 30
0.0
 11
2.0
 21
0.0
 31
0.0
210
0.0
220
0.0
230
-1.0
 40
0.8390996311772798
 41
0.0
 42
1.570796326794911
  0
LINE
  5
104
330
EB
100
AcDbEntity
  8
0
  6
CONTINUOUS
 62
     7
100
AcDbLine
 10
-330.4499999999999
 20
323.6470112882159
 30
0.0
 11
-330.4499999999999
 21
322.7653763846736
 31
0.0
  0
ELLIPSE
  5
105
330
EB
100
AcDbEntity
  8
0
  6
CONTINUOUS
 62
     7
100
AcDbEllipse
 10
-328.45
 20
323.6470112882159
 30
0.0
 11
-2.0
 21
0.0
 31
0.0
210
0.0
220
0.0
230
-1.0
 40
0.83909963117728
 41
0.0
 42
1.570796326794885
  0
LINE
  5
106
330
EB
100
AcDbEntity
  8
0
  6
CONTINUOUS
 62
     7
100
AcDbLine
 10
-328.45
 20
325.3252105505705
 30
0.0
 11
-322.95
 21
325.3252105505705
 31
0.0
  0
ELLIPSE
  5
107
330
EB
100
AcDbEntity
  8
0
  6
CONTINUOUS
 62
     7
100
AcDbEllipse
 10
-302.05
 20
355.2401400058404
 30
0.0
 11
2.0
 21
0.0
 31
0.0
210
0.0
220
0.0
230
-1.0
 40
0.8390996311772798
 41
1.570796326794911
 42
3.141592653589793
  0
LINE
  5
108
330
EB
100
AcDbEntity
  8
0
  6
CONTINUOUS
 62
     7
100
AcDbLine
 10
-304.05
 20
355.2401400058404
 30
0.0
 11
-304.05
 21
356.1217749093827
 31
0.0
  0
LINE
  5
109
330
EB
100
AcDbEntity
  8
0
  6
CONTINUOUS
 62
     7
100
AcDbLine
 10
-320.9499999999999
 20
322.7653763846736
 30
0.0
 11
-320.9499999999999
 21
323.6470112882159
 31
0.0
  0
ELLIPSE
  5
10A
330
EB
100
AcDbEntity
  8
0
  6
CONTINUOUS
 62
     7
100
AcDbEllipse
 10
-322.9499999999999
 20
323.6470112882159
 30
0.0
 11
2.0
 21
0.0
 31
0.0
210
0.0
220
0.0
230
-1.0
 40
0.83909963117728
 41
4.712388980384675
 42
6.283185307179586
  0
ELLIPSE
  5
10B
330
EB
100
AcDbEntity
  8
0
  6
CONTINUOUS
 62
     7
100
AcDbEllipse
 10
-328.45
 20
355.2401400058404
 30
0.0
 11
-2.0
 21
0.0
 31
0.0
210
0.0
220
0.0
230
1.0
 40
0.8390996311772798
 41
0.0
 42
1.570796326794885
  0
LINE
  5
10C
330
EB
100
AcDbEntity
  8
0
  6
CONTINUOUS
 62
     7
100
AcDbLine
 10
-330.45
 20
356.1217749093827
 30
0.0
 11
-330.45
 21
355.2401400058404
 31
0.0
  0
LINE
  5
10D
330
EB
100
AcDbEntity
  8
0
  6
CONTINUOUS
 62
     7
100
AcDbLine
 10
-304.05
 20
322.7653763846736
 30
0.0
 11
-304.05
 21
323.6470112882159
 31
0.0
  0
ELLIPSE
  5
10E
330
EB
100
AcDbEntity
  8
0
  6
CONTINUOUS
 62
     7
100
AcDbEllipse
 10
-302.05
 20
323.6470112882159
 30
0.0
 11
-2.0
 21
0.0
 31
0.0
210
0.0
220
0.0
230
-1.0
 40
0.83909963117728
 41
0.0
 42
1.570796326794881
  0
LINE
  5
10F
330
EB
100
AcDbEntity
  8
0
  6
CONTINUOUS
 62
     7
100
AcDbLine
 10
-328.45
 20
353.5619407434859
 30
0.0
 11
-322.95
 21
353.5619407434859
 31
0.0
  0
LINE
  5
110
330
EB
100
AcDbEntity
  8
0
  6
CONTINUOUS
 62
     7
100
AcDbLine
 10
-320.9499999999999
 20
355.2401400058404
 30
0.0
 11
-320.9499999999999
 21
356.1217749093827
 31
0.0
  0
ELLIPSE
  5
111
330
EB
100
AcDbEntity
  8
0
  6
CONTINUOUS
 62
     7
100
AcDbEllipse
 10
-322.9499999999999
 20
355.2401400058404
 30
0.0
 11
-2.0
 21
0.0
 31
0.0
210
0.0
220
0.0
230
1.0
 40
0.8390996311772798
 41
1.570796326794881
 42
3.141592653589791
  0
LINE
  5
112
330
EB
100
AcDbEntity
  8
0
  6
CONTINUOUS
 62
     7
100
AcDbLine
 10
-294.55
 20
292.6683021432567
 30
0.0
 11
-294.55
 21
292.7084983928318
 31
0.0
  0
LINE
  5
113
330
EB
100
AcDbEntity
  8
0
  6
CONTINUOUS
 62
     7
100
AcDbLine
 10
-330.4499999999999
 20
292.7084983928318
 30
0.0
 11
-330.4499999999999
 21
292.6683021432567
 31
0.0
  0
LINE
  5
114
330
EB
100
AcDbEntity
  8
0
  6
CONTINUOUS
 62
     7
100
AcDbLine
 10
-320.9499999999999
 20
289.0595060326982
 30
0.0
 11
-320.9499999999999
 21
292.7084983928318
 31
0.0
  0
LINE
  5
115
330
EB
100
AcDbEntity
  8
0
  6
CONTINUOUS
 62
     7
100
AcDbLine
 10
-304.05
 20
292.7084983928318
 30
0.0
 11
-304.05
 21
289.0595060326982
 31
0.0
  0
LINE
  5
116
330
EB
100
AcDbEntity
  8
0
  6
CONTINUOUS
 62
     7
100
AcDbLine
 10
-294.55
 20
291.0564243529718
 30
0.0
 11
-294.55
 21
292.6683021432567
 31
0.0
  0
LINE
  5
117
330
EB
100
AcDbEntity
  8
0
  6
CONTINUOUS
 62
     7
100
AcDbLine
 10
-304.05
 20
289.0564243529718
 30
0.0
 11
-304.05
 21
289.0595060326982
 31
0.0
  0
LINE
  5
118
330
EB
100
AcDbEntity
  8
0
  6
CONTINUOUS
 62
     7
100
AcDbLine
 10
-320.9499999999999
 20
289.0564243529718
 30
0.0
 11
-320.9499999999999
 21
289.0595060326982
 31
0.0
  0
LINE
  5
119
330
EB
100
AcDbEntity
  8
0
  6
CONTINUOUS
 62
     7
100
AcDbLine
 10
-330.4499999999999
 20
292.6683021432567
 30
0.0
 11
-330.4499999999999
 21
291.0564243529717
 31
0.0
  0
LINE
  5
11A
330
EB
100
AcDbEntity
  8
0
  6
CONTINUOUS
 62
     7
100
AcDbLine
 10
-294.55
 20
323.6470112882159
 30
0.0
 11
-294.55
 21
355.2401400058404
 31
0.0
  0
LINE
  5
11B
330
EB
100
AcDbEntity
  8
0
  6
CONTINUOUS
 62
     7
100
AcDbLine
 10
-304.05
 20
355.2401400058404
 30
0.0
 11
-304.05
 21
323.6470112882159
 31
0.0
  0
LINE
  5
11C
330
EB
100
AcDbEntity
  8
0
  6
CONTINUOUS
 62
     7
100
AcDbLine
 10
-330.4499999999999
 20
355.2401400058404
 30
0.0
 11
-330.4499999999999
 21
323.6470112882159
 31
0.0
  0
LINE
  5
11D
330
EB
100
AcDbEntity
  8
0
  6
CONTINUOUS
 62
     7
100
AcDbLine
 10
-320.9499999999999
 20
323.6470112882159
 30
0.0
 11
-320.9499999999999
 21
355.2401400058404
 31
0.0
  0
LINE
  5
11E
330
EB
100
AcDbEntity
  8
0
  6
CONTINUOUS
 62
     7
100
AcDbLine
 10
-294.55
 20
389.4406074944652
 30
0.0
 11
-294.55
 21
390.8020033810308
 31
0.0
  0
LINE
  5
11F
330
EB
100
AcDbEntity
  8
0
  6
CONTINUOUS
 62
     7
100
AcDbLine
 10
-304.05
 20
390.8020033810308
 30
0.0
 11
-304.05
 21
389.4406074944652
 31
0.0
  0
LINE
  5
120
330
EB
100
AcDbEntity
  8
0
  6
CONTINUOUS
 62
     7
100
AcDbLine
 10
-330.4499999999999
 20
390.8020033810308
 30
0.0
 11
-330.4499999999999
 21
389.4406074944652
 31
0.0
  0
LINE
  5
121
330
EB
100
AcDbEntity
  8
0
  6
CONTINUOUS
 62
     7
100
AcDbLine
 10
-320.9499999999999
 20
389.4406074944652
 30
0.0
 11
-320.9499999999999
 21
390.8020033810308
 31
0.0
  0
ARC
  5
122
330
EB
100
AcDbEntity
  8
0
  6
CONTINUOUS
 62
     7
100
AcDbCircle
 10
296.55
 20
396.4435756470282
 30
0.0
 40
2.000000000000002
210
0.0
220
0.0
230
-1.0
100
AcDbArc
 50
90.0
 51
180.0
  0
LINE
  5
123
330
EB
100
AcDbEntity
  8
0
  6
CONTINUOUS
 62
     7
100
AcDbLine
 10
-294.55
 20
390.8020033810308
 30
0.0
 11
-294.55
 21
396.4435756470282
 31
0.0
  0
ARC
  5
124
330
EB
100
AcDbEntity
  8
0
  6
CONTINUOUS
 62
     7
100
AcDbCircle
 10
302.05
 20
396.4435756470282
 30
0.0
 40
2.000000000000002
210
0.0
220
0.0
230
-1.0
100
AcDbArc
 50
0.0000000000003976
 51
90.0
  0
LINE
  5
125
330
EB
100
AcDbEntity
  8
0
  6
CONTINUOUS
 62
     7
100
AcDbLine
 10
-304.05
 20
396.4435756470282
 30
0.0
 11
-304.05
 21
390.8020033810309
 31
0.0
  0
ARC
  5
126
330
EB
100
AcDbEntity
  8
0
  6
CONTINUOUS
 62
     7
100
AcDbCircle
 10
322.9499999999999
 20
396.4435756470282
 30
0.0
 40
2.000000000000002
210
0.0
220
0.0
230
-1.0
100
AcDbArc
 50
90.0
 51
179.9999999999996
  0
LINE
  5
127
330
EB
100
AcDbEntity
  8
0
  6
CONTINUOUS
 62
     7
100
AcDbLine
 10
-320.9499999999999
 20
390.8020033810308
 30
0.0
 11
-320.9499999999999
 21
396.4435756470282
 31
0.0
  0
ARC
  5
128
330
EB
100
AcDbEntity
  8
0
  6
CONTINUOUS
 62
     7
100
AcDbCircle
 10
328.4499999999999
 20
396.4435756470282
 30
0.0
 40
2.000000000000002
210
0.0
220
0.0
230
-1.0
100
AcDbArc
 50
0.0000000000003976
 51
90.0
  0
LINE
  5
129
330
EB
100
AcDbEntity
  8
0
  6
CONTINUOUS
 62
     7
100
AcDbLine
 10
-330.4499999999999
 20
396.4435756470282
 30
0.0
 11
-330.4499999999999
 21
390.8020033810309
 31
0.0
  0
LINE
  5
12A
330
EB
100
AcDbEntity
  8
0
  6
CONTINUOUS
 62
     7
100
AcDbLine
 10
-296.55
 20
398.4435756470282
 30
0.0
 11
-302.05
 21
398.4435756470282
 31
0.0
  0
LINE
  5
12B
330
EB
100
AcDbEntity
  8
0
  6
CONTINUOUS
 62
     7
100
AcDbLine
 10
-322.9499999999999
 20
398.4435756470282
 30
0.0
 11
-328.4499999999999
 21
398.4435756470282
 31
0.0
  0
LWPOLYLINE
  5
12C
330
EB
100
AcDbEntity
  8
0
  6
CONTINUOUS
 62
     7
100
AcDbPolyline
 90
        9
 70
     0
 43
0.0
 10
-304.05
 20
293.4969274888396
 10
-304.0638387790866
 20
293.6102364029422
 10
-304.1065697561687
 20
293.7235453170449
 10
-304.1746186135183
 20
293.8273446351129
 10
-304.243765877271
 20
293.9012778958635
 10
-304.3245171328607
 20
293.9673397283393
 10
-304.4169788672141
 20
294.0260544830955
 10
-304.4169788672141
 20
294.0260544830955
 42
0.1251558542802979
 10
-305.05
 20
294.1804578638094
  0
LWPOLYLINE
  5
12D
330
EB
100
AcDbEntity
  8
0
  6
CONTINUOUS
 62
     7
100
AcDbPolyline
 90
        9
 70
     0
 43
0.0
 10
-319.9499999999999
 20
294.1804578638094
 42
0.1411936937526683
 10
-320.636045471349
 20
293.9942166165895
 10
-320.7219104133402
 20
293.9314462797178
 10
-320.7968505822774
 20
293.8604260847802
 10
-320.8731814938373
 20
293.7596296057624
 10
-320.925127371774
 20
293.6484124474622
 10
-320.9471901958276
 20
293.5481162782074
 10
-320.9499999999999
 20
293.4969274888396
 10
-320.9499999999999
 20
293.4969274888396
  0
ARC
  5
12E
330
EB
100
AcDbEntity
  8
0
  6
CONTINUOUS
 62
     7
100
AcDbCircle
 10
-319.9499999999999
 20
391.4435756470282
 30
0.0
 40
1.000000000000001
100
AcDbArc
 50
180.0000000000008
 51
270.0000000000002
  0
ARC
  5
12F
330
EB
100
AcDbEntity
  8
0
  6
CONTINUOUS
 62
     7
100
AcDbCircle
 10
-305.05
 20
391.4435756470282
 30
0.0
 40
1.000000000000001
100
AcDbArc
 50
270.0
 51
359.9999999999993
  0
LINE
  5
130
330
EB
100
AcDbEntity
  8
0
  6
CONTINUOUS
 62
     7
100
AcDbLine
 10
-305.05
 20
294.1804578638094
 30
0.0
 11
-319.9499999999999
 21
294.1804578638094
 31
0.0
  0
LINE
  5
131
330
EB
100
AcDbEntity
  8
0
  6
CONTINUOUS
 62
     7
100
AcDbLine
 10
-305.05
 20
390.4435756470282
 30
0.0
 11
-319.9499999999999
 21
390.4435756470282
 31
0.0
  0
LINE
  5
132
330
EB
100
AcDbEntity
  8
0
  6
CONTINUOUS
 62
     7
100
AcDbLine
 10
-286.9825475935627
 20
390.1980273518992
 30
0.0
 11
-294.5499999999999
 21
390.3301177249948
 31
0.0
  0
LINE
  5
133
330
EB
100
AcDbEntity
  8
0
  6
CONTINUOUS
 62
     7
100
AcDbLine
 10
-330.4499999999999
 20
390.3301177249948
 30
0.0
 11
-338.0174524064373
 21
390.1980273518992
 31
0.0
  0
LINE
  5
134
330
EB
100
AcDbEntity
  8
0
  6
CONTINUOUS
 62
     7
100
AcDbLine
 10
-285.9999999999999
 20
303.9435756470282
 30
0.0
 11
-285.9999999999999
 21
295.8390076281578
 31
0.0
  0
LINE
  5
135
330
EB
100
AcDbEntity
  8
0
  6
CONTINUOUS
 62
     7
100
AcDbLine
 10
-285.9999999999999
 20
374.9435756470282
 30
0.0
 11
-285.9999999999999
 21
303.9435756470282
 31
0.0
  0
ARC
  5
136
330
EB
100
AcDbEntity
  8
0
  6
CONTINUOUS
 62
     7
100
AcDbCircle
 10
286.9999999999999
 20
389.1981796567429
 30
0.0
 40
0.9999999999999836
210
0.0
220
0.0
230
-1.0
100
AcDbArc
 50
90.99999999999986
 51
180.0000000000012
  0
LINE
  5
137
330
EB
100
AcDbEntity
  8
0
  6
CONTINUOUS
 62
     7
100
AcDbLine
 10
-285.9999999999999
 20
389.1981796567429
 30
0.0
 11
-285.9999999999999
 21
374.9435756470282
 31
0.0
  0
LINE
  5
138
330
EB
100
AcDbEntity
  8
0
  6
CONTINUOUS
 62
     7
100
AcDbLine
 10
-338.9999999999999
 20
374.9435756470282
 30
0.0
 11
-338.9999999999999
 21
389.1981796567429
 31
0.0
  0
ARC
  5
139
330
EB
100
AcDbEntity
  8
0
  6
CONTINUOUS
 62
     7
100
AcDbCircle
 10
337.9999999999999
 20
389.1981796567429
 30
0.0
 40
1.000000000000001
210
0.0
220
0.0
230
-1.0
100
AcDbArc
 50
0.0
 51
88.9999999999999
  0
LINE
  5
13A
330
EB
100
AcDbEntity
  8
0
  6
CONTINUOUS
 62
     7
100
AcDbLine
 10
-338.9999999999999
 20
303.9435756470282
 30
0.0
 11
-338.9999999999999
 21
374.9435756470282
 31
0.0
  0
LINE
  5
13B
330
EB
100
AcDbEntity
  8
0
  6
CONTINUOUS
 62
     7
100
AcDbLine
 10
-338.9999999999999
 20
295.8390076281578
 30
0.0
 11
-338.9999999999999
 21
303.9435756470282
 31
0.0
  0
LWPOLYLINE
  5
13C
330
EB
100
AcDbEntity
  8
0
  6
CONTINUOUS
 62
     7
100
AcDbPolyline
 90
       33
 70
     0
 43
0.0
 10
294.0587262032186
 20
390.3215425089744
 10
294.082973683545
 20
390.3225548050794
 10
294.1071434824834
 20
390.3247424670429
 10
294.1311786593666
 20
390.3281003410394
 10
294.1550225906786
 20
390.3326205163871
 10
294.178619103451
 20
390.338292344185
 10
294.2019126075989
 20
390.3451024623997
 10
294.2248482268833
 20
390.3530348273451
 10
294.2473719281921
 20
390.3620707514781
 10
294.2694306488341
 20
390.3721889474252
 10
294.2909724215478
 20
390.3833655781312
 10
294.3119464969285
 20
390.3955743130171
 10
294.3323034629871
 20
390.4087863900102
 10
294.351995361558
 20
390.4229706833045
 10
294.3709758012814
 20
390.4380937766883
 10
294.3892000668949
 20
390.454120042268
 10
294.4066252245771
 20
390.4710117244027
 10
294.4232102230926
 20
390.4887290286509
 10
294.4389159905039
 20
390.5072302155212
 10
294.453705526219
 20
390.526471698804
 10
294.4675439881593
 20
390.5464081482548
 10
294.4803987748436
 20
390.5669925963866
 10
294.4922396021918
 20
390.5881765491172
 10
294.5030385748701
 20
390.6099101000164
 10
294.5127702520087
 20
390.6321420478764
 10
294.5214117071371
 20
390.6548200173369
 10
294.5289425821952
 20
390.6778905822724
 10
294.5353451354942
 20
390.7012993916578
 10
294.5406042835139
 20
390.7249912976109
 10
294.5447076364367
 20
390.748910485314
 10
294.5476455273369
 20
390.7730006045052
 10
294.5494110349543
 20
390.7972049022318
 10
294.55
 20
390.8214663565526
210
0.0
220
0.0
230
-1.0
  0
LWPOLYLINE
  5
13D
330
EB
100
AcDbEntity
  8
0
  6
CONTINUOUS
 62
     7
100
AcDbPolyline
 90
       33
 70
     0
 43
0.0
 10
330.4499999999999
 20
390.8214663565526
 10
330.4505889650455
 20
390.7972049022318
 10
330.452354472663
 20
390.7730006045052
 10
330.4552923635632
 20
390.748910485314
 10
330.4593957164861
 20
390.7249912976109
 10
330.4646548645057
 20
390.7012993916578
 10
330.4710574178047
 20
390.6778905822724
 10
330.4785882928628
 20
390.6548200173369
 10
330.4872297479911
 20
390.6321420478764
 10
330.4969614251298
 20
390.6099101000164
 10
330.5077603978082
 20
390.5881765491173
 10
330.5196012251563
 20
390.5669925963866
 10
330.5324560118406
 20
390.5464081482549
 10
330.546294473781
 20
390.526471698804
 10
330.561084009496
 20
390.5072302155212
 10
330.5767897769073
 20
390.4887290286509
 10
330.5933747754229
 20
390.4710117244027
 10
330.6107999331051
 20
390.4541200422681
 10
330.6290241987186
 20
390.4380937766883
 10
330.6480046384419
 20
390.4229706833045
 10
330.6676965370128
 20
390.4087863900102
 10
330.6880535030715
 20
390.3955743130171
 10
330.7090275784522
 20
390.3833655781313
 10
330.7305693511659
 20
390.3721889474252
 10
330.7526280718078
 20
390.3620707514782
 10
330.7751517731166
 20
390.3530348273451
 10
330.798087392401
 20
390.3451024623997
 10
330.8213808965489
 20
390.338292344185
 10
330.8449774093213
 20
390.3326205163871
 10
330.8688213406332
 20
390.3281003410394
 10
330.8928565175165
 20
390.3247424670429
 10
330.9170263164549
 20
390.3225548050794
 10
330.9412737967813
 20
390.3215425089744
210
0.0
220
0.0
230
-1.0
  0
ARC
  5
13E
330
EB
100
AcDbEntity
  8
0
  6
CONTINUOUS
 62
     7
100
AcDbCircle
 10
-296.55
 20
291.0564243529718
 30
0.0
 40
2.000000000000002
100
AcDbArc
 50
270.0
 51
0.0
  0
LINE
  5
13F
330
EB
100
AcDbEntity
  8
0
  6
CONTINUOUS
 62
     7
100
AcDbLine
 10
-304.05
 20
289.0564243529718
 30
0.0
 11
-296.55
 21
289.0564243529718
 31
0.0
  0
LINE
  5
140
330
EB
100
AcDbEntity
  8
0
  6
CONTINUOUS
 62
     7
100
AcDbLine
 10
-328.45
 20
289.0564243529718
 30
0.0
 11
-320.95
 21
289.0564243529718
 31
0.0
  0
ARC
  5
141
330
EB
100
AcDbEntity
  8
0
  6
CONTINUOUS
 62
     7
100
AcDbCircle
 10
-328.45
 20
291.0564243529718
 30
0.0
 40
1.999999999999974
100
AcDbArc
 50
180.0
 51
270.0
  0
LINE
  5
142
330
EB
100
AcDbEntity
  8
0
  6
CONTINUOUS
 62
     7
100
AcDbLine
 10
-294.5499999642136
 20
294.7481037436866
 30
0.0
 11
-286.9879769369552
 21
294.8390800973285
 31
0.0
  0
LINE
  5
143
330
EB
100
AcDbEntity
  8
0
  6
CONTINUOUS
 62
     7
100
AcDbLine
 10
-338.0120230630447
 20
294.8390800973285
 30
0.0
 11
-330.4500000357864
 21
294.7481037436866
 31
0.0
  0
ARC
  5
144
330
EB
100
AcDbEntity
  8
0
  6
CONTINUOUS
 62
     7
100
AcDbCircle
 10
-286.9999999999999
 20
295.8390076281578
 30
0.0
 40
1.000000000000014
100
AcDbArc
 50
270.6893426048813
 51
359.9999999999996
  0
ARC
  5
145
330
EB
100
AcDbEntity
  8
0
  6
CONTINUOUS
 62
     7
100
AcDbCircle
 10
-337.9999999999999
 20
295.8390076281578
 30
0.0
 40
1.000000000000001
100
AcDbArc
 50
180.0
 51
269.3106573951185
  0
ENDBLK
  5
149
330
EB
100
AcDbEntity
  8
0
100
AcDbBlockEnd
  0
BLOCK
  5
1EB
330
147
100
AcDbEntity
  8
0
100
AcDbBlockBegin
  2
D_FRAME_VIEW_3133
 70
     0
 10
0.0
 20
0.0
 30
0.0
  3
D_FRAME_VIEW_3133
  1

  0
LINE
  5
14A
330
147
100
AcDbEntity
  8
0
  6
CONTINUOUS
 62
     7
100
AcDbLine
 10
-392.4555448168434
 20
295.1076539265387
 30
0.0
 11
-393.4244583724672
 21
296.0111804343211
 31
0.0
  0
LINE
  5
14B
330
147
100
AcDbEntity
  8
0
  6
CONTINUOUS
 62
     7
100
AcDbLine
 10
-486.5755416275329
 20
296.011180434321
 30
0.0
 11
-487.5444551831566
 21
295.1076539265387
 31
0.0
  0
LINE
  5
14C
330
147
100
AcDbEntity
  8
0
  6
CONTINUOUS
 62
     7
100
AcDbLine
 10
-392.3323402283364
 20
294.9927637890745
 30
0.0
 11
-392.4555448168434
 21
295.1076539265387
 31
0.0
  0
LWPOLYLINE
  5
14D
330
147
100
AcDbEntity
  8
0
  6
CONTINUOUS
 62
     7
100
AcDbPolyline
 90
       31
 70
     0
 43
0.0
 10
390.8517008750688
 20
295.1760429682992
 10
390.8774304807345
 20
295.1399932927018
 10
390.9043702377955
 20
295.1055127512073
 10
390.9323744342443
 20
295.0726612567047
 10
390.9612973580732
 20
295.0414987220824
 10
390.9920317267521
 20
295.0110845755797
 10
391.0235693628154
 20
294.9824170559999
 10
391.055776732486
 20
294.95550663116
 10
391.0885203019869
 20
294.9303637688772
 10
391.1288826366771
 20
294.9021626447114
 10
391.1698209207393
 20
294.8764169187342
 10
391.2111631184974
 20
294.8530854862184
 10
391.2527371942761
 20
294.8321272424367
 10
391.3099746678739
 20
294.8070876159236
 10
391.3673010173779
 20
294.7861296628772
 10
391.4244281141553
 20
294.769091102248
 10
391.482488435659
 20
294.755514928535
 10
391.5400724533023
 20
294.7456341830672
 10
391.5969957157839
 20
294.739280559574
 10
391.6530737718026
 20
294.7362857517846
 10
391.7284392872977
 20
294.7373355769942
 10
391.801949176354
 20
294.7440133216697
 10
391.8733205735392
 20
294.7559719032976
 10
391.9375598807497
 20
294.7715356577778
 10
391.9997839304414
 20
294.7911913949486
 10
392.0598371215931
 20
294.8147334485267
 10
392.1175638531832
 20
294.841956152229
 10
392.1926842558859
 20
294.8849084204319
 10
392.2631534998177
 20
294.9341563206798
 10
392.3286170960759
 20
294.9893104495102
 10
392.3323402283364
 20
294.9927637890745
210
0.0
220
0.0
230
-1.0
  0
LINE
  5
14E
330
147
100
AcDbEntity
  8
0
  6
CONTINUOUS
 62
     7
100
AcDbLine
 10
-487.5444551831567
 20
295.1076539265387
 30
0.0
 11
-487.6676597716637
 21
294.9927637890745
 31
0.0
  0
LWPOLYLINE
  5
14F
330
147
100
AcDbEntity
  8
0
  6
CONTINUOUS
 62
     7
100
AcDbPolyline
 90
       31
 70
     0
 43
0.0
 10
487.6676597716636
 20
294.9927637890745
 10
487.6713829039242
 20
294.9893104495102
 10
487.7351491913533
 20
294.9354634140697
 10
487.8036791711375
 20
294.8872243140796
 10
487.8766442312598
 20
294.844952842502
 10
487.9356358331248
 20
294.8167002483885
 10
487.997083812334
 20
294.7923052275663
 10
488.0608207998063
 20
294.7719887794108
 10
488.1266794264608
 20
294.7559719032976
 10
488.1961839046182
 20
294.7442566776055
 10
488.2677214515726
 20
294.737545474318
 10
488.3410321309444
 20
294.736158124595
 10
488.3985138799427
 20
294.7389218637607
 10
488.4568964838824
 20
294.7452108574631
 10
488.5159818500782
 20
294.7552067291447
 10
488.5755718858447
 20
294.769091102248
 10
488.6311914676948
 20
294.7856315516424
 10
488.6870042394908
 20
294.8058826344393
 10
488.7427458646793
 20
294.8299944295258
 10
488.7854651696573
 20
294.8512950982148
 10
488.8279508378921
 20
294.8750935020192
 10
488.8700174778539
 20
294.9014347044147
 10
488.9114796980131
 20
294.9303637688772
 10
488.9432379682589
 20
294.9547181728242
 10
488.9744940741822
 20
294.9807331673605
 10
489.0051267217765
 20
295.0083998424527
 10
489.0350146170354
 20
295.0377092880669
 10
489.0649426922222
 20
295.0696597683033
 10
489.0939058169607
 20
295.1034086863499
 10
489.1217444687103
 20
295.138891325313
 10
489.1482991249312
 20
295.1760429682992
210
0.0
220
0.0
230
-1.0
  0
ARC
  5
150
330
147
100
AcDbEntity
  8
0
  6
CONTINUOUS
 62
     9
100
AcDbCircle
 10
476.5
 20
303.9435756470282
 30
0.0
 40
11.50030463288751
210
0.0
220
0.0
230
-1.0
100
AcDbArc
 50
326.5325145852532
 51
0.0
  0
LINE
  5
151
330
147
100
AcDbEntity
  8
0
  6
CONTINUOUS
 62
     9
100
AcDbLine
 10
-488.0003046328875
 20
303.9435756470282
 30
0.0
 11
-488.0003046328875
 21
374.9435756470283
 31
0.0
  0
ARC
  5
152
330
147
100
AcDbEntity
  8
0
  6
CONTINUOUS
 62
     7
100
AcDbCircle
 10
403.4999999999999
 20
303.9435756470282
 30
0.0
 40
11.50030463288751
210
0.0
220
0.0
230
-1.0
100
AcDbArc
 50
180.0
 51
213.4674854147464
  0
LINE
  5
153
330
147
100
AcDbEntity
  8
0
  6
CONTINUOUS
 62
     7
100
AcDbLine
 10
-393.4244583724671
 20
296.011180434321
 30
0.0
 11
-393.7543849806377
 21
296.3188419737584
 31
0.0
  0
ELLIPSE
  5
154
330
147
100
AcDbEntity
  8
0
  6
CONTINUOUS
 62
     7
100
AcDbEllipse
 10
-393.0723866205759
 20
297.0501956753783
 30
0.0
 11
-0.681998360062491
 21
-0.7313537016192025
 31
0.0
210
0.0
220
0.0
230
-1.0
 40
0.9998434012971761
 41
0.0
 42
1.404448137182612
  0
ELLIPSE
  5
155
330
147
100
AcDbEntity
  8
0
  6
CONTINUOUS
 62
     9
100
AcDbEllipse
 10
-486.9276133794245
 20
297.0501956753779
 30
0.0
 11
-0.6819983600624937
 21
0.7313537016191799
 31
0.0
210
0.0
220
0.0
230
-1.0
 40
0.9998434012971761
 41
1.737144516407174
 42
3.141592653589778
  0
LINE
  5
156
330
147
100
AcDbEntity
  8
0
  6
CONTINUOUS
 62
     7
100
AcDbLine
 10
-486.245615019362
 20
296.3188419737587
 30
0.0
 11
-486.5755416275329
 21
296.011180434321
 31
0.0
  0
LINE
  5
157
330
147
100
AcDbEntity
  8
0
  6
CONTINUOUS
 62
     9
100
AcDbLine
 10
-406.2300041223058
 20
390.4350004310078
 30
0.0
 11
-406.2955090841335
 21
390.3215425089744
 31
0.0
  0
LINE
  5
158
330
147
100
AcDbEntity
  8
0
  6
CONTINUOUS
 62
     9
100
AcDbLine
 10
-403.5
 20
390.4350004310078
 30
0.0
 11
-406.2300041223058
 21
390.4350004310078
 31
0.0
  0
LINE
  5
159
330
147
100
AcDbEntity
  8
0
  6
CONTINUOUS
 62
     9
100
AcDbLine
 10
-473.7699958776942
 20
390.4350004310078
 30
0.0
 11
-476.5
 21
390.4350004310078
 31
0.0
  0
LINE
  5
15A
330
147
100
AcDbEntity
  8
0
  6
CONTINUOUS
 62
     9
100
AcDbLine
 10
-406.2955090841335
 20
390.3215425089744
 30
0.0
 11
-473.7044909158665
 21
390.3215425089744
 31
0.0
  0
ARC
  5
15B
330
147
100
AcDbEntity
  8
0
  6
CONTINUOUS
 62
     7
100
AcDbCircle
 10
-403.5
 20
374.9435756470282
 30
0.0
 40
15.49142478397964
100
AcDbArc
 50
359.9999999999998
 51
90.0
  0
ARC
  5
15C
330
147
100
AcDbEntity
  8
0
  6
CONTINUOUS
 62
     7
100
AcDbCircle
 10
403.5
 20
303.9435756470282
 30
0.0
 40
15.3865420779666
210
0.0
220
0.0
230
-1.0
100
AcDbArc
 50
206.2812731864883
 51
211.4903737354441
  0
LINE
  5
15D
330
147
100
AcDbEntity
  8
0
  6
CONTINUOUS
 62
     7
100
AcDbLine
 10
-390.37946571153
 20
295.906333763016
 30
0.0
 11
-390.8517008750688
 21
295.1760429682992
 31
0.0
  0
ARC
  5
15E
330
147
100
AcDbEntity
  8
0
  6
CONTINUOUS
 62
     7
100
AcDbCircle
 10
-403.4999999999999
 20
303.9435756470282
 30
0.0
 40
15.49142478397963
100
AcDbArc
 50
333.6058848072963
 51
0.0000000000000568
  0
ARC
  5
15F
330
147
100
AcDbEntity
  8
0
  6
CONTINUOUS
 62
     7
100
AcDbCircle
 10
-476.5
 20
374.9435756470282
 30
0.0
 40
15.49142478397964
100
AcDbArc
 50
90.0
 51
180.0000000000001
  0
LINE
  5
160
330
147
100
AcDbEntity
  8
0
  6
CONTINUOUS
 62
     9
100
AcDbLine
 10
-491.9914247839797
 20
374.9435756470282
 30
0.0
 11
-491.9914247839797
 21
303.9435756470282
 31
0.0
  0
LINE
  5
161
330
147
100
AcDbEntity
  8
0
  6
CONTINUOUS
 62
     9
100
AcDbLine
 10
-388.0085752160204
 20
303.9435756470282
 30
0.0
 11
-388.0085752160204
 21
374.9435756470282
 31
0.0
  0
LINE
  5
162
330
147
100
AcDbEntity
  8
0
  6
CONTINUOUS
 62
     7
100
AcDbLine
 10
-489.62053428847
 20
295.906333763016
 30
0.0
 11
-489.1482991249312
 21
295.1760429682992
 31
0.0
  0
ARC
  5
163
330
147
100
AcDbEntity
  8
0
  6
CONTINUOUS
 62
     7
100
AcDbCircle
 10
-476.5
 20
303.9435756470282
 30
0.0
 40
15.38654207796658
100
AcDbArc
 50
206.2812731864883
 51
211.4903737354441
  0
ARC
  5
164
330
147
100
AcDbEntity
  8
0
  6
CONTINUOUS
 62
     7
100
AcDbCircle
 10
-476.5
 20
303.9435756470282
 30
0.0
 40
15.49142478397965
100
AcDbArc
 50
180.0
 51
206.3941151927038
  0
LINE
  5
165
330
147
100
AcDbEntity
  8
0
  6
CONTINUOUS
 62
     9
100
AcDbLine
 10
-476.5
 20
386.4438802799157
 30
0.0
 11
-403.5
 21
386.4438802799157
 31
0.0
  0
ARC
  5
166
330
147
100
AcDbEntity
  8
0
  6
CONTINUOUS
 62
     9
100
AcDbCircle
 10
476.5
 20
374.9435756470282
 30
0.0
 40
11.50030463288751
210
0.0
220
0.0
230
-1.0
100
AcDbArc
 50
0.0
 51
90.0
  0
LINE
  5
167
330
147
100
AcDbEntity
  8
0
  6
CONTINUOUS
 62
     9
100
AcDbLine
 10
-391.9996953671125
 20
374.9435756470282
 30
0.0
 11
-391.9996953671125
 21
303.9435756470282
 31
0.0
  0
ARC
  5
168
330
147
100
AcDbEntity
  8
0
  6
CONTINUOUS
 62
     9
100
AcDbCircle
 10
403.5
 20
374.9435756470282
 30
0.0
 40
11.50030463288748
210
0.0
220
0.0
230
-1.0
100
AcDbArc
 50
90.0
 51
180.0
  0
ELLIPSE
  5
169
330
147
100
AcDbEntity
  8
0
  6
CONTINUOUS
 62
     9
100
AcDbEllipse
 10
-473.7699958776942
 20
390.934924278586
 30
0.0
 11
-0.4330127018922241
 21
-0.2499999999999957
 31
0.0
210
0.0
220
0.0
230
-1.0
 40
0.9997969423376051
 41
3.141592653589841
 42
5.235899824972416
  0
ELLIPSE
  5
16A
330
147
100
AcDbEntity
  8
0
  6
CONTINUOUS
 62
     9
100
AcDbEllipse
 10
-406.2300041223058
 20
390.934924278586
 30
0.0
 11
0.43301270189221
 21
-0.2499999999999998
 31
0.0
210
0.0
220
0.0
230
1.0
 40
0.9997969423376051
 41
3.141592653589917
 42
5.235899824972477
  0
LINE
  5
16B
330
147
100
AcDbEntity
  8
0
  6
CONTINUOUS
 62
     7
100
AcDbLine
 10
-392.3323402283364
 20
294.9927637890745
 30
0.0
 11
-388.2710986405546
 21
291.2055947400184
 31
0.0
  0
LINE
  5
16C
330
147
100
AcDbEntity
  8
0
  6
CONTINUOUS
 62
     7
100
AcDbLine
 10
-487.6676597716636
 20
294.9927637890745
 30
0.0
 11
-491.7289013594454
 21
291.2055947400184
 31
0.0
  0
ARC
  5
16D
330
147
100
AcDbEntity
  8
0
  6
CONTINUOUS
 62
     7
100
AcDbCircle
 10
-382.8151117600547
 20
297.0564243529718
 30
0.0
 40
7.999999999999984
100
AcDbArc
 50
226.9999999999997
 51
312.9999999999999
  0
ARC
  5
16E
330
147
100
AcDbEntity
  8
0
  6
CONTINUOUS
 62
     7
100
AcDbCircle
 10
497.1848882399455
 20
297.0564243529718
 30
0.0
 40
7.999999999999988
210
0.0
220
0.0
230
-1.0
100
AcDbArc
 50
226.9999999999997
 51
312.9999999999999
  0
LINE
  5
16F
330
147
100
AcDbEntity
  8
0
  6
CONTINUOUS
 62
     7
100
AcDbLine
 10
-473.4863156129982
 20
397.4435756470281
 30
0.0
 11
-471.1769145362398
 21
393.4435756470282
 31
0.0
  0
ARC
  5
170
330
147
100
AcDbEntity
  8
0
  6
CONTINUOUS
 62
     7
100
AcDbCircle
 10
-397.9599183507092
 20
375.4435756470282
 30
0.0
 40
22.99999999999998
100
AcDbArc
 50
47.00000000000006
 51
90.0
  0
LINE
  5
171
330
147
100
AcDbEntity
  8
0
  6
CONTINUOUS
 62
     9
100
AcDbLine
 10
-378.680016399375
 20
292.7084983928318
 30
0.0
 11
-378.7231215996797
 21
292.6683021432567
 31
0.0
  0
LINE
  5
172
330
147
100
AcDbEntity
  8
0
  6
CONTINUOUS
 62
     7
100
AcDbLine
 10
-377.3591248795547
 20
291.2055947400184
 30
0.0
 11
-377.3160196792501
 21
291.2457909895934
 31
0.0
  0
LINE
  5
173
330
147
100
AcDbEntity
  8
0
  6
CONTINUOUS
 62
     7
100
AcDbLine
 10
-471.1769145362398
 20
393.4435756470282
 30
0.0
 11
-408.8230854637602
 21
393.4435756470282
 31
0.0
  0
ARC
  5
174
330
147
100
AcDbEntity
  8
0
  6
CONTINUOUS
 62
     7
100
AcDbCircle
 10
-385.5
 20
300.0220354090235
 30
0.0
 40
12.0
100
AcDbArc
 50
312.9999999999998
 51
359.9999999999999
  0
ARC
  5
175
330
147
100
AcDbEntity
  8
0
  6
CONTINUOUS
 62
     7
100
AcDbCircle
 10
483.5000000000001
 20
374.0821797604626
 30
0.0
 40
23.00000000000001
210
0.0
220
0.0
230
-1.0
100
AcDbArc
 50
0.0
 51
46.99999999999996
  0
ARC
  5
176
330
147
100
AcDbEntity
  8
0
  6
CONTINUOUS
 62
     7
100
AcDbCircle
 10
494.5000000000001
 20
300.0220354090235
 30
0.0
 40
12.0
210
0.0
220
0.0
230
-1.0
100
AcDbArc
 50
312.9999999999998
 51
359.9999999999999
  0
LINE
  5
177
330
147
100
AcDbEntity
  8
0
  6
CONTINUOUS
 62
     7
100
AcDbLine
 10
-397.9599183507092
 20
398.4435756470282
 30
0.0
 11
-404.7816335794329
 21
398.4435756470282
 31
0.0
  0
LINE
  5
178
330
147
100
AcDbEntity
  8
0
  6
CONTINUOUS
 62
     7
100
AcDbLine
 10
-378.4999999999999
 20
325.3252105505705
 30
0.0
 11
-378.4999999999999
 21
353.5619407434859
 31
0.0
  0
ARC
  5
179
330
147
100
AcDbEntity
  8
0
  6
CONTINUOUS
 62
     7
100
AcDbCircle
 10
404.7816335794329
 20
396.4435756470282
 30
0.0
 40
2.000000000000004
210
0.0
220
0.0
230
-1.0
100
AcDbArc
 50
29.99999999999795
 51
90.0000000000008
  0
LINE
  5
17A
330
147
100
AcDbEntity
  8
0
  6
CONTINUOUS
 62
     7
100
AcDbLine
 10
-380.8140377185625
 20
390.9033148977036
 30
0.0
 11
-382.2739560692718
 21
392.2647107842691
 31
0.0
  0
ARC
  5
17B
330
147
100
AcDbEntity
  8
0
  6
CONTINUOUS
 62
     7
100
AcDbCircle
 10
-396.5
 20
374.0821797604626
 30
0.0
 40
22.99999999999999
100
AcDbArc
 50
0.0
 51
46.99999999999996
  0
LINE
  5
17C
330
147
100
AcDbEntity
  8
0
  6
CONTINUOUS
 62
     7
100
AcDbLine
 10
-501.5000000000001
 20
325.3252105505705
 30
0.0
 11
-501.5000000000001
 21
353.5619407434859
 31
0.0
  0
ARC
  5
17D
330
147
100
AcDbEntity
  8
0
  6
CONTINUOUS
 62
     7
100
AcDbCircle
 10
375.5000000000001
 20
356.1217749093827
 30
0.0
 40
2.000000000000002
210
0.0
220
0.0
230
-1.0
100
AcDbArc
 50
180.0
 51
260.0000000000001
  0
LINE
  5
17E
330
147
100
AcDbEntity
  8
0
  6
CONTINUOUS
 62
     7
100
AcDbLine
 10
-406.5136843870018
 20
397.4435756470281
 30
0.0
 11
-408.8230854637603
 21
393.4435756470282
 31
0.0
  0
ELLIPSE
  5
17F
330
147
100
AcDbEntity
  8
0
  6
CONTINUOUS
 62
     9
100
AcDbEllipse
 10
-490.8243692511562
 20
296.834730690739
 30
0.0
 11
0.3409991800312482
 21
-0.3656768508095778
 31
0.0
210
0.0
220
0.0
230
-1.0
 40
0.9998341528341099
 41
5.002170924706827
 42
6.283185307179586
  0
LWPOLYLINE
  5
180
330
147
100
AcDbEntity
  8
0
  6
CONTINUOUS
 62
     7
100
AcDbPolyline
 90
       31
 70
     0
 43
0.0
 10
490.2960536549377
 20
297.1307509269052
 10
490.2872465294603
 20
297.1119379714444
 10
490.2792215735168
 20
297.0927588247022
 10
490.2719985011062
 20
297.0732635213959
 10
490.2655970262277
 20
297.0535020962426
 10
490.2598759310384
 20
297.0329062567345
 10
490.2550359832014
 20
297.012065625573
 10
490.2510892003386
 20
296.9910375499396
 10
490.248047600072
 20
296.9698793770152
 10
490.245964365612
 20
296.9492117244845
 10
490.244740299582
 20
296.9284574476562
 10
490.2443774367363
 20
296.907670270585
 10
490.2448778118294
 20
296.8869039173254
 10
490.2462962420373
 20
296.8655755748545
 10
490.2486270112934
 20
296.8443078807477
 10
490.2518624798623
 20
296.8231589066623
 10
490.2559950080087
 20
296.8021867242555
 10
490.2608700403013
 20
296.7819920679397
 10
490.2665845439771
 20
296.7620000383548
 10
490.2731226602178
 20
296.7422620069471
 10
490.2804685302053
 20
296.7228293451626
 10
490.2888667785149
 20
296.703170212388
 10
490.2981059413193
 20
296.6838702838893
 10
490.3081595945736
 20
296.6649818358924
 10
490.3190013142332
 20
296.6465571446233
 10
490.3310007937291
 20
296.6280578071955
 10
490.3438096496441
 20
296.610096189728
 10
490.3573905631177
 20
296.5927246094446
 10
490.3719909404684
 20
296.5756731502104
 10
490.3873489105926
 20
296.5592852074065
 10
490.4034181071279
 20
296.5436102525231
210
0.0
220
0.0
230
-1.0
  0
ELLIPSE
  5
181
330
147
100
AcDbEntity
  8
0
  6
CONTINUOUS
 62
     9
100
AcDbEllipse
 10
-389.1756307488438
 20
296.834730690739
 30
0.0
 11
-0.3409991800312483
 21
-0.3656768508095988
 31
0.0
210
0.0
220
0.0
230
1.0
 40
0.9998341528341051
 41
5.002170924706781
 42
6.283185307179586
  0
LWPOLYLINE
  5
182
330
147
100
AcDbEntity
  8
0
  6
CONTINUOUS
 62
     7
100
AcDbPolyline
 90
       31
 70
     0
 43
0.0
 10
389.5965818928722
 20
296.5436102525231
 10
389.6114798512401
 20
296.5580952841664
 10
389.625775664574
 20
296.5731996596729
 10
389.6394331775118
 20
296.5888835612711
 10
389.6524162346913
 20
296.6051071711897
 10
389.6650580199941
 20
296.622352146625
 10
389.6769620645285
 20
296.6401379716915
 10
389.6880968076944
 20
296.6584152612284
 10
389.6984306888917
 20
296.6771346300746
 10
389.7076943392106
 20
296.6957343781648
 10
389.7161847316167
 20
296.7147192756013
 10
389.7238809158176
 20
296.7340397776808
 10
389.7307619415212
 20
296.7536463396999
 10
389.7369827953724
 20
296.7741038728213
 10
389.7423283595674
 20
296.7948275979962
 10
389.7467851884104
 20
296.8157604539466
 10
389.7503398362053
 20
296.836845379394
 10
389.7529238760018
 20
296.8574614481937
 10
389.7546507637319
 20
296.8781849772296
 10
389.755517126711
 20
296.8989622762798
 10
389.755519592254
 20
296.9197396551224
 10
389.7546173881032
 20
296.9411015335796
 10
389.7528011084575
 20
296.9624248340426
 10
389.7500769559317
 20
296.9836512549589
 10
389.7464511331407
 20
297.0047224947759
 10
389.7417738884353
 20
297.0262491996814
 10
389.7361508973983
 20
297.0475595165041
 10
389.729598503079
 20
297.0685914382115
 10
389.7219810440644
 20
297.0896842094336
 10
389.7134217255298
 20
297.1104248891695
 10
389.7039463450624
 20
297.1307509269052
210
0.0
220
0.0
230
-1.0
  0
LINE
  5
183
330
147
100
AcDbEntity
  8
0
  6
CONTINUOUS
 62
     7
100
AcDbLine
 10
-375.1527036446662
 20
324.734991890698
 30
0.0
 11
-378.4999999999999
 21
325.3252105505705
 31
0.0
  0
ARC
  5
184
330
147
100
AcDbEntity
  8
0
  6
CONTINUOUS
 62
     7
100
AcDbCircle
 10
475.2183664205671
 20
396.4435756470282
 30
0.0
 40
2.000000000000002
210
0.0
220
0.0
230
-1.0
100
AcDbArc
 50
90.0
 51
150.000000000002
  0
ARC
  5
185
330
147
100
AcDbEntity
  8
0
  6
CONTINUOUS
 62
     7
100
AcDbCircle
 10
375.5000000000001
 20
322.7653763846736
 30
0.0
 40
1.999999999999978
210
0.0
220
0.0
230
-1.0
100
AcDbArc
 50
99.99999999999986
 51
179.9999999999998
  0
ARC
  5
186
330
147
100
AcDbEntity
  8
0
  6
CONTINUOUS
 62
     7
100
AcDbCircle
 10
-504.5000000000001
 20
322.7653763846736
 30
0.0
 40
1.99999999999998
100
AcDbArc
 50
99.99999999999986
 51
179.9999999999998
  0
LINE
  5
187
330
147
100
AcDbEntity
  8
0
  6
CONTINUOUS
 62
     7
100
AcDbLine
 10
-482.0400816492909
 20
398.4435756470282
 30
0.0
 11
-475.2183664205671
 21
398.4435756470282
 31
0.0
  0
LINE
  5
188
330
147
100
AcDbEntity
  8
0
  6
CONTINUOUS
 62
     7
100
AcDbLine
 10
-373.5
 20
300.0220354090235
 30
0.0
 11
-373.5000000000001
 21
322.7653763846737
 31
0.0
  0
ARC
  5
189
330
147
100
AcDbEntity
  8
0
  6
CONTINUOUS
 62
     7
100
AcDbCircle
 10
482.0400816492909
 20
375.4435756470282
 30
0.0
 40
22.99999999999999
210
0.0
220
0.0
230
-1.0
100
AcDbArc
 50
47.00000000000006
 51
90.0
  0
LINE
  5
18A
330
147
100
AcDbEntity
  8
0
  6
CONTINUOUS
 62
     7
100
AcDbLine
 10
-499.1859622814375
 20
390.9033148977036
 30
0.0
 11
-497.7260439307283
 21
392.2647107842691
 31
0.0
  0
LINE
  5
18B
330
147
100
AcDbEntity
  8
0
  6
CONTINUOUS
 62
     7
100
AcDbLine
 10
-473.2765170571918
 20
391.0801938890167
 30
0.0
 11
-475.6513791224594
 21
395.1935756470282
 31
0.0
  0
ARC
  5
18C
330
147
100
AcDbEntity
  8
0
  6
CONTINUOUS
 62
     7
100
AcDbCircle
 10
476.0843918243517
 20
394.9435756470282
 30
0.0
 40
0.5000000000000004
210
0.0
220
0.0
230
-1.0
100
AcDbArc
 50
90.0
 51
150.0000000000001
  0
ARC
  5
18D
330
147
100
AcDbEntity
  8
0
  6
CONTINUOUS
 62
     7
100
AcDbCircle
 10
-483.5000000000001
 20
374.0821797604626
 30
0.0
 40
20.0
100
AcDbArc
 50
130.1394853505987
 51
180.0
  0
ARC
  5
18E
330
147
100
AcDbEntity
  8
0
  6
CONTINUOUS
 62
     7
100
AcDbCircle
 10
503.0
 20
357.3804243561487
 30
0.0
 40
0.5000000000000162
210
0.0
220
0.0
230
-1.0
100
AcDbArc
 50
280.0000000000003
 51
359.9999999999993
  0
ARC
  5
18F
330
147
100
AcDbEntity
  8
0
  6
CONTINUOUS
 62
     7
100
AcDbCircle
 10
-499.0
 20
355.6596898214291
 30
0.0
 40
0.5000000000000004
100
AcDbArc
 50
0.0
 51
79.9999999999997
  0
LINE
  5
190
330
147
100
AcDbEntity
  8
0
  6
CONTINUOUS
 62
     7
100
AcDbLine
 10
-498.9131759111665
 20
322.7350575961212
 30
0.0
 11
-503.0868240888335
 21
321.9991308144138
 31
0.0
  0
LINE
  5
191
330
147
100
AcDbEntity
  8
0
  6
CONTINUOUS
 62
     7
100
AcDbLine
 10
-503.5000000000001
 20
321.5067269379077
 30
0.0
 11
-503.5000000000001
 21
300.0220354090235
 31
0.0
  0
ARC
  5
192
330
147
100
AcDbEntity
  8
0
  6
CONTINUOUS
 62
     7
100
AcDbCircle
 10
-494.5000000000001
 20
300.0220354090235
 30
0.0
 40
9.000000000000007
100
AcDbArc
 50
180.0
 51
228.4733728636206
  0
LINE
  5
193
330
147
100
AcDbEntity
  8
0
  6
CONTINUOUS
 62
     9
100
AcDbLine
 10
-501.319983600625
 20
292.7084983928318
 30
0.0
 11
-501.2768784003204
 21
292.6683021432567
 31
0.0
  0
ARC
  5
194
330
147
100
AcDbEntity
  8
0
  6
CONTINUOUS
 62
     7
100
AcDbCircle
 10
-381.0
 20
323.2274614726274
 30
0.0
 40
0.5000000000000004
100
AcDbArc
 50
179.9999999999996
 51
259.9999999999998
  0
ARC
  5
195
330
147
100
AcDbEntity
  8
0
  6
CONTINUOUS
 62
     7
100
AcDbCircle
 10
-381.0
 20
355.6596898214291
 30
0.0
 40
0.4999999999999865
100
AcDbArc
 50
100.0000000000003
 51
180.0
  0
LINE
  5
196
330
147
100
AcDbEntity
  8
0
  6
CONTINUOUS
 62
     7
100
AcDbLine
 10
-376.5000000000001
 20
321.5067269379077
 30
0.0
 11
-376.5000000000001
 21
300.0220354090235
 31
0.0
  0
LINE
  5
197
330
147
100
AcDbEntity
  8
0
  6
CONTINUOUS
 62
     7
100
AcDbLine
 10
-403.9156081756484
 20
395.4435756470282
 30
0.0
 11
-397.9599183507092
 21
395.4435756470282
 31
0.0
  0
ARC
  5
198
330
147
100
AcDbEntity
  8
0
  6
CONTINUOUS
 62
     7
100
AcDbCircle
 10
377.0
 20
357.3804243561487
 30
0.0
 40
0.5000000000000004
210
0.0
220
0.0
230
-1.0
100
AcDbArc
 50
180.0000000000008
 51
259.9999999999998
  0
ARC
  5
199
330
147
100
AcDbEntity
  8
0
  6
CONTINUOUS
 62
     7
100
AcDbCircle
 10
-499.0
 20
323.2274614726274
 30
0.0
 40
0.4999999999999888
100
AcDbArc
 50
280.0000000000001
 51
0.0
  0
ARC
  5
19A
330
147
100
AcDbEntity
  8
0
  6
CONTINUOUS
 62
     7
100
AcDbCircle
 10
-497.1848882399454
 20
297.0564243529718
 30
0.0
 40
4.999999999999979
100
AcDbArc
 50
228.9767807050586
 51
312.9999999999999
  0
LINE
  5
19B
330
147
100
AcDbEntity
  8
0
  6
CONTINUOUS
 62
     7
100
AcDbLine
 10
-386.2251035603671
 20
293.3996558448759
 30
0.0
 11
-389.5965818928722
 21
296.5436102525231
 31
0.0
  0
LINE
  5
19C
330
147
100
AcDbEntity
  8
0
  6
CONTINUOUS
 62
     7
100
AcDbLine
 10
-503.0868240888335
 20
356.8880204796426
 30
0.0
 11
-498.9131759111665
 21
356.1520936979352
 31
0.0
  0
LINE
  5
19D
330
147
100
AcDbEntity
  8
0
  6
CONTINUOUS
 62
     7
100
AcDbLine
 10
-503.5000000000001
 20
374.0821797604627
 30
0.0
 11
-503.5000000000001
 21
357.3804243561487
 31
0.0
  0
ARC
  5
19E
330
147
100
AcDbEntity
  8
0
  6
CONTINUOUS
 62
     7
100
AcDbCircle
 10
-482.0400816492909
 20
375.4435756470282
 30
0.0
 40
19.99999999999996
100
AcDbArc
 50
90.0
 51
135.8605146494011
  0
LINE
  5
19F
330
147
100
AcDbEntity
  8
0
  6
CONTINUOUS
 62
     7
100
AcDbLine
 10
-476.0843918243517
 20
395.4435756470282
 30
0.0
 11
-482.0400816492908
 21
395.4435756470282
 31
0.0
  0
ARC
  5
1A0
330
147
100
AcDbEntity
  8
0
  6
CONTINUOUS
 62
     7
100
AcDbCircle
 10
377.0
 20
321.5067269379077
 30
0.0
 40
0.4999999999999865
210
0.0
220
0.0
230
-1.0
100
AcDbArc
 50
100.0000000000003
 51
180.0
  0
ARC
  5
1A1
330
147
100
AcDbEntity
  8
0
  6
CONTINUOUS
 62
     7
100
AcDbCircle
 10
503.0
 20
321.5067269379077
 30
0.0
 40
0.5000000000000004
210
0.0
220
0.0
230
-1.0
100
AcDbArc
 50
0.0
 51
79.9999999999997
  0
LINE
  5
1A2
330
147
100
AcDbEntity
  8
0
  6
CONTINUOUS
 62
     7
100
AcDbLine
 10
-376.5000000000001
 20
374.0821797604627
 30
0.0
 11
-376.5000000000001
 21
357.3804243561487
 31
0.0
  0
LINE
  5
1A3
330
147
100
AcDbEntity
  8
0
  6
CONTINUOUS
 62
     7
100
AcDbLine
 10
-406.7234829428082
 20
391.0801938890167
 30
0.0
 11
-404.3486208775406
 21
395.1935756470282
 31
0.0
  0
LINE
  5
1A4
330
147
100
AcDbEntity
  8
0
  6
CONTINUOUS
 62
     7
100
AcDbLine
 10
-381.0868240888335
 20
322.7350575961212
 30
0.0
 11
-376.9131759111665
 21
321.9991308144138
 31
0.0
  0
LINE
  5
1A5
330
147
100
AcDbEntity
  8
0
  6
CONTINUOUS
 62
     7
100
AcDbLine
 10
-381.5000000000001
 20
355.6596898214291
 30
0.0
 11
-381.5000000000001
 21
323.2274614726274
 31
0.0
  0
ARC
  5
1A6
330
147
100
AcDbEntity
  8
0
  6
CONTINUOUS
 62
     7
100
AcDbCircle
 10
403.9156081756484
 20
394.9435756470282
 30
0.0
 40
0.500000000000002
210
0.0
220
0.0
230
-1.0
100
AcDbArc
 50
29.99999999999991
 51
90.00000000000001
  0
ARC
  5
1A7
330
147
100
AcDbEntity
  8
0
  6
CONTINUOUS
 62
     7
100
AcDbCircle
 10
397.9599183507092
 20
375.4435756470282
 30
0.0
 40
19.99999999999996
210
0.0
220
0.0
230
-1.0
100
AcDbArc
 50
90.0
 51
135.8605146494011
  0
ARC
  5
1A8
330
147
100
AcDbEntity
  8
0
  6
CONTINUOUS
 62
     7
100
AcDbCircle
 10
382.8151117600547
 20
297.0564243529718
 30
0.0
 40
4.999999999999979
210
0.0
220
0.0
230
-1.0
100
AcDbArc
 50
228.9767807050586
 51
312.9999999999999
  0
ARC
  5
1A9
330
147
100
AcDbEntity
  8
0
  6
CONTINUOUS
 62
     7
100
AcDbCircle
 10
385.5
 20
300.0220354090235
 30
0.0
 40
9.000000000000007
210
0.0
220
0.0
230
-1.0
100
AcDbArc
 50
180.0
 51
228.4733728636206
  0
LINE
  5
1AA
330
147
100
AcDbEntity
  8
0
  6
CONTINUOUS
 62
     7
100
AcDbLine
 10
-493.7748964396329
 20
293.3996558448759
 30
0.0
 11
-490.4034181071278
 21
296.5436102525231
 31
0.0
  0
ARC
  5
1AB
330
147
100
AcDbEntity
  8
0
  6
CONTINUOUS
 62
     7
100
AcDbCircle
 10
396.5
 20
374.0821797604626
 30
0.0
 40
19.99999999999998
210
0.0
220
0.0
230
-1.0
100
AcDbArc
 50
130.1394853505987
 51
180.0
  0
LINE
  5
1AC
330
147
100
AcDbEntity
  8
0
  6
CONTINUOUS
 62
     7
100
AcDbLine
 10
-376.9131759111665
 20
356.8880204796426
 30
0.0
 11
-381.0868240888335
 21
356.1520936979352
 31
0.0
  0
LINE
  5
1AD
330
147
100
AcDbEntity
  8
0
  6
CONTINUOUS
 62
     7
100
AcDbLine
 10
-498.5000000000001
 20
355.6596898214291
 30
0.0
 11
-498.5000000000001
 21
323.2274614726274
 31
0.0
  0
LINE
  5
1AE
330
147
100
AcDbEntity
  8
0
  6
CONTINUOUS
 62
     7
100
AcDbLine
 10
-504.8472963553339
 20
324.734991890698
 30
0.0
 11
-501.5000000000001
 21
325.3252105505705
 31
0.0
  0
LINE
  5
1AF
330
147
100
AcDbEntity
  8
0
  6
CONTINUOUS
 62
     7
100
AcDbLine
 10
-506.5000000000001
 20
300.0220354090235
 30
0.0
 11
-506.5000000000001
 21
322.7653763846737
 31
0.0
  0
LINE
  5
1B0
330
147
100
AcDbEntity
  8
0
  6
CONTINUOUS
 62
     7
100
AcDbLine
 10
-506.5000000000001
 20
356.1217749093827
 30
0.0
 11
-506.5000000000001
 21
374.0821797604626
 31
0.0
  0
ARC
  5
1B1
330
147
100
AcDbEntity
  8
0
  6
CONTINUOUS
 62
     7
100
AcDbCircle
 10
-504.5000000000001
 20
356.1217749093827
 30
0.0
 40
2.000000000000002
100
AcDbArc
 50
180.0
 51
260.0000000000001
  0
LINE
  5
1B2
330
147
100
AcDbEntity
  8
0
  6
CONTINUOUS
 62
     7
100
AcDbLine
 10
-373.5000000000001
 20
356.1217749093827
 30
0.0
 11
-373.5000000000001
 21
374.0821797604626
 31
0.0
  0
LINE
  5
1B3
330
147
100
AcDbEntity
  8
0
  6
CONTINUOUS
 62
     7
100
AcDbLine
 10
-378.4999999999999
 20
353.5619407434859
 30
0.0
 11
-375.1527036446661
 21
354.1521594033584
 31
0.0
  0
LINE
  5
1B4
330
147
100
AcDbEntity
  8
0
  6
CONTINUOUS
 62
     7
100
AcDbLine
 10
-502.6408751204454
 20
291.2055947400184
 30
0.0
 11
-502.68398032075
 21
291.2457909895934
 31
0.0
  0
LINE
  5
1B5
330
147
100
AcDbEntity
  8
0
  6
CONTINUOUS
 62
     7
100
AcDbLine
 10
-501.5000000000001
 20
353.5619407434859
 30
0.0
 11
-504.8472963553339
 21
354.1521594033583
 31
0.0
  0
LINE
  5
1B6
330
147
100
AcDbEntity
  8
0
  6
CONTINUOUS
 62
     9
100
AcDbLine
 10
-391.9996953671125
 20
303.9435756470282
 30
0.0
 11
-391.9998476719561
 21
303.9435756470282
 31
0.0
  0
LINE
  5
1B7
330
147
100
AcDbEntity
  8
0
  6
CONTINUOUS
 62
     7
100
AcDbLine
 10
-391.9996953671125
 20
303.9435756470282
 30
0.0
 11
-391.9996953671125
 21
374.9435756470283
 31
0.0
  0
LINE
  5
1B8
330
147
100
AcDbEntity
  8
0
  6
CONTINUOUS
 62
     9
100
AcDbLine
 10
-391.9996953671125
 20
374.9435756470282
 30
0.0
 11
-391.9998476719561
 21
374.9435756470282
 31
0.0
  0
LINE
  5
1B9
330
147
100
AcDbEntity
  8
0
  6
CONTINUOUS
 62
     7
100
AcDbLine
 10
-393.9064584726448
 20
297.6015753622502
 30
0.0
 11
-393.9065855251785
 21
297.6016593528393
 31
0.0
  0
LINE
  5
1BA
330
147
100
AcDbEntity
  8
0
  6
CONTINUOUS
 62
     9
100
AcDbLine
 10
-488.0003046328875
 20
374.9435756470282
 30
0.0
 11
-488.000152328044
 21
374.9435756470282
 31
0.0
  0
LINE
  5
1BB
330
147
100
AcDbEntity
  8
0
  6
CONTINUOUS
 62
     9
100
AcDbLine
 10
-488.0003046328875
 20
303.9435756470282
 30
0.0
 11
-488.000152328044
 21
303.9435756470282
 31
0.0
  0
LINE
  5
1BC
330
147
100
AcDbEntity
  8
0
  6
CONTINUOUS
 62
     9
100
AcDbLine
 10
-476.5
 20
386.4438802799157
 30
0.0
 11
-476.5
 21
386.4437279750721
 31
0.0
  0
LINE
  5
1BD
330
147
100
AcDbEntity
  8
0
  6
CONTINUOUS
 62
     9
100
AcDbLine
 10
-403.5
 20
386.4438802799157
 30
0.0
 11
-403.5
 21
386.4437279750721
 31
0.0
  0
LINE
  5
1BE
330
147
100
AcDbEntity
  8
0
  6
CONTINUOUS
 62
     7
100
AcDbLine
 10
-403.5
 20
386.4438802799157
 30
0.0
 11
-476.5
 21
386.4438802799157
 31
0.0
  0
LINE
  5
1BF
330
147
100
AcDbEntity
  8
0
  6
CONTINUOUS
 62
     7
100
AcDbLine
 10
-486.0935415273552
 20
297.6015753622501
 30
0.0
 11
-486.0934144748215
 21
297.6016593528392
 31
0.0
  0
ARC
  5
1C0
330
147
100
AcDbEntity
  8
0
  6
CONTINUOUS
 62
     7
100
AcDbCircle
 10
-486.9276133794245
 20
297.0501956753779
 30
0.0
 40
1.000000000000003
100
AcDbArc
 50
313.0000000000002
 51
0.0
  0
ARC
  5
1C1
330
147
100
AcDbEntity
  8
0
  6
CONTINUOUS
 62
     7
100
AcDbCircle
 10
-486.9276133794245
 20
297.0501956753779
 30
0.0
 40
1.000000000000001
100
AcDbArc
 50
0.0
 51
33.46748541474652
  0
ENDBLK
  5
1EC
330
147
100
AcDbEntity
  8
0
100
AcDbBlockEnd
  0
ENDSEC
  0
SECTION
  2
ENTITIES
  0
LINE
  5
6F
330
1F
100
AcDbEntity
  8
0
  6
CENTER
 62
     1
100
AcDbLine
 10
-440.0000000000001
 20
285.0564243529718
 30
0.0
 11
-440.0000000000001
 21
402.4435756470282
 31
0.0
  0
MTEXT
  5
71
330
1F
100
AcDbEntity
  8
0
 62
     7
100
AcDbMText
 10
-384.7954545454546
 20
281.4363636363636
 30
0.0
 40
3.0
 41
0.0
 71
     1
 72
     1
  1
{\fＭＳ ゴシック;KPRC-100E}
  0
LINE
  5
72
330
1F
100
AcDbEntity
  8
0
  6
CENTER
 62
     1
100
AcDbLine
 10
-312.5
 20
286.0564243529718
 30
0.0
 11
-312.5
 21
401.4435756470282
 31
0.0
  0
LINE
  5
73
330
1F
100
AcDbEntity
  8
0
  6
CENTER
 62
     1
100
AcDbLine
 10
-440.0000000000001
 20
421.7499999999999
 30
0.0
 11
-440.0000000000001
 21
480.7499999999999
 31
0.0
  0
LINE
  5
74
330
1F
100
AcDbEntity
  8
0
  6
CENTER
 62
     1
100
AcDbLine
 10
-509.5000000000001
 20
451.2499999999999
 30
0.0
 11
-370.5000000000001
 21
451.2499999999999
 31
0.0
  0
INSERT
  5
EA
330
1F
100
AcDbEntity
  8
0
  6
CONTINUOUS
 62
     7
100
AcDbBlockReference
  2
D_FRAME_VIEW_3668
 10
0.0
 20
0.0
 30
0.0
  0
INSERT
  5
146
330
1F
100
AcDbEntity
  8
0
  6
CONTINUOUS
 62
     7
100
AcDbBlockReference
  2
D_FRAME_VIEW_3549
 10
0.0
 20
0.0
 30
0.0
  0
INSERT
  5
1C2
330
1F
100
AcDbEntity
  8
0
  6
CONTINUOUS
 62
     7
100
AcDbBlockReference
  2
D_FRAME_VIEW_3133
 10
0.0
 20
0.0
 30
0.0
  0
ENDSEC
  0
SECTION
  2
OBJECTS
  0
DICTIONARY
  5
C
330
0
100
AcDbDictionary
  3
ACAD_GROUP
350
D
  3
ACAD_LAYOUT
350
1A
  3
ACAD_MATERIAL
350
43
  3
ACAD_MLEADERSTYLE
350
6B
  3
ACAD_MLINESTYLE
350
17
  3
ACAD_PLOTSETTINGS
350
19
  3
ACAD_SCALELIST
350
47
  3
ACAD_VISUALSTYLE
350
2A
  3
ACDBHEADERROUNDTRIPXREC
350
1C3
  3
ACDBVARIABLEDICTIONARY
350
1E4
  0
DICTIONARY
  5
1ED
330
8
100
AcDbDictionary
280
     1
  3
ACAD_XREC_ROUNDTRIP
360
1EE
  0
DICTIONARY
  5
D
102
{ACAD_REACTORS
330
C
102
}
330
C
100
AcDbDictionary
  0
DICTIONARY
  5
1A
102
{ACAD_REACTORS
330
C
102
}
330
C
100
AcDbDictionary
  0
DICTIONARY
  5
43
102
{ACAD_REACTORS
330
C
102
}
330
C
100
AcDbDictionary
  3
BYBLOCK
350
45
  3
BYLAYER
350
44
  3
GLOBAL
350
46
  0
DICTIONARY
  5
6B
102
{ACAD_REACTORS
330
C
102
}
330
C
100
AcDbDictionary
  3
STANDARD
350
6C
  0
DICTIONARY
  5
17
102
{ACAD_REACTORS
330
C
102
}
330
C
100
AcDbDictionary
  3
STANDARD
350
18
  0
DICTIONARY
  5
19
102
{ACAD_REACTORS
330
C
102
}
330
C
100
AcDbDictionary
  0
DICTIONARY
  5
47
102
{ACAD_REACTORS
330
C
102
}
330
C
100
AcDbDictionary
  3
A0
350
48
  3
A1
350
49
  3
A2
350
4A
  3
A3
350
4B
  3
A4
350
4C
  3
A5
350
4D
  3
A6
350
4E
  3
A7
350
4F
  3
A8
350
50
  3
A9
350
51
  3
B0
350
52
  3
B1
350
53
  3
B2
350
54
  3
B3
350
55
  3
B4
350
56
  3
B5
350
57
  3
B6
350
58
  3
B7
350
59
  3
B8
350
5A
  3
B9
350
5B
  3
C0
350
5C
  3
C1
350
5D
  3
C2
350
5E
  3
C3
350
5F
  3
C4
350
60
  3
C5
350
61
  3
C6
350
62
  3
C7
350
63
  3
C8
350
64
  3
C9
350
65
  3
D0
350
66
  3
D1
350
67
  3
D2
350
68
  0
DICTIONARY
  5
2A
102
{ACAD_REACTORS
330
C
102
}
330
C
100
AcDbDictionary
  3
2DWIREFRAME
350
2F
  3
BASIC
350
32
  3
BRIGHTEN
350
36
  3
COLORCHANGE
350
3A
  3
CONCEPTUAL
350
34
  3
DIM
350
35
  3
EDGECOLOROFF
350
3D
  3
FACEPATTERN
350
39
  3
FLAT
350
2B
  3
FLATWITHEDGES
350
2C
  3
GOURAUD
350
2D
  3
GOURAUDWITHEDGES
350
2E
  3
HIDDEN
350
31
  3
JITTEROFF
350
3B
  3
LINEPATTERN
350
38
  3
OVERHANGOFF
350
3C
  3
REALISTIC
350
33
  3
SHADED
350
42
  3
SHADED_WITH_EDGES
350
41
  3
SHADES_OF_GRAY
350
3E
  3
SKETCHY
350
3F
  3
THICKEN
350
37
  3
WIREFRAME
350
30
  3
X-RAY
350
40
  0
DICTIONARY
  5
1C3
102
{ACAD_REACTORS
330
C
102
}
330
C
100
AcDbDictionary
  3
CEPSNID
350
1CD
  3
CEPSNTYPE
350
1CC
  3
DIMSTYLEDATA
350
1E3
  3
FINGERPRINTGUID
350
1CE
  3
HYPERLINKBASE
350
1C6
  3
INSUNITS
350
1CB
  3
LAYOUTDICT
350
1C8
  3
LWETCUNION
350
1CA
  3
PLOTSETDICT
350
1C9
  3
PSVPSCALE
350
1D0
  3
PUCSBASE
350
1D3
  3
PUCSORGBACK
350
1D9
  3
PUCSORGBOTTOM
350
1D5
  3
PUCSORGFRONT
350
1D8
  3
PUCSORGLEFT
350
1D6
  3
PUCSORGRIGHT
350
1D7
  3
PUCSORGTOP
350
1D4
  3
PUCSORTHOREF
350
1D1
  3
PUCSORTHOVIEW
350
1D2
  3
STYLESHEET
350
1C7
  3
TSTACKALIGN
350
1C4
  3
TSTACKSIZE
350
1C5
  3
UCSBASE
350
1DC
  3
UCSORGBACK
350
1E2
  3
UCSORGBOTTOM
350
1DE
  3
UCSORGFRONT
350
1E1
  3
UCSORGLEFT
350
1DF
  3
UCSORGRIGHT
350
1E0
  3
UCSORGTOP
350
1DD
  3
UCSORTHOREF
350
1DA
  3
UCSORTHOVIEW
350
1DB
  3
VERSIONGUID
350
1CF
  0
DICTIONARY
  5
1E4
102
{ACAD_REACTORS
330
C
102
}
330
C
100
AcDbDictionary
  3
CANNOSCALE
350
1EF
  3
CMLEADERSTYLE
350
1E6
  3
CTABLESTYLE
350
1E5
  3
DIMASSOC
350
1E9
  3
HIDETEXT
350
1EA
  3
MSLTSCALE
350
1F0
  0
XRECORD
  5
1EE
102
{ACAD_REACTORS
330
1ED
102
}
330
1ED
100
AcDbXrecord
102
VTR_0.000_0.000_1.000_1.000_VISUALSTYLE
340
2F
102
VTR_0.000_0.000_1.000_1.000_GRIDDISPLAY
 70
     3
102
VTR_0.000_0.000_1.000_1.000_GRIDMAJOR
 70
     5
102
VTR_0.000_0.000_1.000_1.000_DEFAULTLIGHTING
280
     1
102
VTR_0.000_0.000_1.000_1.000_DEFAULTLIGHTINGTYPE
 70
     1
102
VTR_0.000_0.000_1.000_1.000_BRIGHTNESS
141
0.0
102
VTR_0.000_0.000_1.000_1.000_CONTRAST
142
0.0
  0
MATERIAL
  5
45
102
{ACAD_REACTORS
330
43
102
}
102
{ACAD_XDICTIONARY
360
1F3
102
}
330
43
100
AcDbMaterial
  1
BYBLOCK
  0
MATERIAL
  5
44
102
{ACAD_REACTORS
330
43
102
}
102
{ACAD_XDICTIONARY
360
1F1
102
}
330
43
100
AcDbMaterial
  1
BYLAYER
  0
MATERIAL
  5
46
102
{ACAD_REACTORS
330
43
102
}
102
{ACAD_XDICTIONARY
360
1F5
102
}
330
43
100
AcDbMaterial
  1
GLOBAL
  0
ACAD_PROXY_OBJECT
  5
6C
102
{ACAD_REACTORS
330
6B
102
}
330
6B
100
AcDbProxyObject
 90
      499
 91
      505
 93
      610
310
40901902A4063FBFFFFFE056BD1B81E855B9FC0AD7A3703D0AD73F4214DD185B99185C9900AD7A3703D0AC73F90141901A02B5E8DC0F42B1CFC02B5E8DC0F42B1CFE5764000000000000300FC0
340
14
340
0
340
11
340
0
 94
        0
1001
ACAD_MLEADERVER
1070
     2
  0
MLINESTYLE
  5
18
102
{ACAD_REACTORS
330
17
102
}
330
17
100
AcDbMlineStyle
  2
Standard
 70
     0
  3

 62
   256
 51
90.0
 52
90.0
 71
     2
 49
0.5
 62
   256
  6
BYLAYER
 49
-0.5
 62
   256
  6
BYLAYER
  0
ACAD_PROXY_OBJECT
  5
48
102
{ACAD_REACTORS
330
47
102
}
330
47
100
AcDbProxyObject
 90
      499
 91
      503
 93
       41
310
903313A31580
  0
ACAD_PROXY_OBJECT
  5
49
102
{ACAD_REACTORS
330
47
102
}
330
47
100
AcDbProxyObject
 90
      499
 91
      503
 93
      105
310
903313A324000000000000004000
  0
ACAD_PROXY_OBJECT
  5
4A
102
{ACAD_REACTORS
330
47
102
}
330
47
100
AcDbProxyObject
 90
      499
 91
      503
 93
      105
310
903313A344000000000000104000
  0
ACAD_PROXY_OBJECT
  5
4B
102
{ACAD_REACTORS
330
47
102
}
330
47
100
AcDbProxyObject
 90
      499
 91
      503
 93
      105
310
903313A354000000000000144000
  0
ACAD_PROXY_OBJECT
  5
4C
102
{ACAD_REACTORS
330
47
102
}
330
47
100
AcDbProxyObject
 90
      499
 91
      503
 93
      105
310
903313A384000000000000204000
  0
ACAD_PROXY_OBJECT
  5
4D
102
{ACAD_REACTORS
330
47
102
}
330
47
100
AcDbProxyObject
 90
      499
 91
      503
 93
      113
310
904313A31304000000000000244000
  0
ACAD_PROXY_OBJECT
  5
4E
102
{ACAD_REACTORS
330
47
102
}
330
47
100
AcDbProxyObject
 90
      499
 91
      503
 93
      113
310
904313A31364000000000000304000
  0
ACAD_PROXY_OBJECT
  5
4F
102
{ACAD_REACTORS
330
47
102
}
330
47
100
AcDbProxyObject
 90
      499
 91
      503
 93
      113
310
904313A32304000000000000344000
  0
ACAD_PROXY_OBJECT
  5
50
102
{ACAD_REACTORS
330
47
102
}
330
47
100
AcDbProxyObject
 90
      499
 91
      503
 93
      113
310
904313A333040000000000003E4000
  0
ACAD_PROXY_OBJECT
  5
51
102
{ACAD_REACTORS
330
47
102
}
330
47
100
AcDbProxyObject
 90
      499
 91
      503
 93
      113
310
904313A34304000000000000444000
  0
ACAD_PROXY_OBJECT
  5
52
102
{ACAD_REACTORS
330
47
102
}
330
47
100
AcDbProxyObject
 90
      499
 91
      503
 93
      113
310
904313A35304000000000000494000
  0
ACAD_PROXY_OBJECT
  5
53
102
{ACAD_REACTORS
330
47
102
}
330
47
100
AcDbProxyObject
 90
      499
 91
      503
 93
      121
310
905313A3130304000000000000594000
  0
ACAD_PROXY_OBJECT
  5
54
102
{ACAD_REACTORS
330
47
102
}
330
47
100
AcDbProxyObject
 90
      499
 91
      503
 93
      105
310
903323A310000000000000010100
  0
ACAD_PROXY_OBJECT
  5
55
102
{ACAD_REACTORS
330
47
102
}
330
47
100
AcDbProxyObject
 90
      499
 91
      503
 93
      105
310
903343A310000000000000410100
  0
ACAD_PROXY_OBJECT
  5
56
102
{ACAD_REACTORS
330
47
102
}
330
47
100
AcDbProxyObject
 90
      499
 91
      503
 93
      105
310
903383A310000000000000810100
  0
ACAD_PROXY_OBJECT
  5
57
102
{ACAD_REACTORS
330
47
102
}
330
47
100
AcDbProxyObject
 90
      499
 91
      503
 93
      113
310
90431303A310000000000000910100
  0
ACAD_PROXY_OBJECT
  5
58
102
{ACAD_REACTORS
330
47
102
}
330
47
100
AcDbProxyObject
 90
      499
 91
      503
 93
      121
310
9053130303A310000000000001650100
  0
ACAD_PROXY_OBJECT
  5
59
102
{ACAD_REACTORS
330
47
102
}
330
47
100
AcDbProxyObject
 90
      499
 91
      503
 93
      257
310
90E312F31323822203D2031272D3022000000000000200FC000000000000284000
  0
ACAD_PROXY_OBJECT
  5
5A
102
{ACAD_REACTORS
330
47
102
}
330
47
100
AcDbProxyObject
 90
      499
 91
      503
 93
      249
310
90D312F363422203D2031272D3022000000000000240FC000000000000284000
  0
ACAD_PROXY_OBJECT
  5
5B
102
{ACAD_REACTORS
330
47
102
}
330
47
100
AcDbProxyObject
 90
      499
 91
      503
 93
      249
310
90D312F333222203D2031272D3022000000000000280FC000000000000284000
  0
ACAD_PROXY_OBJECT
  5
5C
102
{ACAD_REACTORS
330
47
102
}
330
47
100
AcDbProxyObject
 90
      499
 91
      503
 93
      249
310
90D312F313622203D2031272D30220000000000002C0FC000000000000284000
  0
ACAD_PROXY_OBJECT
  5
5D
102
{ACAD_REACTORS
330
47
102
}
330
47
100
AcDbProxyObject
 90
      499
 91
      503
 93
      249
310
90D332F333222203D2031272D30220000000000002E0FC000000000000284000
  0
ACAD_PROXY_OBJECT
  5
5E
102
{ACAD_REACTORS
330
47
102
}
330
47
100
AcDbProxyObject
 90
      499
 91
      503
 93
      241
310
90C312F3822203D2031272D3022000000000000300FC000000000000284000
  0
ACAD_PROXY_OBJECT
  5
5F
102
{ACAD_REACTORS
330
47
102
}
330
47
100
AcDbProxyObject
 90
      499
 91
      503
 93
      249
310
90D332F313622203D2031272D3022000000000000320FC000000000000284000
  0
ACAD_PROXY_OBJECT
  5
60
102
{ACAD_REACTORS
330
47
102
}
330
47
100
AcDbProxyObject
 90
      499
 91
      503
 93
      241
310
90C312F3422203D2031272D3022000000000000340FC000000000000284000
  0
ACAD_PROXY_OBJECT
  5
61
102
{ACAD_REACTORS
330
47
102
}
330
47
100
AcDbProxyObject
 90
      499
 91
      503
 93
      241
310
90C332F3822203D2031272D3022000000000000360FC000000000000284000
  0
ACAD_PROXY_OBJECT
  5
62
102
{ACAD_REACTORS
330
47
102
}
330
47
100
AcDbProxyObject
 90
      499
 91
      503
 93
      241
310
90C312F3222203D2031272D3022000000000000380FC000000000000284000
  0
ACAD_PROXY_OBJECT
  5
63
102
{ACAD_REACTORS
330
47
102
}
330
47
100
AcDbProxyObject
 90
      499
 91
      503
 93
      241
310
90C332F3422203D2031272D30220000000000003A0FC000000000000284000
  0
ACAD_PROXY_OBJECT
  5
64
102
{ACAD_REACTORS
330
47
102
}
330
47
100
AcDbProxyObject
 90
      499
 91
      503
 93
      161
310
90A3122203D2031272D30224000000000000284000
  0
ACAD_PROXY_OBJECT
  5
65
102
{ACAD_REACTORS
330
47
102
}
330
47
100
AcDbProxyObject
 90
      499
 91
      503
 93
      257
310
90E312D312F3222203D2031272D30220000000000003E0FC000000000000284000
  0
ACAD_PROXY_OBJECT
  5
66
102
{ACAD_REACTORS
330
47
102
}
330
47
100
AcDbProxyObject
 90
      499
 91
      503
 93
      225
310
90A3322203D2031272D302200000000000002100000000000000284000
  0
ACAD_PROXY_OBJECT
  5
67
102
{ACAD_REACTORS
330
47
102
}
330
47
100
AcDbProxyObject
 90
      499
 91
      503
 93
      225
310
90A3622203D2031272D302200000000000006100000000000000284000
  0
ACAD_PROXY_OBJECT
  5
68
102
{ACAD_REACTORS
330
47
102
}
330
47
100
AcDbProxyObject
 90
      499
 91
      503
 93
      249
310
90D31272D3022203D2031272D30220000000000000A100000000000000284000
  0
ACAD_PROXY_OBJECT
  5
2F
102
{ACAD_REACTORS
330
2A
102
}
330
2A
100
AcDbProxyObject
 90
      499
 91
      501
 93
      436
310
42CC9915DA5C99599C985B595049028333333333333E33F0000000000000F90107901411070040501600405405064090741402480A0340
1001
ACAD
1000
AcDbSavedByObjectVersion
1070
     0
  0
ACAD_PROXY_OBJECT
  5
32
102
{ACAD_REACTORS
330
2A
102
}
330
2A
100
AcDbProxyObject
 90
      499
 91
      501
 93
      388
310
4150985CDA58D07406404333333333333E33F0000000000000F90107A41107004050150841D405064090741402480A0350
1001
ACAD
1000
AcDbSavedByObjectVersion
1070
     0
  0
ACAD_PROXY_OBJECT
  5
36
102
{ACAD_REACTORS
330
2A
102
}
330
2A
100
AcDbProxyObject
 90
      499
 91
      501
 93
      428
310
42109C9A59DA1D195B90C409028333333333333E33F0000000000000F9010790141107004050150841D405064090741402480A029950
1001
ACAD
1000
AcDbSavedByObjectVersion
1070
     0
  0
ACAD_PROXY_OBJECT
  5
3A
102
{ACAD_REACTORS
330
2A
102
}
330
2A
100
AcDbProxyObject
 90
      499
 91
      501
 93
      452
310
42D0DBDB1BDC90DA185B99D95104090240C333333333333E33F0000000000000F90108901411070040501508421405064090741402480A0350
1001
ACAD
1000
AcDbSavedByObjectVersion
1070
     0
  0
ACAD_PROXY_OBJECT
  5
34
102
{ACAD_REACTORS
330
2A
102
}
330
2A
100
AcDbProxyObject
 90
      499
 91
      501
 93
      500
310
4290DBDB98D95C1D1D585B10940D028333333333333E33F0000000000000F90107902409070040501000000000018199010841D405064090740C02480A0340
1001
ACAD
1000
AcDbSavedByObjectVersion
1070
     0
  0
ACAD_PROXY_OBJECT
  5
35
102
{ACAD_REACTORS
330
2A
102
}
330
2A
100
AcDbProxyObject
 90
      499
 91
      501
 93
      412
310
40D11A5B50B409028333333333333E33F0000000000000F9010790141107004050150841D405064090741402480A02677FFFFFD0
1001
ACAD
1000
AcDbSavedByObjectVersion
1070
     0
  0
ACAD_PROXY_OBJECT
  5
3D
102
{ACAD_REACTORS
330
2A
102
}
330
2A
100
AcDbProxyObject
 90
      499
 91
      501
 93
      452
310
43115919D950DBDB1BDC93D999916409028333333333333E33F0000000000000F9010790141107004050150841D405064090741402480A0350
1001
ACAD
1000
AcDbSavedByObjectVersion
1070
     0
  0
ACAD_PROXY_OBJECT
  5
39
102
{ACAD_REACTORS
330
2A
102
}
330
2A
100
AcDbProxyObject
 90
      499
 91
      501
 93
      444
310
42D19858D95C185D1D195C9B90F409028333333333333E33F0000000000000F9010790141107004050150841D405064090741402480A0350
1001
ACAD
1000
AcDbSavedByObjectVersion
1070
     0
  0
ACAD_PROXY_OBJECT
  5
2B
102
{ACAD_REACTORS
330
2A
102
}
330
2A
100
AcDbProxyObject
 90
      499
 91
      501
 93
      380
310
41119B185D240901404333333333333E33F0000000000000F9010740A907004050150841D405064090741402480A1B50
1001
ACAD
1000
AcDbSavedByObjectVersion
1070
     0
  0
ACAD_PROXY_OBJECT
  5
2C
102
{ACAD_REACTORS
330
2A
102
}
330
2A
100
AcDbProxyObject
 90
      499
 91
      501
 93
      468
310
43519B185D15DA5D1A115919D95CD0140901404333333333333E33F0000000000000F90107409019070040501600405405064090741402480A1B50
1001
ACAD
1000
AcDbSavedByObjectVersion
1070
     0
  0
ACAD_PROXY_OBJECT
  5
2D
102
{ACAD_REACTORS
330
2A
102
}
330
2A
100
AcDbProxyObject
 90
      499
 91
      501
 93
      404
310
41D1DBDD5C985D5910240902404333333333333E33F0000000000000F9010740A9070040501641D405064090741402480A1B50
1001
ACAD
1000
AcDbSavedByObjectVersion
1070
     0
  0
ACAD_PROXY_OBJECT
  5
2E
102
{ACAD_REACTORS
330
2A
102
}
330
2A
100
AcDbProxyObject
 90
      499
 91
      501
 93
      492
310
4411DBDD5C985D5915DA5D1A115919D95CD0340902404333333333333E33F0000000000000F90107409019070040501600405405064090741402480A1B50
1001
ACAD
1000
AcDbSavedByObjectVersion
1070
     0
  0
ACAD_PROXY_OBJECT
  5
31
102
{ACAD_REACTORS
330
2A
102
}
330
2A
100
AcDbProxyObject
 90
      499
 91
      501
 93
      476
310
41921A5919195B90640502408333333333333E33F0000000000000F901079024090700405020000000000001110200405405064090740C02480A0340
1001
ACAD
1000
AcDbSavedByObjectVersion
1070
     0
  0
ACAD_PROXY_OBJECT
  5
3B
102
{ACAD_REACTORS
330
2A
102
}
330
2A
100
AcDbProxyObject
 90
      499
 91
      501
 93
      428
310
42529A5D1D195C93D999914409028333333333333E33F0000000000000F9010790141107004050150A41D405064090741402480A0350
1001
ACAD
1000
AcDbSavedByObjectVersion
1070
     0
  0
ACAD_PROXY_OBJECT
  5
38
102
{ACAD_REACTORS
330
2A
102
}
330
2A
100
AcDbProxyObject
 90
      499
 91
      501
 93
      444
310
42D31A5B995C185D1D195C9B90E409028333333333333E33F0000000000000F9010790141107004050750841D405064090741402483A0350
1001
ACAD
1000
AcDbSavedByObjectVersion
1070
     0
  0
ACAD_PROXY_OBJECT
  5
3C
102
{ACAD_REACTORS
330
2A
102
}
330
2A
100
AcDbProxyObject
 90
      499
 91
      501
 93
      444
310
42D3DD995C9A185B99D3D999915409028333333333333E33F0000000000000F9010790141107004050150941D405064090741402480A0350
1001
ACAD
1000
AcDbSavedByObjectVersion
1070
     0
  0
ACAD_PROXY_OBJECT
  5
33
102
{ACAD_REACTORS
330
2A
102
}
330
2A
100
AcDbProxyObject
 90
      499
 91
      501
 93
      428
310
425499585B1A5CDD1A58D08409038333333333333E33F0000000000000F9010740A907004050150800405405064090740C02480A1B40
1001
ACAD
1000
AcDbSavedByObjectVersion
1070
     0
  0
ACAD_PROXY_OBJECT
  5
42
102
{ACAD_REACTORS
330
2A
102
}
330
2A
100
AcDbProxyObject
 90
      499
 91
      501
 93
      420
310
4194DA1859195911B40902404333333333333E33F0000000000000F9010740A41107004050150800405405064090840C02480A0B40
1001
ACAD
1000
AcDbSavedByObjectVersion
1070
     0
  0
ACAD_PROXY_OBJECT
  5
41
102
{ACAD_REACTORS
330
2A
102
}
330
2A
100
AcDbProxyObject
 90
      499
 91
      501
 93
      516
310
4454DA18591959081DDA5D1A08195919D95CD1A40902404333333333333E33F0000000000000F901074090142907004050250800405405064090740C02480A0B40
1001
ACAD
1000
AcDbSavedByObjectVersion
1070
     0
  0
ACAD_PROXY_OBJECT
  5
3E
102
{ACAD_REACTORS
330
2A
102
}
330
2A
100
AcDbProxyObject
 90
      499
 91
      501
 93
      532
310
4394DA1859195CC81BD98811DC985E5174090240C333333333333E33F0000000000000F901079024090741D01000000000000111010841D405064090740C02480A0340
1001
ACAD
1000
AcDbSavedByObjectVersion
1070
     0
  0
ACAD_PROXY_OBJECT
  5
3F
102
{ACAD_REACTORS
330
2A
102
}
330
2A
100
AcDbProxyObject
 90
      499
 91
      501
 93
      476
310
41D4DAD95D18DA1E51840502408333333333333E33F0000000000000F901079024090741D01000000000000111010B41D405064090741802480A0340
1001
ACAD
1000
AcDbSavedByObjectVersion
1070
     0
  0
ACAD_PROXY_OBJECT
  5
37
102
{ACAD_REACTORS
330
2A
102
}
330
2A
100
AcDbProxyObject
 90
      499
 91
      501
 93
      412
310
41D51A1A58DAD95B90D409028333333333333E33F0000000000000F9010790141107004050150C41D405064090741402480A0350
1001
ACAD
1000
AcDbSavedByObjectVersion
1070
     0
  0
ACAD_PROXY_OBJECT
  5
30
102
{ACAD_REACTORS
330
2A
102
}
330
2A
100
AcDbProxyObject
 90
      499
 91
      501
 93
      420
310
4255DA5C99599C985B595059028333333333333E33F0000000000000F90107901411070040501600405405064090740C02480A0340
1001
ACAD
1000
AcDbSavedByObjectVersion
1070
     0
  0
ACAD_PROXY_OBJECT
  5
40
102
{ACAD_REACTORS
330
2A
102
}
330
2A
100
AcDbProxyObject
 90
      499
 91
      501
 93
      404
310
41560B54985E51940902404000000000000E03F0000000000000F9010740501907004050150841D405064090740C02480A1B40
1001
ACAD
1000
AcDbSavedByObjectVersion
1070
     0
  0
XRECORD
  5
1CD
102
{ACAD_REACTORS
330
1C3
102
}
330
1C3
100
AcDbXrecord
340
0
  0
XRECORD
  5
1CC
102
{ACAD_REACTORS
330
1C3
102
}
330
1C3
100
AcDbXrecord
 90
        0
  0
XRECORD
  5
1E3
102
{ACAD_REACTORS
330
1C3
102
}
330
1C3
100
AcDbXrecord
1000
DSTYLE
1002
{
1070
   179
 70
     2
1070
   171
 70
     2
1070
   143
 40
25.4
1070
   274
 70
     2
1070
    41
 40
3.0
1070
   141
 40
0.09
1070
    43
 40
0.38
1070
   278
 70
    46
1070
    44
 40
1.5
1070
    42
 40
0.0625
1070
   147
 40
1.5
1070
   272
 70
     4
1070
    73
 70
     1
1070
   172
 70
     0
1070
    74
 70
     1
1070
   283
 70
     1
1070
   340
340
6E
1070
   140
 40
3.0
1070
   284
 70
     0
1070
    78
 70
     0
1002
}
  0
XRECORD
  5
1CE
102
{ACAD_REACTORS
330
1C3
102
}
330
1C3
100
AcDbXrecord
  1
{630D5F44-DA24-4B1B-A11A-846A65079FE7}
  0
XRECORD
  5
1C6
102
{ACAD_REACTORS
330
1C3
102
}
330
1C3
100
AcDbXrecord
  1

  0
XRECORD
  5
1CB
102
{ACAD_REACTORS
330
1C3
102
}
330
1C3
100
AcDbXrecord
 90
        4
  0
XRECORD
  5
1C8
102
{ACAD_REACTORS
330
1C3
102
}
330
1C3
100
AcDbXrecord
340
1A
  0
XRECORD
  5
1CA
102
{ACAD_REACTORS
330
1C3
102
}
330
1C3
100
AcDbXrecord
 90
    10269
  0
XRECORD
  5
1C9
102
{ACAD_REACTORS
330
1C3
102
}
330
1C3
100
AcDbXrecord
340
19
  0
XRECORD
  5
1D0
102
{ACAD_REACTORS
330
1C3
102
}
330
1C3
100
AcDbXrecord
 40
0.0
  0
XRECORD
  5
1D3
102
{ACAD_REACTORS
330
1C3
102
}
330
1C3
100
AcDbXrecord
340
0
  0
XRECORD
  5
1D9
102
{ACAD_REACTORS
330
1C3
102
}
330
1C3
100
AcDbXrecord
 10
0.0
 20
0.0
 30
0.0
  0
XRECORD
  5
1D5
102
{ACAD_REACTORS
330
1C3
102
}
330
1C3
100
AcDbXrecord
 10
0.0
 20
0.0
 30
0.0
  0
XRECORD
  5
1D8
102
{ACAD_REACTORS
330
1C3
102
}
330
1C3
100
AcDbXrecord
 10
0.0
 20
0.0
 30
0.0
  0
XRECORD
  5
1D6
102
{ACAD_REACTORS
330
1C3
102
}
330
1C3
100
AcDbXrecord
 10
0.0
 20
0.0
 30
0.0
  0
XRECORD
  5
1D7
102
{ACAD_REACTORS
330
1C3
102
}
330
1C3
100
AcDbXrecord
 10
0.0
 20
0.0
 30
0.0
  0
XRECORD
  5
1D4
102
{ACAD_REACTORS
330
1C3
102
}
330
1C3
100
AcDbXrecord
 10
0.0
 20
0.0
 30
0.0
  0
XRECORD
  5
1D1
102
{ACAD_REACTORS
330
1C3
102
}
330
1C3
100
AcDbXrecord
340
0
  0
XRECORD
  5
1D2
102
{ACAD_REACTORS
330
1C3
102
}
330
1C3
100
AcDbXrecord
 70
     0
  0
XRECORD
  5
1C7
102
{ACAD_REACTORS
330
1C3
102
}
330
1C3
100
AcDbXrecord
  1

  0
XRECORD
  5
1C4
102
{ACAD_REACTORS
330
1C3
102
}
330
1C3
100
AcDbXrecord
 90
        1
  0
XRECORD
  5
1C5
102
{ACAD_REACTORS
330
1C3
102
}
330
1C3
100
AcDbXrecord
 90
       70
  0
XRECORD
  5
1DC
102
{ACAD_REACTORS
330
1C3
102
}
330
1C3
100
AcDbXrecord
340
0
  0
XRECORD
  5
1E2
102
{ACAD_REACTORS
330
1C3
102
}
330
1C3
100
AcDbXrecord
 10
0.0
 20
0.0
 30
0.0
  0
XRECORD
  5
1DE
102
{ACAD_REACTORS
330
1C3
102
}
330
1C3
100
AcDbXrecord
 10
0.0
 20
0.0
 30
0.0
  0
XRECORD
  5
1E1
102
{ACAD_REACTORS
330
1C3
102
}
330
1C3
100
AcDbXrecord
 10
0.0
 20
0.0
 30
0.0
  0
XRECORD
  5
1DF
102
{ACAD_REACTORS
330
1C3
102
}
330
1C3
100
AcDbXrecord
 10
0.0
 20
0.0
 30
0.0
  0
XRECORD
  5
1E0
102
{ACAD_REACTORS
330
1C3
102
}
330
1C3
100
AcDbXrecord
 10
0.0
 20
0.0
 30
0.0
  0
XRECORD
  5
1DD
102
{ACAD_REACTORS
330
1C3
102
}
330
1C3
100
AcDbXrecord
 10
0.0
 20
0.0
 30
0.0
  0
XRECORD
  5
1DA
102
{ACAD_REACTORS
330
1C3
102
}
330
1C3
100
AcDbXrecord
340
0
  0
XRECORD
  5
1DB
102
{ACAD_REACTORS
330
1C3
102
}
330
1C3
100
AcDbXrecord
 70
     0
  0
XRECORD
  5
1CF
102
{ACAD_REACTORS
330
1C3
102
}
330
1C3
100
AcDbXrecord
  1
{FAEB1C32-E019-11D5-929B-00C0DF256EC4}
  0
DICTIONARYVAR
  5
1EF
102
{ACAD_REACTORS
330
1E4
102
}
330
1E4
100
DictionaryVariables
280
     0
  1
1:1
  0
DICTIONARYVAR
  5
1E6
102
{ACAD_REACTORS
330
1E4
102
}
330
1E4
100
DictionaryVariables
280
     0
  1
Standard
  0
DICTIONARYVAR
  5
1E5
102
{ACAD_REACTORS
330
1E4
102
}
330
1E4
100
DictionaryVariables
280
     0
  1
Standard
  0
DICTIONARYVAR
  5
1E9
102
{ACAD_REACTORS
330
1E4
102
}
330
1E4
100
DictionaryVariables
280
     0
  1
2
  0
DICTIONARYVAR
  5
1EA
102
{ACAD_REACTORS
330
1E4
102
}
330
1E4
100
DictionaryVariables
280
     0
  1
1
  0
DICTIONARYVAR
  5
1F0
102
{ACAD_REACTORS
330
1E4
102
}
330
1E4
100
DictionaryVariables
280
     0
  1
1
  0
DICTIONARY
  5
1F3
330
45
100
AcDbDictionary
280
     1
  3
ACAD_XREC_ROUNDTRIP
360
1F4
  0
DICTIONARY
  5
1F1
330
44
100
AcDbDictionary
280
     1
  3
ACAD_XREC_ROUNDTRIP
360
1F2
  0
DICTIONARY
  5
1F5
330
46
100
AcDbDictionary
280
     1
  3
ACAD_XREC_ROUNDTRIP
360
1F6
  0
XRECORD
  5
1F4
102
{ACAD_REACTORS
330
1F3
102
}
330
1F3
100
AcDbXrecord
102
MATERIAL
148
0.0
149
0.0
149
0.0
 93
        0
 94
      127
282
     0
 72
     1
 77
     1
171
     1
175
     1
179
     1
273
     0
  0
XRECORD
  5
1F2
102
{ACAD_REACTORS
330
1F1
102
}
330
1F1
100
AcDbXrecord
102
MATERIAL
148
0.0
149
0.0
149
0.0
 93
        0
 94
      127
282
     0
 72
     1
 77
     1
171
     1
175
     1
179
     1
273
     0
  0
XRECORD
  5
1F6
102
{ACAD_REACTORS
330
1F5
102
}
330
1F5
100
AcDbXrecord
102
MATERIAL
148
0.0
149
0.0
149
0.0
 93
        0
 94
      127
282
     0
 72
     1
 77
     1
171
     1
175
     1
179
     1
273
     0
  0
ENDSEC
  0
EOF
