  0
SECTION
  2
HEADER
  9
$ACADVER
  1
AC1006
  9
$DWGCODEPAGE
  3
ansi_932
  9
$INSBASE
 10
0.0
 20
0.0
 30
0.0
  9
$EXTMIN
 10
-347.5833333333333
 20
236.7227272729272
  9
$EXTMAX
 10
-53.58333333333331
 20
512.2549152116376
  9
$LIMMIN
 10
0.0
 20
0.0
  9
$LIMMAX
 10
12.0
 20
9.0
  9
$ORTHOMODE
 70
     0
  9
$REGENMODE
 70
     1
  9
$FILLMODE
 70
     1
  9
$QTEXTMODE
 70
     0
  9
$MIRRTEXT
 70
     1
  9
$DRAGMODE
 70
     2
  9
$LTSCALE
 40
1.0
  9
$OSMODE
 70
    37
  9
$ATTMODE
 70
     1
  9
$TEXTSIZE
 40
0.2
  9
$TRACEWID
 40
0.05
  9
$TEXTSTYLE
  7
STANDARD
  9
$CLAYER
  8
0
  9
$CELTYPE
  6
BYLAYER
  9
$CECOLOR
 62
   256
  9
$DIMSCALE
 40
1.0
  9
$DIMASZ
 40
3.0
  9
$DIMEXO
 40
0.0625
  9
$DIMDLI
 40
0.38
  9
$DIMRND
 40
0.0
  9
$DIMDLE
 40
0.0
  9
$DIMEXE
 40
1.5
  9
$DIMTP
 40
0.0
  9
$DIMTM
 40
0.0
  9
$DIMTXT
 40
3.0
  9
$DIMCEN
 40
0.09
  9
$DIMTSZ
 40
0.0
  9
$DIMTOL
 70
     0
  9
$DIMLIM
 70
     0
  9
$DIMTIH
 70
     1
  9
$DIMTOH
 70
     1
  9
$DIMSE1
 70
     0
  9
$DIMSE2
 70
     0
  9
$DIMTAD
 70
     1
  9
$DIMZIN
 70
     0
  9
$DIMBLK
  1

  9
$DIMASO
 70
     1
  9
$DIMSHO
 70
     1
  9
$DIMPOST
  1

  9
$DIMAPOST
  1

  9
$DIMALT
 70
     0
  9
$DIMALTD
 70
     2
  9
$DIMALTF
 40
25.4
  9
$DIMLFAC
 40
1.0
  9
$DIMTOFL
 70
     0
  9
$DIMTVP
 40
0.0
  9
$DIMTIX
 70
     0
  9
$DIMSOXD
 70
     0
  9
$DIMSAH
 70
     0
  9
$DIMBLK1
  1

  9
$DIMBLK2
  1

  9
$LUNITS
 70
     2
  9
$LUPREC
 70
     4
  9
$SKETCHINC
 40
0.1
  9
$FILLETRAD
 40
0.5
  9
$AUNITS
 70
     0
  9
$AUPREC
 70
     0
  9
$MENU
  1
.
  9
$ELEVATION
 40
0.0
  9
$THICKNESS
 40
0.0
  9
$LIMCHECK
 70
     0
  9
$CHAMFERA
 40
0.0
  9
$CHAMFERB
 40
0.0
  9
$SKPOLY
 70
     0
  9
$TDCREATE
 40
2460663.488509201
  9
$TDUPDATE
 40
2460663.488509433
  9
$TDINDWG
 40
0.0000000116
  9
$TDUSRTIMER
 40
0.0000000116
  9
$USRTIMER
 70
     1
  9
$ANGBASE
 50
0.0
  9
$ANGDIR
 70
     0
  9
$PDMODE
 70
     0
  9
$PDSIZE
 40
0.0
  9
$PLINEWID
 40
0.0
  9
$COORDS
 70
     1
  9
$SPLFRAME
 70
     0
  9
$SPLINETYPE
 70
     6
  9
$SPLINESEGS
 70
     8
  9
$ATTDIA
 70
     0
  9
$ATTREQ
 70
     1
  9
$HANDLING
 70
     1
  9
$HANDSEED
  5
2ED
  9
$SURFTAB1
 70
     6
  9
$SURFTAB2
 70
     6
  9
$SURFTYPE
 70
     6
  9
$SURFU
 70
     6
  9
$SURFV
 70
     6
  9
$UCSNAME
  2

  9
$UCSORG
 10
0.0
 20
0.0
 30
0.0
  9
$UCSXDIR
 10
1.0
 20
0.0
 30
0.0
  9
$UCSYDIR
 10
0.0
 20
1.0
 30
0.0
  9
$USERI1
 70
     0
  9
$USERI2
 70
     0
  9
$USERI3
 70
     0
  9
$USERI4
 70
     0
  9
$USERI5
 70
     0
  9
$USERR1
 40
0.0
  9
$USERR2
 40
0.0
  9
$USERR3
 40
0.0
  9
$USERR4
 40
0.0
  9
$USERR5
 40
0.0
  9
$WORLDVIEW
 70
     1
  0
ENDSEC
  0
SECTION
  2
TABLES
  0
TABLE
  2
VPORT
 70
     1
  0
VPORT
  2
*ACTIVE
 70
     0
 10
0.0
 20
0.0
 11
1.0
 21
1.0
 12
-200.5833333333333
 22
374.4888212422824
 13
0.0
 23
0.0
 14
0.5
 24
0.5
 15
0.5
 25
0.5
 16
0.0
 26
0.0
 36
1.0
 17
0.0
 27
0.0
 37
0.0
 40
275.5321879387104
 41
1.6
 42
50.0
 43
0.0
 44
0.0
 50
0.0
 51
0.0
 71
     0
 72
   100
 73
     1
 74
     3
 75
     0
 76
     0
 77
     0
 78
     0
  0
ENDTAB
  0
TABLE
  2
LTYPE
 70
     2
  0
LTYPE
  2
CONTINUOUS
 70
     0
  3
Solid line
 72
    65
 73
     0
 40
0.0
  0
LTYPE
  2
CENTER
 70
     0
  3

 72
    65
 73
     0
 40
0.0
  0
ENDTAB
  0
TABLE
  2
LAYER
 70
     1
  0
LAYER
  2
0
 70
     0
 62
     7
  6
CONTINUOUS
  0
ENDTAB
  0
TABLE
  2
STYLE
 70
     2
  0
STYLE
  2
STANDARD
 70
     0
 40
0.0
 41
1.0
 50
0.0
 71
     0
 42
0.2
  3
txt
  4

  0
STYLE
  2
ＭＳ_ゴシック
 70
     0
 40
0.0
 41
1.0
 50
0.0
 71
     0
 42
0.2
  3
ＭＳ ゴシック.shx
  4

  0
ENDTAB
  0
TABLE
  2
VIEW
 70
     0
  0
ENDTAB
  0
TABLE
  2
UCS
 70
     0
  0
ENDTAB
  0
ENDSEC
  0
SECTION
  2
BLOCKS
  0
ENDSEC
  0
SECTION
  2
ENTITIES
  0
POINT
  5
6F
  8
0
 62
     1
 10
-248.5833333333333
 20
474.2549152116378
 30
0.0
  0
LINE
  5
70
  8
0
  6
CONTINUOUS
 62
   253
 10
-82.58333333333334
 20
349.4406733202524
 30
0.0
 11
-70.08333333333333
 21
349.4406733202524
 31
0.0
  0
LINE
  5
71
  8
0
  6
CONTINUOUS
 62
     7
 10
-103.5833333333334
 20
350.6993227670181
 30
0.0
 11
-103.5833333333334
 21
351.4046306898521
 31
0.0
  0
LINE
  5
72
  8
0
  6
CONTINUOUS
 62
     7
 10
-118.0833333333332
 20
350.6993227670181
 30
0.0
 11
-118.0833333333332
 21
320.7843933117483
 31
0.0
  0
LINE
  5
73
  8
0
  6
CONTINUOUS
 62
     7
 10
-118.0833333333332
 20
320.7843933117483
 30
0.0
 11
-118.0833333333332
 21
320.0790853889144
 31
0.0
  0
LINE
  5
74
  8
0
  6
CONTINUOUS
 62
     7
 10
-69.08333333333339
 20
350.6993227670181
 30
0.0
 11
-69.08333333333339
 21
351.4046306898521
 31
0.0
  0
LINE
  5
75
  8
0
  6
CONTINUOUS
 62
   253
 10
-104.5833333333334
 20
322.0430427585143
 30
0.0
 11
-117.0833333333334
 21
322.0430427585143
 31
0.0
  0
LINE
  5
76
  8
0
  6
CONTINUOUS
 62
   253
 10
-70.08333333333327
 20
322.0430427585143
 30
0.0
 11
-82.58333333333329
 21
322.0430427585143
 31
0.0
  0
LINE
  5
77
  8
0
  6
CONTINUOUS
 62
   253
 10
-117.0833333333333
 20
349.4406733202524
 30
0.0
 11
-104.5833333333333
 21
349.4406733202524
 31
0.0
  0
LINE
  5
78
  8
0
  6
CONTINUOUS
 62
     7
 10
-281.566394609488
 20
498.7549152116379
 30
0.0
 11
-281.3794393662287
 21
498.7332682315674
 31
0.0
  0
LINE
  5
79
  8
0
  6
CONTINUOUS
 62
     7
 10
-281.3794393662288
 20
498.7332682315673
 30
0.0
 11
-281.1965311393943
 21
498.6687958831021
 31
0.0
  0
LINE
  5
7A
  8
0
  6
CONTINUOUS
 62
     7
 10
-281.1965311393943
 20
498.668795883102
 30
0.0
 11
-281.0216293397257
 21
498.5628937978844
 31
0.0
  0
LINE
  5
7B
  8
0
  6
CONTINUOUS
 62
     7
 10
-281.0216293397257
 20
498.5628937978843
 30
0.0
 11
-280.8585200629948
 21
498.4178544362426
 31
0.0
  0
LINE
  5
7C
  8
0
  6
CONTINUOUS
 62
     7
 10
-280.8585200629947
 20
498.417854436243
 30
0.0
 11
-280.710734132464
 21
498.2368174623477
 31
0.0
  0
LINE
  5
7D
  8
0
  6
CONTINUOUS
 62
   253
 10
-117.0833333333333
 20
322.0430427585143
 30
0.0
 11
-117.1324010076606
 21
322.0415266601333
 31
0.0
  0
LINE
  5
7E
  8
0
  6
CONTINUOUS
 62
   253
 10
-117.1324010076606
 20
322.0415266601328
 30
0.0
 11
-117.1813504736628
 21
322.0369820174039
 31
0.0
  0
LINE
  5
7F
  8
0
  6
CONTINUOUS
 62
   253
 10
-117.1813504736628
 20
322.0369820174041
 30
0.0
 11
-117.2300638077887
 21
322.0294197787692
 31
0.0
  0
LINE
  5
80
  8
0
  6
CONTINUOUS
 62
   253
 10
-117.2300638077887
 20
322.0294197787696
 30
0.0
 11
-117.2784236553494
 21
322.0188581623242
 31
0.0
  0
LINE
  5
81
  8
0
  6
CONTINUOUS
 62
   253
 10
-117.2784236553493
 20
322.0188581623242
 30
0.0
 11
-117.3263135132366
 21
322.0053226119276
 31
0.0
  0
LINE
  5
82
  8
0
  6
CONTINUOUS
 62
   253
 10
-117.3263135132366
 20
322.0053226119277
 30
0.0
 11
-117.3736180105878
 21
321.988845735906
 31
0.0
  0
LINE
  5
83
  8
0
  6
CONTINUOUS
 62
   253
 10
-117.3736180105878
 20
321.9888457359054
 30
0.0
 11
-117.4202231867254
 21
321.9694672284965
 31
0.0
  0
LINE
  5
84
  8
0
  6
CONTINUOUS
 62
   253
 10
-117.4202231867254
 20
321.969467228497
 30
0.0
 11
-117.4660167656984
 21
321.9472337742222
 31
0.0
  0
LINE
  5
85
  8
0
  6
CONTINUOUS
 62
   253
 10
-117.4660167656983
 20
321.947233774222
 30
0.0
 11
-117.5108884267635
 21
321.9221989354203
 31
0.0
  0
LINE
  5
86
  8
0
  6
CONTINUOUS
 62
   253
 10
-117.5108884267636
 20
321.9221989354209
 30
0.0
 11
-117.5547300701593
 21
321.8944230232119
 31
0.0
  0
LINE
  5
87
  8
0
  6
CONTINUOUS
 62
   253
 10
-117.5547300701594
 20
321.8944230232115
 30
0.0
 11
-117.5974360775265
 21
321.8639729522006
 31
0.0
  0
LINE
  5
88
  8
0
  6
CONTINUOUS
 62
   253
 10
-117.5974360775265
 20
321.8639729522006
 30
0.0
 11
-117.6389035663529
 21
321.8309220792755
 31
0.0
  0
LINE
  5
89
  8
0
  6
CONTINUOUS
 62
   253
 10
-117.6389035663528
 20
321.8309220792754
 30
0.0
 11
-117.6790326378258
 21
321.7953500268846
 31
0.0
  0
LINE
  5
8A
  8
0
  6
CONTINUOUS
 62
   253
 10
-117.6790326378258
 20
321.7953500268846
 30
0.0
 11
-117.7177266174969
 21
321.7573424912175
 31
0.0
  0
LINE
  5
8B
  8
0
  6
CONTINUOUS
 62
   253
 10
-117.717726617497
 20
321.7573424912175
 30
0.0
 11
-117.7548922881804
 21
321.7169910357567
 31
0.0
  0
LINE
  5
8C
  8
0
  6
CONTINUOUS
 62
   253
 10
-117.7548922881804
 20
321.7169910357569
 30
0.0
 11
-117.7904401145198
 21
321.6743928706932
 31
0.0
  0
LINE
  5
8D
  8
0
  6
CONTINUOUS
 62
   253
 10
-117.7904401145199
 20
321.6743928706936
 30
0.0
 11
-117.8242844586884
 21
321.6296506187376
 31
0.0
  0
LINE
  5
8E
  8
0
  6
CONTINUOUS
 62
   253
 10
-117.8242844586883
 20
321.6296506187373
 30
0.0
 11
-117.8563437866959
 21
321.5828720678929
 31
0.0
  0
LINE
  5
8F
  8
0
  6
CONTINUOUS
 62
   253
 10
-117.8563437866961
 20
321.5828720678928
 30
0.0
 11
-117.8865408648141
 21
321.5341699117865
 31
0.0
  0
LINE
  5
90
  8
0
  6
CONTINUOUS
 62
   253
 10
-117.8865408648141
 20
321.5341699117866
 30
0.0
 11
-117.9148029456359
 21
321.4836614781781
 31
0.0
  0
LINE
  5
91
  8
0
  6
CONTINUOUS
 62
   253
 10
-117.9148029456357
 20
321.4836614781782
 30
0.0
 11
-117.9410619433334
 21
321.4314684463082
 31
0.0
  0
LINE
  5
92
  8
0
  6
CONTINUOUS
 62
   253
 10
-117.9410619433334
 20
321.4314684463084
 30
0.0
 11
-117.9652545976816
 21
321.3777165537621
 31
0.0
  0
LINE
  5
93
  8
0
  6
CONTINUOUS
 62
   253
 10
-117.9652545976816
 20
321.3777165537621
 30
0.0
 11
-117.9873226264568
 21
321.3225352935568
 31
0.0
  0
LINE
  5
94
  8
0
  6
CONTINUOUS
 62
   253
 10
-117.9873226264568
 20
321.3225352935565
 30
0.0
 11
-118.0072128658446
 21
321.2660576021811
 31
0.0
  0
LINE
  5
95
  8
0
  6
CONTINUOUS
 62
   253
 10
-118.0072128658446
 20
321.2660576021813
 30
0.0
 11
-118.0248773985163
 21
321.2084195393418
 31
0.0
  0
LINE
  5
96
  8
0
  6
CONTINUOUS
 62
   253
 10
-118.0248773985163
 20
321.2084195393419
 30
0.0
 11
-118.0402736690655
 21
321.1497599601796
 31
0.0
  0
LINE
  5
97
  8
0
  6
CONTINUOUS
 62
   253
 10
-118.0402736690654
 20
321.1497599601794
 30
0.0
 11
-118.0533645865277
 21
321.0902201807586
 31
0.0
  0
LINE
  5
98
  8
0
  6
CONTINUOUS
 62
   253
 10
-118.0533645865277
 20
321.0902201807588
 30
0.0
 11
-118.0641186137364
 21
321.0299436376237
 31
0.0
  0
LINE
  5
99
  8
0
  6
CONTINUOUS
 62
   253
 10
-118.0641186137364
 20
321.0299436376238
 30
0.0
 11
-118.072509843298
 21
320.9690755422456
 31
0.0
  0
LINE
  5
9A
  8
0
  6
CONTINUOUS
 62
   253
 10
-118.0725098432979
 20
320.9690755422452
 30
0.0
 11
-118.0785180600054
 21
320.9077625311976
 31
0.0
  0
LINE
  5
9B
  8
0
  6
CONTINUOUS
 62
   253
 10
-118.0785180600054
 20
320.9077625311974
 30
0.0
 11
-118.0821287895384
 21
320.8461523128943
 31
0.0
  0
LINE
  5
9C
  8
0
  6
CONTINUOUS
 62
   253
 10
-118.0821287895385
 20
320.8461523128951
 30
0.0
 11
-118.0833333333333
 21
320.7843933117488
 31
0.0
  0
LINE
  5
9D
  8
0
  6
CONTINUOUS
 62
   253
 10
-104.5833333333334
 20
349.4406733202524
 30
0.0
 11
-104.5342656590059
 21
349.4421894186333
 31
0.0
  0
LINE
  5
9E
  8
0
  6
CONTINUOUS
 62
   253
 10
-104.5342656590058
 20
349.4421894186335
 30
0.0
 11
-104.4853161930038
 21
349.4467340613625
 31
0.0
  0
LINE
  5
9F
  8
0
  6
CONTINUOUS
 62
   253
 10
-104.4853161930037
 20
349.4467340613623
 30
0.0
 11
-104.4366028588777
 21
349.4542962999971
 31
0.0
  0
LINE
  5
A0
  8
0
  6
CONTINUOUS
 62
   253
 10
-104.4366028588778
 20
349.4542962999971
 30
0.0
 11
-104.3882430113171
 21
349.4648579164424
 31
0.0
  0
LINE
  5
A1
  8
0
  6
CONTINUOUS
 62
   253
 10
-104.3882430113171
 20
349.4648579164426
 30
0.0
 11
-104.3403531534299
 21
349.4783934668394
 31
0.0
  0
LINE
  5
A2
  8
0
  6
CONTINUOUS
 62
   253
 10
-104.34035315343
 20
349.4783934668395
 30
0.0
 11
-104.2930486560789
 21
349.494870342861
 31
0.0
  0
LINE
  5
A3
  8
0
  6
CONTINUOUS
 62
   253
 10
-104.2930486560788
 20
349.4948703428608
 30
0.0
 11
-104.246443479941
 21
349.5142488502698
 31
0.0
  0
LINE
  5
A4
  8
0
  6
CONTINUOUS
 62
   253
 10
-104.2464434799409
 20
349.5142488502698
 30
0.0
 11
-104.2006499009681
 21
349.5364823045445
 31
0.0
  0
LINE
  5
A5
  8
0
  6
CONTINUOUS
 62
   253
 10
-104.2006499009681
 20
349.5364823045443
 30
0.0
 11
-104.1557782399029
 21
349.5615171433459
 31
0.0
  0
LINE
  5
A6
  8
0
  6
CONTINUOUS
 62
   253
 10
-104.1557782399028
 20
349.561517143346
 30
0.0
 11
-104.1119365965072
 21
349.5892930555549
 31
0.0
  0
LINE
  5
A7
  8
0
  6
CONTINUOUS
 62
   253
 10
-104.1119365965072
 20
349.5892930555553
 30
0.0
 11
-104.06923058914
 21
349.6197431265663
 31
0.0
  0
LINE
  5
A8
  8
0
  6
CONTINUOUS
 62
   253
 10
-104.0692305891401
 20
349.6197431265662
 30
0.0
 11
-104.0277631003136
 21
349.6527939994912
 31
0.0
  0
LINE
  5
A9
  8
0
  6
CONTINUOUS
 62
   253
 10
-104.0277631003136
 20
349.6527939994909
 30
0.0
 11
-103.9876340288408
 21
349.6883660518817
 31
0.0
  0
LINE
  5
AA
  8
0
  6
CONTINUOUS
 62
   253
 10
-103.9876340288408
 20
349.6883660518822
 30
0.0
 11
-103.9489400491696
 21
349.7263735875491
 31
0.0
  0
LINE
  5
AB
  8
0
  6
CONTINUOUS
 62
   253
 10
-103.9489400491697
 20
349.7263735875489
 30
0.0
 11
-103.9117743784863
 21
349.7667250430096
 31
0.0
  0
LINE
  5
AC
  8
0
  6
CONTINUOUS
 62
   253
 10
-103.9117743784864
 20
349.7667250430094
 30
0.0
 11
-103.8762265521469
 21
349.8093232080732
 31
0.0
  0
LINE
  5
AD
  8
0
  6
CONTINUOUS
 62
   253
 10
-103.8762265521468
 20
349.8093232080737
 30
0.0
 11
-103.8423822079783
 21
349.8540654600297
 31
0.0
  0
LINE
  5
AE
  8
0
  6
CONTINUOUS
 62
   253
 10
-103.8423822079783
 20
349.8540654600291
 30
0.0
 11
-103.8103228799704
 21
349.9008440108734
 31
0.0
  0
LINE
  5
AF
  8
0
  6
CONTINUOUS
 62
   253
 10
-103.8103228799704
 20
349.9008440108739
 30
0.0
 11
-103.7801258018526
 21
349.9495461669803
 31
0.0
  0
LINE
  5
B0
  8
0
  6
CONTINUOUS
 62
   253
 10
-103.7801258018527
 20
349.9495461669802
 30
0.0
 11
-103.7518637210309
 21
350.0000546005886
 31
0.0
  0
LINE
  5
B1
  8
0
  6
CONTINUOUS
 62
   253
 10
-103.7518637210308
 20
350.0000546005886
 30
0.0
 11
-103.725604723333
 21
350.0522476324585
 31
0.0
  0
LINE
  5
B2
  8
0
  6
CONTINUOUS
 62
   253
 10
-103.725604723333
 20
350.0522476324588
 30
0.0
 11
-103.701412068985
 21
350.1059995250051
 31
0.0
  0
LINE
  5
B3
  8
0
  6
CONTINUOUS
 62
   253
 10
-103.7014120689849
 20
350.1059995250051
 30
0.0
 11
-103.6793440402097
 21
350.1611807852104
 31
0.0
  0
LINE
  5
B4
  8
0
  6
CONTINUOUS
 62
   253
 10
-103.6793440402098
 20
350.1611807852103
 30
0.0
 11
-103.659453800822
 21
350.2176584765855
 31
0.0
  0
LINE
  5
B5
  8
0
  6
CONTINUOUS
 62
   253
 10
-103.6594538008219
 20
350.2176584765855
 30
0.0
 11
-103.6417892681502
 21
350.2752965394251
 31
0.0
  0
LINE
  5
B6
  8
0
  6
CONTINUOUS
 62
   253
 10
-103.6417892681504
 20
350.2752965394254
 30
0.0
 11
-103.6263929976012
 21
350.3339561185876
 31
0.0
  0
LINE
  5
B7
  8
0
  6
CONTINUOUS
 62
   253
 10
-103.6263929976011
 20
350.333956118587
 30
0.0
 11
-103.6133020801388
 21
350.3934958980076
 31
0.0
  0
LINE
  5
B8
  8
0
  6
CONTINUOUS
 62
   253
 10
-103.6133020801388
 20
350.3934958980079
 30
0.0
 11
-103.6025480529301
 21
350.4537724411433
 31
0.0
  0
LINE
  5
B9
  8
0
  6
CONTINUOUS
 62
   253
 10
-103.6025480529301
 20
350.4537724411434
 30
0.0
 11
-103.5941568233685
 21
350.5146405365214
 31
0.0
  0
LINE
  5
BA
  8
0
  6
CONTINUOUS
 62
   253
 10
-103.5941568233686
 20
350.5146405365211
 30
0.0
 11
-103.5881486066613
 21
350.5759535475688
 31
0.0
  0
LINE
  5
BB
  8
0
  6
CONTINUOUS
 62
   253
 10
-103.5881486066612
 20
350.575953547569
 30
0.0
 11
-103.5845378771282
 21
350.637563765872
 31
0.0
  0
LINE
  5
BC
  8
0
  6
CONTINUOUS
 62
   253
 10
-103.5845378771282
 20
350.6375637658716
 30
0.0
 11
-103.5833333333334
 21
350.699322767018
 31
0.0
  0
LINE
  5
BD
  8
0
  6
CONTINUOUS
 62
     7
 10
-280.6654412064696
 20
450.3407016492646
 30
0.0
 11
-280.8073899869365
 21
450.1485001486765
 31
0.0
  0
LINE
  5
BE
  8
0
  6
CONTINUOUS
 62
     7
 10
-280.8073899869365
 20
450.1485001486762
 30
0.0
 11
-280.9657689253411
 21
449.991072682941
 31
0.0
  0
LINE
  5
BF
  8
0
  6
CONTINUOUS
 62
     7
 10
-280.965768925341
 20
449.9910726829413
 30
0.0
 11
-281.1371495959601
 21
449.8718270812717
 31
0.0
  0
LINE
  5
C0
  8
0
  6
CONTINUOUS
 62
     7
 10
-281.1371495959601
 20
449.8718270812714
 30
0.0
 11
-281.3178221248324
 21
449.793344650831
 31
0.0
  0
LINE
  5
C1
  8
0
  6
CONTINUOUS
 62
     7
 10
-281.3178221248326
 20
449.7933446508316
 30
0.0
 11
-281.5038754973263
 21
449.7573242992275
 31
0.0
  0
LINE
  5
C2
  8
0
  6
CONTINUOUS
 62
     7
 10
-281.5038754973262
 20
449.7573242992274
 30
0.0
 11
-281.5663946094882
 21
449.7549152116379
 31
0.0
  0
LINE
  5
C3
  8
0
  6
CONTINUOUS
 62
   253
 10
-118.0833333333332
 20
350.6993227670181
 30
0.0
 11
-118.0821287895384
 21
350.6375637658717
 31
0.0
  0
LINE
  5
C4
  8
0
  6
CONTINUOUS
 62
   253
 10
-118.0821287895385
 20
350.6375637658716
 30
0.0
 11
-118.0785180600055
 21
350.5759535475686
 31
0.0
  0
LINE
  5
C5
  8
0
  6
CONTINUOUS
 62
   253
 10
-118.0785180600054
 20
350.575953547569
 30
0.0
 11
-118.0725098432979
 21
350.5146405365213
 31
0.0
  0
LINE
  5
C6
  8
0
  6
CONTINUOUS
 62
   253
 10
-118.0725098432979
 20
350.5146405365211
 30
0.0
 11
-118.0641186137363
 21
350.4537724411431
 31
0.0
  0
LINE
  5
C7
  8
0
  6
CONTINUOUS
 62
   253
 10
-118.0641186137364
 20
350.4537724411434
 30
0.0
 11
-118.0533645865277
 21
350.393495898008
 31
0.0
  0
LINE
  5
C8
  8
0
  6
CONTINUOUS
 62
   253
 10
-118.0533645865277
 20
350.3934958980079
 30
0.0
 11
-118.0402736690654
 21
350.3339561185873
 31
0.0
  0
LINE
  5
C9
  8
0
  6
CONTINUOUS
 62
   253
 10
-118.0402736690654
 20
350.333956118587
 30
0.0
 11
-118.0248773985163
 21
350.2752965394247
 31
0.0
  0
LINE
  5
CA
  8
0
  6
CONTINUOUS
 62
   253
 10
-118.0248773985163
 20
350.2752965394254
 30
0.0
 11
-118.0072128658446
 21
350.2176584765857
 31
0.0
  0
LINE
  5
CB
  8
0
  6
CONTINUOUS
 62
   253
 10
-118.0072128658446
 20
350.2176584765855
 30
0.0
 11
-117.9873226264568
 21
350.1611807852103
 31
0.0
  0
LINE
  5
CC
  8
0
  6
CONTINUOUS
 62
   253
 10
-117.9873226264568
 20
350.1611807852103
 30
0.0
 11
-117.9652545976816
 21
350.105999525005
 31
0.0
  0
LINE
  5
CD
  8
0
  6
CONTINUOUS
 62
   253
 10
-117.9652545976816
 20
350.1059995250051
 30
0.0
 11
-117.9410619433334
 21
350.0522476324588
 31
0.0
  0
LINE
  5
CE
  8
0
  6
CONTINUOUS
 62
   253
 10
-117.9410619433334
 20
350.0522476324588
 30
0.0
 11
-117.9148029456358
 21
350.0000546005888
 31
0.0
  0
LINE
  5
CF
  8
0
  6
CONTINUOUS
 62
   253
 10
-117.9148029456357
 20
350.0000546005886
 30
0.0
 11
-117.8865408648139
 21
349.9495461669801
 31
0.0
  0
LINE
  5
D0
  8
0
  6
CONTINUOUS
 62
   253
 10
-117.8865408648141
 20
349.9495461669802
 30
0.0
 11
-117.8563437866961
 21
349.9008440108738
 31
0.0
  0
LINE
  5
D1
  8
0
  6
CONTINUOUS
 62
   253
 10
-117.8563437866961
 20
349.9008440108739
 30
0.0
 11
-117.8242844586884
 21
349.8540654600296
 31
0.0
  0
LINE
  5
D2
  8
0
  6
CONTINUOUS
 62
   253
 10
-117.8242844586883
 20
349.8540654600291
 30
0.0
 11
-117.7904401145198
 21
349.809323208073
 31
0.0
  0
LINE
  5
D3
  8
0
  6
CONTINUOUS
 62
   253
 10
-117.7904401145199
 20
349.8093232080737
 30
0.0
 11
-117.7548922881804
 21
349.7667250430098
 31
0.0
  0
LINE
  5
D4
  8
0
  6
CONTINUOUS
 62
   253
 10
-117.7548922881804
 20
349.7667250430094
 30
0.0
 11
-117.717726617497
 21
349.7263735875487
 31
0.0
  0
LINE
  5
D5
  8
0
  6
CONTINUOUS
 62
   253
 10
-117.717726617497
 20
349.7263735875489
 30
0.0
 11
-117.6790326378258
 21
349.6883660518819
 31
0.0
  0
LINE
  5
D6
  8
0
  6
CONTINUOUS
 62
   253
 10
-117.6790326378258
 20
349.6883660518822
 30
0.0
 11
-117.6389035663528
 21
349.6527939994913
 31
0.0
  0
LINE
  5
D7
  8
0
  6
CONTINUOUS
 62
   253
 10
-117.6389035663528
 20
349.6527939994909
 30
0.0
 11
-117.5974360775264
 21
349.6197431265658
 31
0.0
  0
LINE
  5
D8
  8
0
  6
CONTINUOUS
 62
   253
 10
-117.5974360775265
 20
349.6197431265662
 30
0.0
 11
-117.5547300701594
 21
349.5892930555552
 31
0.0
  0
LINE
  5
D9
  8
0
  6
CONTINUOUS
 62
   253
 10
-117.5547300701594
 20
349.5892930555553
 30
0.0
 11
-117.5108884267637
 21
349.5615171433462
 31
0.0
  0
LINE
  5
DA
  8
0
  6
CONTINUOUS
 62
   253
 10
-117.5108884267636
 20
349.561517143346
 30
0.0
 11
-117.4660167656985
 21
349.5364823045444
 31
0.0
  0
LINE
  5
DB
  8
0
  6
CONTINUOUS
 62
   253
 10
-117.4660167656983
 20
349.5364823045443
 30
0.0
 11
-117.4202231867253
 21
349.5142488502697
 31
0.0
  0
LINE
  5
DC
  8
0
  6
CONTINUOUS
 62
   253
 10
-117.4202231867254
 20
349.5142488502698
 30
0.0
 11
-117.3736180105878
 21
349.4948703428608
 31
0.0
  0
LINE
  5
DD
  8
0
  6
CONTINUOUS
 62
   253
 10
-117.3736180105878
 20
349.4948703428608
 30
0.0
 11
-117.3263135132366
 21
349.4783934668392
 31
0.0
  0
LINE
  5
DE
  8
0
  6
CONTINUOUS
 62
   253
 10
-117.3263135132366
 20
349.4783934668391
 30
0.0
 11
-117.2784236553494
 21
349.4648579164424
 31
0.0
  0
LINE
  5
DF
  8
0
  6
CONTINUOUS
 62
   253
 10
-117.2784236553493
 20
349.4648579164426
 30
0.0
 11
-117.2300638077886
 21
349.4542962999972
 31
0.0
  0
LINE
  5
E0
  8
0
  6
CONTINUOUS
 62
   253
 10
-117.2300638077887
 20
349.4542962999971
 30
0.0
 11
-117.1813504736628
 21
349.4467340613623
 31
0.0
  0
LINE
  5
E1
  8
0
  6
CONTINUOUS
 62
   253
 10
-117.1813504736628
 20
349.4467340613623
 30
0.0
 11
-117.1324010076607
 21
349.4421894186331
 31
0.0
  0
LINE
  5
E2
  8
0
  6
CONTINUOUS
 62
   253
 10
-117.1324010076606
 20
349.442189418633
 30
0.0
 11
-117.0833333333333
 21
349.4406733202522
 31
0.0
  0
LINE
  5
E3
  8
0
  6
CONTINUOUS
 62
     7
 10
-84.58333333333334
 20
281.4795683271533
 30
0.0
 11
-84.54193676420786
 21
281.4789831849407
 31
0.0
  0
LINE
  5
E4
  8
0
  6
CONTINUOUS
 62
     7
 10
-84.54193676420785
 20
281.4789831849405
 30
0.0
 11
-84.50061120251665
 21
281.4772297687493
 31
0.0
  0
LINE
  5
E5
  8
0
  6
CONTINUOUS
 62
     7
 10
-84.50061120251672
 20
281.4772297687491
 30
0.0
 11
-84.45914214304494
 21
281.4742857334344
 31
0.0
  0
LINE
  5
E6
  8
0
  6
CONTINUOUS
 62
     7
 10
-84.45914214304484
 20
281.4742857334349
 30
0.0
 11
-84.41788907170002
 21
281.4701653344561
 31
0.0
  0
LINE
  5
E7
  8
0
  6
CONTINUOUS
 62
     7
 10
-84.4178890717
 20
281.4701653344555
 30
0.0
 11
-84.3760361427983
 21
281.4647466370566
 31
0.0
  0
LINE
  5
E8
  8
0
  6
CONTINUOUS
 62
     7
 10
-84.3760361427982
 20
281.4647466370568
 30
0.0
 11
-84.33455957042939
 21
281.4581172124139
 31
0.0
  0
LINE
  5
E9
  8
0
  6
CONTINUOUS
 62
     7
 10
-84.33455957042935
 20
281.4581172124138
 30
0.0
 11
-84.2932349807873
 21
281.4502260013504
 31
0.0
  0
LINE
  5
EA
  8
0
  6
CONTINUOUS
 62
     7
 10
-84.29323498078756
 20
281.4502260013509
 30
0.0
 11
-84.25244481006662
 21
281.4411330093209
 31
0.0
  0
LINE
  5
EB
  8
0
  6
CONTINUOUS
 62
     7
 10
-84.25244481006655
 20
281.4411330093205
 30
0.0
 11
-84.21366612416169
 21
281.431235237628
 31
0.0
  0
LINE
  5
EC
  8
0
  6
CONTINUOUS
 62
     7
 10
-84.21366612416159
 20
281.431235237628
 30
0.0
 11
-84.1755213603254
 21
281.4202513005172
 31
0.0
  0
LINE
  5
ED
  8
0
  6
CONTINUOUS
 62
     7
 10
-84.17552136032546
 20
281.4202513005171
 30
0.0
 11
-84.13743136487346
 21
281.4079776502489
 31
0.0
  0
LINE
  5
EE
  8
0
  6
CONTINUOUS
 62
     7
 10
-84.1374313648734
 20
281.4079776502489
 30
0.0
 11
-84.10010012791238
 21
281.3946086893947
 31
0.0
  0
LINE
  5
EF
  8
0
  6
CONTINUOUS
 62
     7
 10
-84.10010012791258
 20
281.394608689395
 30
0.0
 11
-84.06362578396191
 21
281.3801814473983
 31
0.0
  0
LINE
  5
F0
  8
0
  6
CONTINUOUS
 62
     7
 10
-84.06362578396187
 20
281.3801814473984
 30
0.0
 11
-84.02810646754136
 21
281.3647329537031
 31
0.0
  0
LINE
  5
F1
  8
0
  6
CONTINUOUS
 62
     7
 10
-84.02810646754122
 20
281.364732953703
 30
0.0
 11
-83.99294082427875
 21
281.3479593726918
 31
0.0
  0
LINE
  5
F2
  8
0
  6
CONTINUOUS
 62
     7
 10
-83.99294082427888
 20
281.3479593726917
 30
0.0
 11
-83.95886220165089
 21
281.330172783049
 31
0.0
  0
LINE
  5
F3
  8
0
  6
CONTINUOUS
 62
     7
 10
-83.95886220165083
 20
281.3301727830489
 30
0.0
 11
-83.92706402174898
 21
281.3120765843253
 31
0.0
  0
LINE
  5
F4
  8
0
  6
CONTINUOUS
 62
     7
 10
-83.92706402174899
 20
281.3120765843253
 30
0.0
 11
-83.89639111471298
 21
281.2930984618038
 31
0.0
  0
LINE
  5
F5
  8
0
  6
CONTINUOUS
 62
     7
 10
-83.89639111471291
 20
281.2930984618038
 30
0.0
 11
-83.8666964679906
 21
281.2731297081667
 31
0.0
  0
LINE
  5
F6
  8
0
  6
CONTINUOUS
 62
     7
 10
-83.86669646799061
 20
281.2731297081669
 30
0.0
 11
-83.83824752096858
 21
281.2523345237908
 31
0.0
  0
LINE
  5
F7
  8
0
  6
CONTINUOUS
 62
     7
 10
-83.83824752096858
 20
281.2523345237907
 30
0.0
 11
-83.81051918153209
 21
281.2302705737012
 31
0.0
  0
LINE
  5
F8
  8
0
  6
CONTINUOUS
 62
     7
 10
-83.81051918153204
 20
281.2302705737011
 30
0.0
 11
-83.78419298596286
 21
281.2074217100478
 31
0.0
  0
LINE
  5
F9
  8
0
  6
CONTINUOUS
 62
     7
 10
-83.78419298596296
 20
281.2074217100475
 30
0.0
 11
-83.75914054581395
 21
281.1836526572045
 31
0.0
  0
LINE
  5
FA
  8
0
  6
CONTINUOUS
 62
     7
 10
-83.7591405458139
 20
281.1836526572042
 30
0.0
 11
-83.73560528999242
 21
281.1591729702281
 31
0.0
  0
LINE
  5
FB
  8
0
  6
CONTINUOUS
 62
     7
 10
-83.73560528999258
 20
281.1591729702285
 30
0.0
 11
-83.71436743146275
 21
281.134909992868
 31
0.0
  0
LINE
  5
FC
  8
0
  6
CONTINUOUS
 62
     7
 10
-83.71436743146265
 20
281.134909992868
 30
0.0
 11
-83.69461998801383
 21
281.1100684122239
 31
0.0
  0
LINE
  5
FD
  8
0
  6
CONTINUOUS
 62
     7
 10
-83.69461998801386
 20
281.1100684122238
 30
0.0
 11
-83.67627694027247
 21
281.0845123999279
 31
0.0
  0
LINE
  5
FE
  8
0
  6
CONTINUOUS
 62
     7
 10
-83.67627694027246
 20
281.0845123999281
 30
0.0
 11
-83.65951111356564
 21
281.0584573492121
 31
0.0
  0
LINE
  5
FF
  8
0
  6
CONTINUOUS
 62
     7
 10
-83.65951111356561
 20
281.0584573492121
 30
0.0
 11
-83.64404145989063
 21
281.0313670573817
 31
0.0
  0
LINE
  5
100
  8
0
  6
CONTINUOUS
 62
     7
 10
-83.64404145989057
 20
281.0313670573818
 30
0.0
 11
-83.63027665564877
 21
281.0038522290496
 31
0.0
  0
LINE
  5
101
  8
0
  6
CONTINUOUS
 62
     7
 10
-83.63027665564881
 20
281.0038522290492
 30
0.0
 11
-83.61816117772527
 21
280.9757561271822
 31
0.0
  0
LINE
  5
102
  8
0
  6
CONTINUOUS
 62
     7
 10
-83.61816117772524
 20
280.975756127182
 30
0.0
 11
-83.60782321121111
 21
280.9473315856618
 31
0.0
  0
LINE
  5
103
  8
0
  6
CONTINUOUS
 62
     7
 10
-83.60782321121118
 20
280.9473315856623
 30
0.0
 11
-83.600404984459
 21
280.9227885044712
 31
0.0
  0
LINE
  5
104
  8
0
  6
CONTINUOUS
 62
     7
 10
-83.60040498445898
 20
280.9227885044709
 30
0.0
 11
-83.59430996156415
 21
280.8980679995844
 31
0.0
  0
LINE
  5
105
  8
0
  6
CONTINUOUS
 62
     7
 10
-83.59430996156414
 20
280.8980679995843
 30
0.0
 11
-83.58955043938563
 21
280.8732200192805
 31
0.0
  0
LINE
  5
106
  8
0
  6
CONTINUOUS
 62
     7
 10
-83.58955043938565
 20
280.8732200192807
 30
0.0
 11
-83.58609935209364
 21
280.8479597474562
 31
0.0
  0
LINE
  5
107
  8
0
  6
CONTINUOUS
 62
     7
 10
-83.5860993520936
 20
280.8479597474562
 30
0.0
 11
-83.5840255531521
 21
280.8226207304109
 31
0.0
  0
LINE
  5
108
  8
0
  6
CONTINUOUS
 62
     7
 10
-83.58402555315214
 20
280.8226207304112
 30
0.0
 11
-83.58333333333331
 21
280.7972554378234
 31
0.0
  0
LINE
  5
109
  8
0
  6
CONTINUOUS
 62
   253
 10
-69.08333333333339
 20
320.7843933117483
 30
0.0
 11
-69.08453787712818
 21
320.8461523128943
 31
0.0
  0
LINE
  5
10A
  8
0
  6
CONTINUOUS
 62
   253
 10
-69.0845378771281
 20
320.8461523128943
 30
0.0
 11
-69.0881486066611
 21
320.9077625311975
 31
0.0
  0
LINE
  5
10B
  8
0
  6
CONTINUOUS
 62
   253
 10
-69.08814860666112
 20
320.9077625311974
 30
0.0
 11
-69.09415682336848
 21
320.9690755422449
 31
0.0
  0
LINE
  5
10C
  8
0
  6
CONTINUOUS
 62
   253
 10
-69.0941568233684
 20
320.9690755422452
 30
0.0
 11
-69.1025480529299
 21
321.0299436376234
 31
0.0
  0
LINE
  5
10D
  8
0
  6
CONTINUOUS
 62
   253
 10
-69.10254805292992
 20
321.0299436376238
 30
0.0
 11
-69.1133020801387
 21
321.0902201807589
 31
0.0
  0
LINE
  5
10E
  8
0
  6
CONTINUOUS
 62
   253
 10
-69.11330208013877
 20
321.0902201807588
 30
0.0
 11
-69.12639299760107
 21
321.1497599601796
 31
0.0
  0
LINE
  5
10F
  8
0
  6
CONTINUOUS
 62
   253
 10
-69.12639299760103
 20
321.1497599601794
 30
0.0
 11
-69.14178926815025
 21
321.2084195393417
 31
0.0
  0
LINE
  5
110
  8
0
  6
CONTINUOUS
 62
   253
 10
-69.14178926815018
 20
321.2084195393419
 30
0.0
 11
-69.15945380082182
 21
321.2660576021813
 31
0.0
  0
LINE
  5
111
  8
0
  6
CONTINUOUS
 62
   253
 10
-69.159453800822
 20
321.2660576021813
 30
0.0
 11
-69.1793440402098
 21
321.3225352935567
 31
0.0
  0
LINE
  5
112
  8
0
  6
CONTINUOUS
 62
   253
 10
-69.17934404020976
 20
321.3225352935565
 30
0.0
 11
-69.20141206898495
 21
321.3777165537618
 31
0.0
  0
LINE
  5
113
  8
0
  6
CONTINUOUS
 62
   253
 10
-69.2014120689849
 20
321.3777165537621
 30
0.0
 11
-69.22560472333292
 21
321.4314684463085
 31
0.0
  0
LINE
  5
114
  8
0
  6
CONTINUOUS
 62
   253
 10
-69.22560472333295
 20
321.4314684463084
 30
0.0
 11
-69.25186372103059
 21
321.4836614781784
 31
0.0
  0
LINE
  5
115
  8
0
  6
CONTINUOUS
 62
   253
 10
-69.25186372103053
 20
321.4836614781782
 30
0.0
 11
-69.28012580185255
 21
321.5341699117866
 31
0.0
  0
LINE
  5
116
  8
0
  6
CONTINUOUS
 62
   253
 10
-69.2801258018526
 20
321.5341699117866
 30
0.0
 11
-69.31032287997063
 21
321.5828720678929
 31
0.0
  0
LINE
  5
117
  8
0
  6
CONTINUOUS
 62
   253
 10
-69.31032287997063
 20
321.5828720678928
 30
0.0
 11
-69.34238220797826
 21
321.6296506187372
 31
0.0
  0
LINE
  5
118
  8
0
  6
CONTINUOUS
 62
   253
 10
-69.34238220797828
 20
321.6296506187373
 30
0.0
 11
-69.37622655214678
 21
321.6743928706933
 31
0.0
  0
LINE
  5
119
  8
0
  6
CONTINUOUS
 62
   253
 10
-69.37622655214682
 20
321.6743928706936
 30
0.0
 11
-69.41177437848627
 21
321.7169910357572
 31
0.0
  0
LINE
  5
11A
  8
0
  6
CONTINUOUS
 62
   253
 10
-69.41177437848623
 20
321.7169910357569
 30
0.0
 11
-69.44894004916955
 21
321.7573424912176
 31
0.0
  0
LINE
  5
11B
  8
0
  6
CONTINUOUS
 62
   253
 10
-69.44894004916947
 20
321.7573424912175
 30
0.0
 11
-69.48763402884067
 21
321.7953500268846
 31
0.0
  0
LINE
  5
11C
  8
0
  6
CONTINUOUS
 62
   253
 10
-69.48763402884073
 20
321.7953500268846
 30
0.0
 11
-69.52776310031354
 21
321.8309220792754
 31
0.0
  0
LINE
  5
11D
  8
0
  6
CONTINUOUS
 62
   253
 10
-69.5277631003136
 20
321.8309220792754
 30
0.0
 11
-69.56923058914012
 21
321.8639729522005
 31
0.0
  0
LINE
  5
11E
  8
0
  6
CONTINUOUS
 62
   253
 10
-69.5692305891401
 20
321.8639729522006
 30
0.0
 11
-69.61193659650726
 21
321.8944230232114
 31
0.0
  0
LINE
  5
11F
  8
0
  6
CONTINUOUS
 62
   253
 10
-69.61193659650733
 20
321.8944230232115
 30
0.0
 11
-69.65577823990303
 21
321.9221989354205
 31
0.0
  0
LINE
  5
120
  8
0
  6
CONTINUOUS
 62
   253
 10
-69.65577823990299
 20
321.9221989354209
 30
0.0
 11
-69.70064990096809
 21
321.9472337742225
 31
0.0
  0
LINE
  5
121
  8
0
  6
CONTINUOUS
 62
   253
 10
-69.70064990096813
 20
321.947233774222
 30
0.0
 11
-69.74644347994118
 21
321.9694672284967
 31
0.0
  0
LINE
  5
122
  8
0
  6
CONTINUOUS
 62
   253
 10
-69.74644347994108
 20
321.969467228497
 30
0.0
 11
-69.79304865607872
 21
321.9888457359059
 31
0.0
  0
LINE
  5
123
  8
0
  6
CONTINUOUS
 62
   253
 10
-69.79304865607871
 20
321.9888457359054
 30
0.0
 11
-69.8403531534299
 21
322.0053226119272
 31
0.0
  0
LINE
  5
124
  8
0
  6
CONTINUOUS
 62
   253
 10
-69.84035315342985
 20
322.0053226119277
 30
0.0
 11
-69.888243011317
 21
322.0188581623243
 31
0.0
  0
LINE
  5
125
  8
0
  6
CONTINUOUS
 62
   253
 10
-69.88824301131713
 20
322.0188581623242
 30
0.0
 11
-69.93660285887793
 21
322.0294197787696
 31
0.0
  0
LINE
  5
126
  8
0
  6
CONTINUOUS
 62
   253
 10
-69.93660285887782
 20
322.0294197787696
 30
0.0
 11
-69.98531619300364
 21
322.0369820174045
 31
0.0
  0
LINE
  5
127
  8
0
  6
CONTINUOUS
 62
   253
 10
-69.98531619300385
 20
322.0369820174041
 30
0.0
 11
-70.03426565900587
 21
322.041526660133
 31
0.0
  0
LINE
  5
128
  8
0
  6
CONTINUOUS
 62
   253
 10
-70.03426565900573
 20
322.0415266601328
 30
0.0
 11
-70.08333333333323
 21
322.0430427585139
 31
0.0
  0
LINE
  5
129
  8
0
  6
CONTINUOUS
 62
     7
 10
-216.501225460197
 20
498.1691287740109
 30
0.0
 11
-216.3592766797302
 21
498.3613302745991
 31
0.0
  0
LINE
  5
12A
  8
0
  6
CONTINUOUS
 62
     7
 10
-216.3592766797301
 20
498.3613302745988
 30
0.0
 11
-216.2008977413254
 21
498.5187577403341
 31
0.0
  0
LINE
  5
12B
  8
0
  6
CONTINUOUS
 62
     7
 10
-216.2008977413254
 20
498.5187577403343
 30
0.0
 11
-216.0295170707063
 21
498.6380033420036
 31
0.0
  0
LINE
  5
12C
  8
0
  6
CONTINUOUS
 62
     7
 10
-216.0295170707062
 20
498.6380033420037
 30
0.0
 11
-215.8488445418338
 21
498.7164857724439
 31
0.0
  0
LINE
  5
12D
  8
0
  6
CONTINUOUS
 62
     7
 10
-215.848844541834
 20
498.7164857724435
 30
0.0
 11
-215.6627911693403
 21
498.7525061240476
 31
0.0
  0
LINE
  5
12E
  8
0
  6
CONTINUOUS
 62
     7
 10
-215.6627911693403
 20
498.7525061240481
 30
0.0
 11
-215.6002720571783
 21
498.7549152116378
 31
0.0
  0
LINE
  5
12F
  8
0
  6
CONTINUOUS
 62
   253
 10
-70.08333333333327
 20
349.4406733202524
 30
0.0
 11
-70.03426565900577
 21
349.4421894186333
 31
0.0
  0
LINE
  5
130
  8
0
  6
CONTINUOUS
 62
   253
 10
-70.03426565900573
 20
349.4421894186335
 30
0.0
 11
-69.9853161930037
 21
349.4467340613625
 31
0.0
  0
LINE
  5
131
  8
0
  6
CONTINUOUS
 62
   253
 10
-69.98531619300385
 20
349.4467340613623
 30
0.0
 11
-69.93660285887802
 21
349.4542962999971
 31
0.0
  0
LINE
  5
132
  8
0
  6
CONTINUOUS
 62
   253
 10
-69.93660285887782
 20
349.4542962999971
 30
0.0
 11
-69.888243011317
 21
349.4648579164424
 31
0.0
  0
LINE
  5
133
  8
0
  6
CONTINUOUS
 62
   253
 10
-69.88824301131713
 20
349.4648579164426
 30
0.0
 11
-69.84035315342997
 21
349.4783934668394
 31
0.0
  0
LINE
  5
134
  8
0
  6
CONTINUOUS
 62
   253
 10
-69.84035315342985
 20
349.4783934668395
 30
0.0
 11
-69.79304865607865
 21
349.494870342861
 31
0.0
  0
LINE
  5
135
  8
0
  6
CONTINUOUS
 62
   253
 10
-69.79304865607871
 20
349.4948703428608
 30
0.0
 11
-69.74644347994106
 21
349.5142488502698
 31
0.0
  0
LINE
  5
136
  8
0
  6
CONTINUOUS
 62
   253
 10
-69.74644347994108
 20
349.5142488502698
 30
0.0
 11
-69.70064990096803
 21
349.5364823045445
 31
0.0
  0
LINE
  5
137
  8
0
  6
CONTINUOUS
 62
   253
 10
-69.70064990096813
 20
349.5364823045443
 30
0.0
 11
-69.65577823990303
 21
349.5615171433459
 31
0.0
  0
LINE
  5
138
  8
0
  6
CONTINUOUS
 62
   253
 10
-69.65577823990299
 20
349.561517143346
 30
0.0
 11
-69.61193659650729
 21
349.5892930555549
 31
0.0
  0
LINE
  5
139
  8
0
  6
CONTINUOUS
 62
   253
 10
-69.61193659650733
 20
349.5892930555553
 30
0.0
 11
-69.56923058914018
 21
349.6197431265663
 31
0.0
  0
LINE
  5
13A
  8
0
  6
CONTINUOUS
 62
   253
 10
-69.5692305891401
 20
349.6197431265662
 30
0.0
 11
-69.52776310031359
 21
349.6527939994912
 31
0.0
  0
LINE
  5
13B
  8
0
  6
CONTINUOUS
 62
   253
 10
-69.5277631003136
 20
349.6527939994909
 30
0.0
 11
-69.4876340288408
 21
349.6883660518817
 31
0.0
  0
LINE
  5
13C
  8
0
  6
CONTINUOUS
 62
   253
 10
-69.48763402884073
 20
349.6883660518822
 30
0.0
 11
-69.44894004916951
 21
349.7263735875491
 31
0.0
  0
LINE
  5
13D
  8
0
  6
CONTINUOUS
 62
   253
 10
-69.44894004916947
 20
349.7263735875489
 30
0.0
 11
-69.41177437848613
 21
349.7667250430096
 31
0.0
  0
LINE
  5
13E
  8
0
  6
CONTINUOUS
 62
   253
 10
-69.41177437848623
 20
349.7667250430094
 30
0.0
 11
-69.37622655214676
 21
349.8093232080732
 31
0.0
  0
LINE
  5
13F
  8
0
  6
CONTINUOUS
 62
   253
 10
-69.37622655214682
 20
349.8093232080737
 30
0.0
 11
-69.34238220797832
 21
349.8540654600297
 31
0.0
  0
LINE
  5
140
  8
0
  6
CONTINUOUS
 62
   253
 10
-69.34238220797828
 20
349.8540654600291
 30
0.0
 11
-69.31032287997064
 21
349.9008440108734
 31
0.0
  0
LINE
  5
141
  8
0
  6
CONTINUOUS
 62
   253
 10
-69.31032287997063
 20
349.9008440108739
 30
0.0
 11
-69.2801258018526
 21
349.9495461669803
 31
0.0
  0
LINE
  5
142
  8
0
  6
CONTINUOUS
 62
   253
 10
-69.2801258018526
 20
349.9495461669802
 30
0.0
 11
-69.25186372103059
 21
350.0000546005886
 31
0.0
  0
LINE
  5
143
  8
0
  6
CONTINUOUS
 62
   253
 10
-69.25186372103053
 20
350.0000546005886
 30
0.0
 11
-69.22560472333289
 21
350.0522476324585
 31
0.0
  0
LINE
  5
144
  8
0
  6
CONTINUOUS
 62
   253
 10
-69.22560472333295
 20
350.0522476324588
 30
0.0
 11
-69.20141206898492
 21
350.1059995250051
 31
0.0
  0
LINE
  5
145
  8
0
  6
CONTINUOUS
 62
   253
 10
-69.2014120689849
 20
350.1059995250051
 30
0.0
 11
-69.1793440402097
 21
350.1611807852104
 31
0.0
  0
LINE
  5
146
  8
0
  6
CONTINUOUS
 62
   253
 10
-69.17934404020976
 20
350.1611807852103
 30
0.0
 11
-69.15945380082196
 21
350.2176584765855
 31
0.0
  0
LINE
  5
147
  8
0
  6
CONTINUOUS
 62
   253
 10
-69.159453800822
 20
350.2176584765855
 30
0.0
 11
-69.14178926815036
 21
350.2752965394251
 31
0.0
  0
LINE
  5
148
  8
0
  6
CONTINUOUS
 62
   253
 10
-69.14178926815018
 20
350.2752965394254
 30
0.0
 11
-69.12639299760097
 21
350.3339561185876
 31
0.0
  0
LINE
  5
149
  8
0
  6
CONTINUOUS
 62
   253
 10
-69.12639299760103
 20
350.333956118587
 30
0.0
 11
-69.11330208013872
 21
350.3934958980076
 31
0.0
  0
LINE
  5
14A
  8
0
  6
CONTINUOUS
 62
   253
 10
-69.11330208013877
 20
350.3934958980079
 30
0.0
 11
-69.10254805292999
 21
350.4537724411433
 31
0.0
  0
LINE
  5
14B
  8
0
  6
CONTINUOUS
 62
   253
 10
-69.10254805292992
 20
350.4537724411434
 30
0.0
 11
-69.09415682336841
 21
350.5146405365214
 31
0.0
  0
LINE
  5
14C
  8
0
  6
CONTINUOUS
 62
   253
 10
-69.0941568233684
 20
350.5146405365211
 30
0.0
 11
-69.08814860666104
 21
350.5759535475688
 31
0.0
  0
LINE
  5
14D
  8
0
  6
CONTINUOUS
 62
   253
 10
-69.08814860666112
 20
350.575953547569
 30
0.0
 11
-69.08453787712811
 21
350.637563765872
 31
0.0
  0
LINE
  5
14E
  8
0
  6
CONTINUOUS
 62
   253
 10
-69.0845378771281
 20
350.6375637658716
 30
0.0
 11
-69.08333333333329
 21
350.699322767018
 31
0.0
  0
LINE
  5
14F
  8
0
  6
CONTINUOUS
 62
   253
 10
-103.5833333333334
 20
320.7843933117483
 30
0.0
 11
-103.5845378771282
 21
320.8461523128943
 31
0.0
  0
LINE
  5
150
  8
0
  6
CONTINUOUS
 62
   253
 10
-103.5845378771282
 20
320.8461523128943
 30
0.0
 11
-103.5881486066612
 21
320.9077625311975
 31
0.0
  0
LINE
  5
151
  8
0
  6
CONTINUOUS
 62
   253
 10
-103.5881486066612
 20
320.9077625311974
 30
0.0
 11
-103.5941568233685
 21
320.9690755422449
 31
0.0
  0
LINE
  5
152
  8
0
  6
CONTINUOUS
 62
   253
 10
-103.5941568233686
 20
320.9690755422452
 30
0.0
 11
-103.6025480529302
 21
321.0299436376234
 31
0.0
  0
LINE
  5
153
  8
0
  6
CONTINUOUS
 62
   253
 10
-103.6025480529301
 20
321.0299436376238
 30
0.0
 11
-103.6133020801388
 21
321.0902201807589
 31
0.0
  0
LINE
  5
154
  8
0
  6
CONTINUOUS
 62
   253
 10
-103.6133020801388
 20
321.0902201807588
 30
0.0
 11
-103.6263929976011
 21
321.1497599601796
 31
0.0
  0
LINE
  5
155
  8
0
  6
CONTINUOUS
 62
   253
 10
-103.6263929976011
 20
321.1497599601794
 30
0.0
 11
-103.6417892681503
 21
321.2084195393417
 31
0.0
  0
LINE
  5
156
  8
0
  6
CONTINUOUS
 62
   253
 10
-103.6417892681504
 20
321.2084195393419
 30
0.0
 11
-103.659453800822
 21
321.2660576021813
 31
0.0
  0
LINE
  5
157
  8
0
  6
CONTINUOUS
 62
   253
 10
-103.6594538008219
 20
321.2660576021813
 30
0.0
 11
-103.6793440402097
 21
321.3225352935567
 31
0.0
  0
LINE
  5
158
  8
0
  6
CONTINUOUS
 62
   253
 10
-103.6793440402098
 20
321.3225352935565
 30
0.0
 11
-103.701412068985
 21
321.3777165537618
 31
0.0
  0
LINE
  5
159
  8
0
  6
CONTINUOUS
 62
   253
 10
-103.7014120689849
 20
321.3777165537621
 30
0.0
 11
-103.7256047233329
 21
321.4314684463085
 31
0.0
  0
LINE
  5
15A
  8
0
  6
CONTINUOUS
 62
   253
 10
-103.725604723333
 20
321.4314684463084
 30
0.0
 11
-103.7518637210309
 21
321.4836614781784
 31
0.0
  0
LINE
  5
15B
  8
0
  6
CONTINUOUS
 62
   253
 10
-103.7518637210308
 20
321.4836614781782
 30
0.0
 11
-103.7801258018527
 21
321.5341699117866
 31
0.0
  0
LINE
  5
15C
  8
0
  6
CONTINUOUS
 62
   253
 10
-103.7801258018527
 20
321.5341699117866
 30
0.0
 11
-103.8103228799705
 21
321.5828720678929
 31
0.0
  0
LINE
  5
15D
  8
0
  6
CONTINUOUS
 62
   253
 10
-103.8103228799704
 20
321.5828720678928
 30
0.0
 11
-103.8423822079783
 21
321.6296506187372
 31
0.0
  0
LINE
  5
15E
  8
0
  6
CONTINUOUS
 62
   253
 10
-103.8423822079783
 20
321.6296506187373
 30
0.0
 11
-103.8762265521467
 21
321.6743928706933
 31
0.0
  0
LINE
  5
15F
  8
0
  6
CONTINUOUS
 62
   253
 10
-103.8762265521468
 20
321.6743928706936
 30
0.0
 11
-103.9117743784863
 21
321.7169910357572
 31
0.0
  0
LINE
  5
160
  8
0
  6
CONTINUOUS
 62
   253
 10
-103.9117743784864
 20
321.7169910357569
 30
0.0
 11
-103.9489400491697
 21
321.7573424912176
 31
0.0
  0
LINE
  5
161
  8
0
  6
CONTINUOUS
 62
   253
 10
-103.9489400491697
 20
321.7573424912175
 30
0.0
 11
-103.9876340288408
 21
321.7953500268846
 31
0.0
  0
LINE
  5
162
  8
0
  6
CONTINUOUS
 62
   253
 10
-103.9876340288408
 20
321.7953500268846
 30
0.0
 11
-104.0277631003136
 21
321.8309220792754
 31
0.0
  0
LINE
  5
163
  8
0
  6
CONTINUOUS
 62
   253
 10
-104.0277631003136
 20
321.8309220792754
 30
0.0
 11
-104.0692305891401
 21
321.8639729522005
 31
0.0
  0
LINE
  5
164
  8
0
  6
CONTINUOUS
 62
   253
 10
-104.0692305891401
 20
321.8639729522006
 30
0.0
 11
-104.1119365965073
 21
321.8944230232114
 31
0.0
  0
LINE
  5
165
  8
0
  6
CONTINUOUS
 62
   253
 10
-104.1119365965072
 20
321.8944230232115
 30
0.0
 11
-104.1557782399028
 21
321.9221989354205
 31
0.0
  0
LINE
  5
166
  8
0
  6
CONTINUOUS
 62
   253
 10
-104.1557782399028
 20
321.9221989354209
 30
0.0
 11
-104.200649900968
 21
321.9472337742225
 31
0.0
  0
LINE
  5
167
  8
0
  6
CONTINUOUS
 62
   253
 10
-104.2006499009681
 20
321.947233774222
 30
0.0
 11
-104.2464434799409
 21
321.9694672284967
 31
0.0
  0
LINE
  5
168
  8
0
  6
CONTINUOUS
 62
   253
 10
-104.2464434799409
 20
321.969467228497
 30
0.0
 11
-104.2930486560788
 21
321.9888457359059
 31
0.0
  0
LINE
  5
169
  8
0
  6
CONTINUOUS
 62
   253
 10
-104.2930486560788
 20
321.9888457359054
 30
0.0
 11
-104.34035315343
 21
322.0053226119272
 31
0.0
  0
LINE
  5
16A
  8
0
  6
CONTINUOUS
 62
   253
 10
-104.34035315343
 20
322.0053226119277
 30
0.0
 11
-104.3882430113172
 21
322.0188581623243
 31
0.0
  0
LINE
  5
16B
  8
0
  6
CONTINUOUS
 62
   253
 10
-104.3882430113171
 20
322.0188581623242
 30
0.0
 11
-104.4366028588778
 21
322.0294197787696
 31
0.0
  0
LINE
  5
16C
  8
0
  6
CONTINUOUS
 62
   253
 10
-104.4366028588778
 20
322.0294197787696
 30
0.0
 11
-104.4853161930038
 21
322.0369820174045
 31
0.0
  0
LINE
  5
16D
  8
0
  6
CONTINUOUS
 62
   253
 10
-104.4853161930037
 20
322.0369820174041
 30
0.0
 11
-104.5342656590057
 21
322.041526660133
 31
0.0
  0
LINE
  5
16E
  8
0
  6
CONTINUOUS
 62
   253
 10
-104.5342656590058
 20
322.0415266601328
 30
0.0
 11
-104.5833333333333
 21
322.0430427585139
 31
0.0
  0
LINE
  5
16F
  8
0
  6
CONTINUOUS
 62
     7
 10
-103.5833333333334
 20
280.7972554378231
 30
0.0
 11
-103.5824745487258
 21
280.8255204037845
 31
0.0
  0
LINE
  5
170
  8
0
  6
CONTINUOUS
 62
     7
 10
-103.5824745487257
 20
280.825520403785
 30
0.0
 11
-103.5799011371704
 21
280.8537369076064
 31
0.0
  0
LINE
  5
171
  8
0
  6
CONTINUOUS
 62
     7
 10
-103.5799011371705
 20
280.853736907606
 30
0.0
 11
-103.5755803006672
 21
280.8820513505001
 31
0.0
  0
LINE
  5
172
  8
0
  6
CONTINUOUS
 62
     7
 10
-103.575580300667
 20
280.8820513504999
 30
0.0
 11
-103.5695329142945
 21
280.9102183773887
 31
0.0
  0
LINE
  5
173
  8
0
  6
CONTINUOUS
 62
     7
 10
-103.5695329142946
 20
280.9102183773891
 30
0.0
 11
-103.5615800236723
 21
280.9387948520986
 31
0.0
  0
LINE
  5
174
  8
0
  6
CONTINUOUS
 62
     7
 10
-103.5615800236722
 20
280.9387948520983
 30
0.0
 11
-103.5518500374248
 21
280.9671144358511
 31
0.0
  0
LINE
  5
175
  8
0
  6
CONTINUOUS
 62
     7
 10
-103.5518500374248
 20
280.9671144358514
 30
0.0
 11
-103.5402679386366
 21
280.9953302926368
 31
0.0
  0
LINE
  5
176
  8
0
  6
CONTINUOUS
 62
     7
 10
-103.5402679386366
 20
280.9953302926363
 30
0.0
 11
-103.5269216763652
 21
281.023181316954
 31
0.0
  0
LINE
  5
177
  8
0
  6
CONTINUOUS
 62
     7
 10
-103.5269216763653
 20
281.0231813169542
 30
0.0
 11
-103.512393671663
 21
281.0496592682524
 31
0.0
  0
LINE
  5
178
  8
0
  6
CONTINUOUS
 62
     7
 10
-103.512393671663
 20
281.0496592682528
 30
0.0
 11
-103.4962709537865
 21
281.0757043663168
 31
0.0
  0
LINE
  5
179
  8
0
  6
CONTINUOUS
 62
     7
 10
-103.4962709537864
 20
281.0757043663168
 30
0.0
 11
-103.4784514220211
 21
281.1014473900031
 31
0.0
  0
LINE
  5
17A
  8
0
  6
CONTINUOUS
 62
     7
 10
-103.4784514220211
 20
281.1014473900029
 30
0.0
 11
-103.4590738543784
 21
281.1266614211639
 31
0.0
  0
LINE
  5
17B
  8
0
  6
CONTINUOUS
 62
     7
 10
-103.4590738543785
 20
281.126661421164
 30
0.0
 11
-103.4376988181681
 21
281.1518317572627
 31
0.0
  0
LINE
  5
17C
  8
0
  6
CONTINUOUS
 62
     7
 10
-103.4376988181681
 20
281.1518317572625
 30
0.0
 11
-103.4147710730306
 21
281.1763582807724
 31
0.0
  0
LINE
  5
17D
  8
0
  6
CONTINUOUS
 62
     7
 10
-103.4147710730305
 20
281.1763582807725
 30
0.0
 11
-103.3901453356559
 21
281.2003686490177
 31
0.0
  0
LINE
  5
17E
  8
0
  6
CONTINUOUS
 62
     7
 10
-103.390145335656
 20
281.2003686490172
 30
0.0
 11
-103.3640314378703
 21
281.2236361580582
 31
0.0
  0
LINE
  5
17F
  8
0
  6
CONTINUOUS
 62
     7
 10
-103.3640314378702
 20
281.2236361580585
 30
0.0
 11
-103.3374743384361
 21
281.2453362492869
 31
0.0
  0
LINE
  5
180
  8
0
  6
CONTINUOUS
 62
     7
 10
-103.3374743384362
 20
281.2453362492868
 30
0.0
 11
-103.3096225950393
 21
281.266267820972
 31
0.0
  0
LINE
  5
181
  8
0
  6
CONTINUOUS
 62
     7
 10
-103.3096225950393
 20
281.2662678209721
 30
0.0
 11
-103.2803163122436
 21
281.2865312286408
 31
0.0
  0
LINE
  5
182
  8
0
  6
CONTINUOUS
 62
     7
 10
-103.2803163122435
 20
281.2865312286408
 30
0.0
 11
-103.2497966383946
 21
281.3059436315286
 31
0.0
  0
LINE
  5
183
  8
0
  6
CONTINUOUS
 62
     7
 10
-103.2497966383946
 20
281.3059436315286
 30
0.0
 11
-103.2174131014141
 21
281.3248638137009
 31
0.0
  0
LINE
  5
184
  8
0
  6
CONTINUOUS
 62
     7
 10
-103.2174131014141
 20
281.3248638137011
 30
0.0
 11
-103.1838769241899
 21
281.3428257869588
 31
0.0
  0
LINE
  5
185
  8
0
  6
CONTINUOUS
 62
     7
 10
-103.1838769241899
 20
281.3428257869592
 30
0.0
 11
-103.1489889538554
 21
281.3599172210279
 31
0.0
  0
LINE
  5
186
  8
0
  6
CONTINUOUS
 62
     7
 10
-103.1489889538555
 20
281.3599172210277
 30
0.0
 11
-103.1130573650236
 21
281.37597152135
 31
0.0
  0
LINE
  5
187
  8
0
  6
CONTINUOUS
 62
     7
 10
-103.1130573650234
 20
281.3759715213502
 30
0.0
 11
-103.0774775036492
 21
281.3904431806313
 31
0.0
  0
LINE
  5
188
  8
0
  6
CONTINUOUS
 62
     7
 10
-103.0774775036493
 20
281.3904431806309
 30
0.0
 11
-103.0410495567243
 21
281.4038977135507
 31
0.0
  0
LINE
  5
189
  8
0
  6
CONTINUOUS
 62
     7
 10
-103.0410495567243
 20
281.4038977135511
 30
0.0
 11
-103.0031775417503
 21
281.4165165060823
 31
0.0
  0
LINE
  5
18A
  8
0
  6
CONTINUOUS
 62
     7
 10
-103.0031775417504
 20
281.416516506082
 30
0.0
 11
-102.9645248943875
 21
281.4280456622333
 31
0.0
  0
LINE
  5
18B
  8
0
  6
CONTINUOUS
 62
     7
 10
-102.9645248943875
 20
281.4280456622331
 30
0.0
 11
-102.9251954576756
 21
281.4384559106356
 31
0.0
  0
LINE
  5
18C
  8
0
  6
CONTINUOUS
 62
     7
 10
-102.9251954576756
 20
281.4384559106355
 30
0.0
 11
-102.885293074654
 21
281.4477179799209
 31
0.0
  0
LINE
  5
18D
  8
0
  6
CONTINUOUS
 62
     7
 10
-102.8852930746539
 20
281.4477179799209
 30
0.0
 11
-102.8440926556083
 21
281.4559622877165
 31
0.0
  0
LINE
  5
18E
  8
0
  6
CONTINUOUS
 62
     7
 10
-102.8440926556083
 20
281.4559622877168
 30
0.0
 11
-102.8024113288756
 21
281.4629929019457
 31
0.0
  0
LINE
  5
18F
  8
0
  6
CONTINUOUS
 62
     7
 10
-102.8024113288756
 20
281.4629929019454
 30
0.0
 11
-102.766579530273
 21
281.4680139705864
 31
0.0
  0
LINE
  5
190
  8
0
  6
CONTINUOUS
 62
     7
 10
-102.7665795302731
 20
281.4680139705868
 30
0.0
 11
-102.730490358116
 21
281.4721393581386
 31
0.0
  0
LINE
  5
191
  8
0
  6
CONTINUOUS
 62
     7
 10
-102.730490358116
 20
281.4721393581383
 30
0.0
 11
-102.6942162666335
 21
281.4753607661198
 31
0.0
  0
LINE
  5
192
  8
0
  6
CONTINUOUS
 62
     7
 10
-102.6942162666334
 20
281.47536076612
 30
0.0
 11
-102.6573441356325
 21
281.4776963710443
 31
0.0
  0
LINE
  5
193
  8
0
  6
CONTINUOUS
 62
     7
 10
-102.6573441356325
 20
281.4776963710441
 30
0.0
 11
-102.6203577900225
 21
281.47909985588
 31
0.0
  0
LINE
  5
194
  8
0
  6
CONTINUOUS
 62
     7
 10
-102.6203577900224
 20
281.4790998558801
 30
0.0
 11
-102.5833333333333
 21
281.4795683271531
 31
0.0
  0
LINE
  5
195
  8
0
  6
CONTINUOUS
 62
     7
 10
-215.6002720571782
 20
449.7549152116376
 30
0.0
 11
-215.7872273004378
 21
449.7765621917079
 31
0.0
  0
LINE
  5
196
  8
0
  6
CONTINUOUS
 62
     7
 10
-215.7872273004378
 20
449.7765621917078
 30
0.0
 11
-215.9701355272722
 21
449.8410345401729
 31
0.0
  0
LINE
  5
197
  8
0
  6
CONTINUOUS
 62
     7
 10
-215.9701355272722
 20
449.8410345401736
 30
0.0
 11
-216.1450373269408
 21
449.9469366253911
 31
0.0
  0
LINE
  5
198
  8
0
  6
CONTINUOUS
 62
     7
 10
-216.1450373269408
 20
449.9469366253908
 30
0.0
 11
-216.3081466036718
 21
450.0919759870325
 31
0.0
  0
LINE
  5
199
  8
0
  6
CONTINUOUS
 62
     7
 10
-216.3081466036718
 20
450.091975987033
 30
0.0
 11
-216.4559325342023
 21
450.2730129609282
 31
0.0
  0
LINE
  5
19A
  8
0
  6
CONTINUOUS
 62
   253
 10
-83.58333333333334
 20
350.6993227670181
 30
0.0
 11
-83.58212878953849
 21
350.6375637658717
 31
0.0
  0
LINE
  5
19B
  8
0
  6
CONTINUOUS
 62
   253
 10
-83.58212878953852
 20
350.6375637658716
 30
0.0
 11
-83.57851806000552
 21
350.5759535475686
 31
0.0
  0
LINE
  5
19C
  8
0
  6
CONTINUOUS
 62
   253
 10
-83.57851806000549
 20
350.575953547569
 30
0.0
 11
-83.57250984329818
 21
350.5146405365213
 31
0.0
  0
LINE
  5
19D
  8
0
  6
CONTINUOUS
 62
   253
 10
-83.5725098432981
 20
350.5146405365211
 30
0.0
 11
-83.5641186137364
 21
350.4537724411431
 31
0.0
  0
LINE
  5
19E
  8
0
  6
CONTINUOUS
 62
   253
 10
-83.56411861373635
 20
350.4537724411434
 30
0.0
 11
-83.55336458652776
 21
350.393495898008
 31
0.0
  0
LINE
  5
19F
  8
0
  6
CONTINUOUS
 62
   253
 10
-83.55336458652795
 20
350.3934958980079
 30
0.0
 11
-83.54027366906556
 21
350.3339561185873
 31
0.0
  0
LINE
  5
1A0
  8
0
  6
CONTINUOUS
 62
   253
 10
-83.54027366906536
 20
350.333956118587
 30
0.0
 11
-83.52487739851622
 21
350.2752965394247
 31
0.0
  0
LINE
  5
1A1
  8
0
  6
CONTINUOUS
 62
   253
 10
-83.52487739851632
 20
350.2752965394254
 30
0.0
 11
-83.50721286584468
 21
350.2176584765857
 31
0.0
  0
LINE
  5
1A2
  8
0
  6
CONTINUOUS
 62
   253
 10
-83.50721286584472
 20
350.2176584765855
 30
0.0
 11
-83.48732262645683
 21
350.1611807852103
 31
0.0
  0
LINE
  5
1A3
  8
0
  6
CONTINUOUS
 62
   253
 10
-83.48732262645663
 20
350.1611807852103
 30
0.0
 11
-83.4652545976815
 21
350.105999525005
 31
0.0
  0
LINE
  5
1A4
  8
0
  6
CONTINUOUS
 62
   253
 10
-83.46525459768161
 20
350.1059995250051
 30
0.0
 11
-83.44106194333345
 21
350.0522476324588
 31
0.0
  0
LINE
  5
1A5
  8
0
  6
CONTINUOUS
 62
   253
 10
-83.44106194333345
 20
350.0522476324588
 30
0.0
 11
-83.4148029456358
 21
350.0000546005888
 31
0.0
  0
LINE
  5
1A6
  8
0
  6
CONTINUOUS
 62
   253
 10
-83.41480294563586
 20
350.0000546005886
 30
0.0
 11
-83.38654086481402
 21
349.9495461669801
 31
0.0
  0
LINE
  5
1A7
  8
0
  6
CONTINUOUS
 62
   253
 10
-83.3865408648139
 20
349.9495461669802
 30
0.0
 11
-83.35634378669587
 21
349.9008440108738
 31
0.0
  0
LINE
  5
1A8
  8
0
  6
CONTINUOUS
 62
   253
 10
-83.35634378669587
 20
349.9008440108739
 30
0.0
 11
-83.32428445868818
 21
349.8540654600296
 31
0.0
  0
LINE
  5
1A9
  8
0
  6
CONTINUOUS
 62
   253
 10
-83.32428445868834
 20
349.8540654600291
 30
0.0
 11
-83.29044011451984
 21
349.809323208073
 31
0.0
  0
LINE
  5
1AA
  8
0
  6
CONTINUOUS
 62
   253
 10
-83.2904401145197
 20
349.8093232080737
 30
0.0
 11
-83.25489228818019
 21
349.7667250430098
 31
0.0
  0
LINE
  5
1AB
  8
0
  6
CONTINUOUS
 62
   253
 10
-83.25489228818029
 20
349.7667250430094
 30
0.0
 11
-83.21772661749695
 21
349.7263735875487
 31
0.0
  0
LINE
  5
1AC
  8
0
  6
CONTINUOUS
 62
   253
 10
-83.21772661749694
 20
349.7263735875489
 30
0.0
 11
-83.17903263782576
 21
349.6883660518819
 31
0.0
  0
LINE
  5
1AD
  8
0
  6
CONTINUOUS
 62
   253
 10
-83.17903263782577
 20
349.6883660518822
 30
0.0
 11
-83.13890356635297
 21
349.6527939994913
 31
0.0
  0
LINE
  5
1AE
  8
0
  6
CONTINUOUS
 62
   253
 10
-83.13890356635301
 20
349.6527939994909
 30
0.0
 11
-83.0974360775265
 21
349.6197431265658
 31
0.0
  0
LINE
  5
1AF
  8
0
  6
CONTINUOUS
 62
   253
 10
-83.09743607752651
 20
349.6197431265662
 30
0.0
 11
-83.05473007015935
 21
349.5892930555552
 31
0.0
  0
LINE
  5
1B0
  8
0
  6
CONTINUOUS
 62
   253
 10
-83.05473007015928
 20
349.5892930555553
 30
0.0
 11
-83.01088842676363
 21
349.5615171433462
 31
0.0
  0
LINE
  5
1B1
  8
0
  6
CONTINUOUS
 62
   253
 10
-83.01088842676363
 20
349.561517143346
 30
0.0
 11
-82.9660167656983
 21
349.5364823045444
 31
0.0
  0
LINE
  5
1B2
  8
0
  6
CONTINUOUS
 62
   253
 10
-82.96601676569837
 20
349.5364823045443
 30
0.0
 11
-82.92022318672551
 21
349.5142488502697
 31
0.0
  0
LINE
  5
1B3
  8
0
  6
CONTINUOUS
 62
   253
 10
-82.92022318672542
 20
349.5142488502698
 30
0.0
 11
-82.87361801058778
 21
349.4948703428608
 31
0.0
  0
LINE
  5
1B4
  8
0
  6
CONTINUOUS
 62
   253
 10
-82.8736180105879
 20
349.4948703428608
 30
0.0
 11
-82.82631351323657
 21
349.4783934668392
 31
0.0
  0
LINE
  5
1B5
  8
0
  6
CONTINUOUS
 62
   253
 10
-82.82631351323644
 20
349.4783934668391
 30
0.0
 11
-82.77842365534923
 21
349.4648579164424
 31
0.0
  0
LINE
  5
1B6
  8
0
  6
CONTINUOUS
 62
   253
 10
-82.77842365534937
 20
349.4648579164426
 30
0.0
 11
-82.73006380778874
 21
349.4542962999972
 31
0.0
  0
LINE
  5
1B7
  8
0
  6
CONTINUOUS
 62
   253
 10
-82.73006380778868
 20
349.4542962999971
 30
0.0
 11
-82.68135047366286
 21
349.4467340613623
 31
0.0
  0
LINE
  5
1B8
  8
0
  6
CONTINUOUS
 62
   253
 10
-82.68135047366276
 20
349.4467340613623
 30
0.0
 11
-82.6324010076606
 21
349.4421894186331
 31
0.0
  0
LINE
  5
1B9
  8
0
  6
CONTINUOUS
 62
   253
 10
-82.63240100766056
 20
349.442189418633
 30
0.0
 11
-82.58333333333324
 21
349.4406733202522
 31
0.0
  0
LINE
  5
1BA
  8
0
  6
CONTINUOUS
 62
   253
 10
-82.58333333333334
 20
322.0430427585143
 30
0.0
 11
-82.63240100766066
 21
322.0415266601333
 31
0.0
  0
LINE
  5
1BB
  8
0
  6
CONTINUOUS
 62
   253
 10
-82.63240100766056
 20
322.0415266601328
 30
0.0
 11
-82.68135047366272
 21
322.0369820174039
 31
0.0
  0
LINE
  5
1BC
  8
0
  6
CONTINUOUS
 62
   253
 10
-82.68135047366276
 20
322.0369820174041
 30
0.0
 11
-82.7300638077886
 21
322.0294197787692
 31
0.0
  0
LINE
  5
1BD
  8
0
  6
CONTINUOUS
 62
   253
 10
-82.73006380778868
 20
322.0294197787696
 30
0.0
 11
-82.77842365534931
 21
322.0188581623242
 31
0.0
  0
LINE
  5
1BE
  8
0
  6
CONTINUOUS
 62
   253
 10
-82.77842365534937
 20
322.0188581623242
 30
0.0
 11
-82.82631351323657
 21
322.0053226119276
 31
0.0
  0
LINE
  5
1BF
  8
0
  6
CONTINUOUS
 62
   253
 10
-82.82631351323644
 20
322.0053226119277
 30
0.0
 11
-82.87361801058776
 21
321.988845735906
 31
0.0
  0
LINE
  5
1C0
  8
0
  6
CONTINUOUS
 62
   253
 10
-82.8736180105879
 20
321.9888457359054
 30
0.0
 11
-82.92022318672555
 21
321.9694672284965
 31
0.0
  0
LINE
  5
1C1
  8
0
  6
CONTINUOUS
 62
   253
 10
-82.92022318672542
 20
321.969467228497
 30
0.0
 11
-82.96601676569828
 21
321.9472337742222
 31
0.0
  0
LINE
  5
1C2
  8
0
  6
CONTINUOUS
 62
   253
 10
-82.96601676569837
 20
321.947233774222
 30
0.0
 11
-83.0108884267637
 21
321.9221989354203
 31
0.0
  0
LINE
  5
1C3
  8
0
  6
CONTINUOUS
 62
   253
 10
-83.01088842676363
 20
321.9221989354209
 30
0.0
 11
-83.05473007015928
 21
321.8944230232119
 31
0.0
  0
LINE
  5
1C4
  8
0
  6
CONTINUOUS
 62
   253
 10
-83.05473007015928
 20
321.8944230232115
 30
0.0
 11
-83.09743607752644
 21
321.8639729522006
 31
0.0
  0
LINE
  5
1C5
  8
0
  6
CONTINUOUS
 62
   253
 10
-83.09743607752651
 20
321.8639729522006
 30
0.0
 11
-83.13890356635302
 21
321.8309220792755
 31
0.0
  0
LINE
  5
1C6
  8
0
  6
CONTINUOUS
 62
   253
 10
-83.13890356635301
 20
321.8309220792754
 30
0.0
 11
-83.17903263782581
 21
321.7953500268846
 31
0.0
  0
LINE
  5
1C7
  8
0
  6
CONTINUOUS
 62
   253
 10
-83.17903263782577
 20
321.7953500268846
 30
0.0
 11
-83.21772661749695
 21
321.7573424912175
 31
0.0
  0
LINE
  5
1C8
  8
0
  6
CONTINUOUS
 62
   253
 10
-83.21772661749694
 20
321.7573424912175
 30
0.0
 11
-83.25489228818027
 21
321.7169910357567
 31
0.0
  0
LINE
  5
1C9
  8
0
  6
CONTINUOUS
 62
   253
 10
-83.25489228818029
 20
321.7169910357569
 30
0.0
 11
-83.29044011451978
 21
321.6743928706932
 31
0.0
  0
LINE
  5
1CA
  8
0
  6
CONTINUOUS
 62
   253
 10
-83.2904401145197
 20
321.6743928706936
 30
0.0
 11
-83.32428445868818
 21
321.6296506187376
 31
0.0
  0
LINE
  5
1CB
  8
0
  6
CONTINUOUS
 62
   253
 10
-83.32428445868834
 20
321.6296506187373
 30
0.0
 11
-83.35634378669603
 21
321.5828720678929
 31
0.0
  0
LINE
  5
1CC
  8
0
  6
CONTINUOUS
 62
   253
 10
-83.35634378669587
 20
321.5828720678928
 30
0.0
 11
-83.3865408648139
 21
321.5341699117865
 31
0.0
  0
LINE
  5
1CD
  8
0
  6
CONTINUOUS
 62
   253
 10
-83.3865408648139
 20
321.5341699117866
 30
0.0
 11
-83.41480294563573
 21
321.4836614781781
 31
0.0
  0
LINE
  5
1CE
  8
0
  6
CONTINUOUS
 62
   253
 10
-83.41480294563586
 20
321.4836614781782
 30
0.0
 11
-83.44106194333351
 21
321.4314684463082
 31
0.0
  0
LINE
  5
1CF
  8
0
  6
CONTINUOUS
 62
   253
 10
-83.44106194333345
 20
321.4314684463084
 30
0.0
 11
-83.46525459768161
 21
321.3777165537621
 31
0.0
  0
LINE
  5
1D0
  8
0
  6
CONTINUOUS
 62
   253
 10
-83.46525459768161
 20
321.3777165537621
 30
0.0
 11
-83.48732262645676
 21
321.3225352935568
 31
0.0
  0
LINE
  5
1D1
  8
0
  6
CONTINUOUS
 62
   253
 10
-83.48732262645663
 20
321.3225352935565
 30
0.0
 11
-83.50721286584454
 21
321.2660576021811
 31
0.0
  0
LINE
  5
1D2
  8
0
  6
CONTINUOUS
 62
   253
 10
-83.50721286584472
 20
321.2660576021813
 30
0.0
 11
-83.52487739851637
 21
321.2084195393418
 31
0.0
  0
LINE
  5
1D3
  8
0
  6
CONTINUOUS
 62
   253
 10
-83.52487739851632
 20
321.2084195393419
 30
0.0
 11
-83.54027366906546
 21
321.1497599601796
 31
0.0
  0
LINE
  5
1D4
  8
0
  6
CONTINUOUS
 62
   253
 10
-83.54027366906536
 20
321.1497599601794
 30
0.0
 11
-83.55336458652776
 21
321.0902201807586
 31
0.0
  0
LINE
  5
1D5
  8
0
  6
CONTINUOUS
 62
   253
 10
-83.55336458652795
 20
321.0902201807588
 30
0.0
 11
-83.56411861373655
 21
321.0299436376237
 31
0.0
  0
LINE
  5
1D6
  8
0
  6
CONTINUOUS
 62
   253
 10
-83.56411861373635
 20
321.0299436376238
 30
0.0
 11
-83.57250984329808
 21
320.9690755422456
 31
0.0
  0
LINE
  5
1D7
  8
0
  6
CONTINUOUS
 62
   253
 10
-83.5725098432981
 20
320.9690755422452
 30
0.0
 11
-83.57851806000542
 21
320.9077625311976
 31
0.0
  0
LINE
  5
1D8
  8
0
  6
CONTINUOUS
 62
   253
 10
-83.57851806000549
 20
320.9077625311974
 30
0.0
 11
-83.58212878953849
 21
320.8461523128943
 31
0.0
  0
LINE
  5
1D9
  8
0
  6
CONTINUOUS
 62
   253
 10
-83.58212878953852
 20
320.8461523128951
 30
0.0
 11
-83.58333333333337
 21
320.7843933117488
 31
0.0
  0
LINE
  5
1DA
  8
0
  6
CONTINUOUS
 62
     7
 10
-162.2167981510015
 20
320.4018743987
 30
0.0
 11
-162.2287572963068
 21
320.4220817509373
 31
0.0
  0
LINE
  5
1DB
  8
0
  6
CONTINUOUS
 62
     7
 10
-162.228757296307
 20
320.4220817509369
 30
0.0
 11
-162.248699750804
 21
320.4535418649912
 31
0.0
  0
LINE
  5
1DC
  8
0
  6
CONTINUOUS
 62
     7
 10
-162.248699750804
 20
320.4535418649916
 30
0.0
 11
-162.2700310062527
 21
320.4845379609439
 31
0.0
  0
LINE
  5
1DD
  8
0
  6
CONTINUOUS
 62
     7
 10
-162.2700310062527
 20
320.4845379609438
 30
0.0
 11
-162.297389360849
 21
320.5209165572841
 31
0.0
  0
LINE
  5
1DE
  8
0
  6
CONTINUOUS
 62
     7
 10
-162.2973893608489
 20
320.5209165572844
 30
0.0
 11
-162.3265592483107
 21
320.5561825511007
 31
0.0
  0
LINE
  5
1DF
  8
0
  6
CONTINUOUS
 62
     7
 10
-162.3265592483107
 20
320.5561825511007
 30
0.0
 11
-162.3573979549514
 21
320.5901209948129
 31
0.0
  0
LINE
  5
1E0
  8
0
  6
CONTINUOUS
 62
     7
 10
-162.3573979549514
 20
320.5901209948125
 30
0.0
 11
-162.3897366749104
 21
320.6225405238847
 31
0.0
  0
LINE
  5
1E1
  8
0
  6
CONTINUOUS
 62
     7
 10
-162.3897366749104
 20
320.6225405238845
 30
0.0
 11
-162.4233830229219
 21
320.6532760536595
 31
0.0
  0
LINE
  5
1E2
  8
0
  6
CONTINUOUS
 62
     7
 10
-162.423383022922
 20
320.65327605366
 30
0.0
 11
-162.4581239737835
 21
320.6821909755369
 31
0.0
  0
LINE
  5
1E3
  8
0
  6
CONTINUOUS
 62
     7
 10
-162.4581239737833
 20
320.6821909755364
 30
0.0
 11
-162.4937291475567
 21
320.7091787829254
 31
0.0
  0
LINE
  5
1E4
  8
0
  6
CONTINUOUS
 62
     7
 10
-162.4937291475568
 20
320.7091787829253
 30
0.0
 11
-162.5299543517329
 21
320.7341640757717
 31
0.0
  0
LINE
  5
1E5
  8
0
  6
CONTINUOUS
 62
     7
 10
-162.529954351733
 20
320.7341640757719
 30
0.0
 11
-162.5665452872501
 21
320.757102911949
 31
0.0
  0
LINE
  5
1E6
  8
0
  6
CONTINUOUS
 62
     7
 10
-162.5665452872501
 20
320.7571029119491
 30
0.0
 11
-162.6032413246544
 21
320.7779824934989
 31
0.0
  0
LINE
  5
1E7
  8
0
  6
CONTINUOUS
 62
     7
 10
-162.6032413246542
 20
320.7779824934987
 30
0.0
 11
-162.6397792600307
 21
320.7968201946081
 31
0.0
  0
LINE
  5
1E8
  8
0
  6
CONTINUOUS
 62
     7
 10
-162.6397792600308
 20
320.7968201946083
 30
0.0
 11
-162.6758969675973
 21
320.813661955441
 31
0.0
  0
LINE
  5
1E9
  8
0
  6
CONTINUOUS
 62
     7
 10
-162.6758969675972
 20
320.8136619554409
 30
0.0
 11
-162.711336876969
 21
320.8285800806774
 31
0.0
  0
LINE
  5
1EA
  8
0
  6
CONTINUOUS
 62
     7
 10
-162.7113368769691
 20
320.8285800806774
 30
0.0
 11
-162.7458492178077
 21
320.8416704932317
 31
0.0
  0
LINE
  5
1EB
  8
0
  6
CONTINUOUS
 62
     7
 10
-162.7458492178077
 20
320.8416704932317
 30
0.0
 11
-162.779194992591
 21
320.8530495015772
 31
0.0
  0
LINE
  5
1EC
  8
0
  6
CONTINUOUS
 62
     7
 10
-162.779194992591
 20
320.8530495015776
 30
0.0
 11
-162.8021736386001
 21
320.8602027145729
 31
0.0
  0
LINE
  5
1ED
  8
0
  6
CONTINUOUS
 62
     7
 10
-162.8021736386002
 20
320.8602027145728
 30
0.0
 11
-162.82436435365
 21
320.8666030162821
 31
0.0
  0
LINE
  5
1EE
  8
0
  6
CONTINUOUS
 62
     7
 10
-162.8243643536499
 20
320.8666030162819
 30
0.0
 11
-162.8456943326027
 21
320.8723055682742
 31
0.0
  0
LINE
  5
1EF
  8
0
  6
CONTINUOUS
 62
     7
 10
-162.8456943326028
 20
320.8723055682743
 30
0.0
 11
-162.8660956806273
 21
320.8773672183858
 31
0.0
  0
LINE
  5
1F0
  8
0
  6
CONTINUOUS
 62
     7
 10
-162.8660956806273
 20
320.8773672183858
 30
0.0
 11
-162.8855057655913
 21
320.8818456380072
 31
0.0
  0
LINE
  5
1F1
  8
0
  6
CONTINUOUS
 62
     7
 10
-162.8855057655913
 20
320.8818456380071
 30
0.0
 11
-162.9038675572843
 21
320.8857984321876
 31
0.0
  0
LINE
  5
1F2
  8
0
  6
CONTINUOUS
 62
     7
 10
-162.9038675572844
 20
320.885798432188
 30
0.0
 11
-162.9211299644225
 21
320.8892822251584
 31
0.0
  0
LINE
  5
1F3
  8
0
  6
CONTINUOUS
 62
     7
 10
-162.9211299644225
 20
320.8892822251581
 30
0.0
 11
-162.932535259389
 21
320.8914712249726
 31
0.0
  0
LINE
  5
1F4
  8
0
  6
CONTINUOUS
 62
     7
 10
-162.932535259389
 20
320.8914712249724
 30
0.0
 11
-162.9433663192947
 21
320.8934752476686
 31
0.0
  0
LINE
  5
1F5
  8
0
  6
CONTINUOUS
 62
     7
 10
-162.9433663192946
 20
320.8934752476691
 30
0.0
 11
-162.9536113669208
 21
320.8953114057138
 31
0.0
  0
LINE
  5
1F6
  8
0
  6
CONTINUOUS
 62
     7
 10
-162.9536113669207
 20
320.8953114057138
 30
0.0
 11
-162.9632672067872
 21
320.8969969478288
 31
0.0
  0
LINE
  5
1F7
  8
0
  6
CONTINUOUS
 62
     7
 10
-162.9632672067872
 20
320.8969969478286
 30
0.0
 11
-162.9723664617342
 21
320.8985532831794
 31
0.0
  0
LINE
  5
1F8
  8
0
  6
CONTINUOUS
 62
     7
 10
-162.9723664617343
 20
320.8985532831794
 30
0.0
 11
-162.9830249178013
 21
320.9003481923016
 31
0.0
  0
LINE
  5
1F9
  8
0
  6
CONTINUOUS
 62
     7
 10
-162.9830249178014
 20
320.9003481923016
 30
0.0
 11
-162.9929691056208
 21
320.9020080898842
 31
0.0
  0
LINE
  5
1FA
  8
0
  6
CONTINUOUS
 62
     7
 10
-162.9929691056208
 20
320.9020080898841
 30
0.0
 11
-163.0022858665475
 21
320.9035624210886
 31
0.0
  0
LINE
  5
1FB
  8
0
  6
CONTINUOUS
 62
     7
 10
-163.0022858665474
 20
320.9035624210883
 30
0.0
 11
-163.0110618054321
 21
320.9050359927966
 31
0.0
  0
LINE
  5
1FC
  8
0
  6
CONTINUOUS
 62
     7
 10
-163.0110618054322
 20
320.905035992797
 30
0.0
 11
-163.0365034672836
 21
320.9094312127278
 31
0.0
  0
LINE
  5
1FD
  8
0
  6
CONTINUOUS
 62
     7
 10
-163.0365034672835
 20
320.9094312127276
 30
0.0
 11
-163.0599854577815
 21
320.9136825245308
 31
0.0
  0
LINE
  5
1FE
  8
0
  6
CONTINUOUS
 62
     7
 10
-163.0599854577816
 20
320.9136825245311
 30
0.0
 11
-163.083962696538
 21
320.918101121003
 31
0.0
  0
LINE
  5
1FF
  8
0
  6
CONTINUOUS
 62
     7
 10
-163.0839626965379
 20
320.918101121003
 30
0.0
 11
-163.1105114716812
 21
320.9229280503878
 31
0.0
  0
LINE
  5
200
  8
0
  6
CONTINUOUS
 62
     7
 10
-163.1105114716812
 20
320.922928050388
 30
0.0
 11
-163.1412217010962
 21
320.9283919426293
 31
0.0
  0
LINE
  5
201
  8
0
  6
CONTINUOUS
 62
     7
 10
-163.1412217010962
 20
320.9283919426289
 30
0.0
 11
-163.1438074132422
 21
320.9288482008255
 31
0.0
  0
TEXT
  5
202
  8
0
  6
CONTINUOUS
 62
     7
 10
-106.2106703219149
 20
236.4090909092908
 30
0.0
 40
3.0
  1
ＫＰＲＣ－１３０Ｅ
  0
ARC
  5
203
  8
0
  6
CONTINUOUS
 62
     7
 10
-214.2329048956615
 20
451.7008214540184
 30
0.0
 40
2.642061500922721
 50
178.8268401080713
 51
212.7118639321958
  0
LINE
  5
204
  8
0
  6
CONTINUOUS
 62
     7
 10
-210.0045801593186
 20
449.7549152116376
 30
0.0
 11
-215.6002720571784
 21
449.7549152116376
 31
0.0
  0
ARC
  5
205
  8
0
  6
CONTINUOUS
 62
     7
 10
-282.9337617710056
 20
496.8090089692571
 30
0.0
 40
2.642061500923276
 50
358.8268401080736
 51
32.71186393219131
  0
LINE
  5
206
  8
0
  6
CONTINUOUS
 62
     7
 10
-215.6002720571782
 20
498.7549152116379
 30
0.0
 11
-210.0045801593184
 21
498.7549152116379
 31
0.0
  0
LINE
  5
207
  8
0
  6
CONTINUOUS
 62
     7
 10
-287.1620865073481
 20
498.7549152116379
 30
0.0
 11
-281.5663946094881
 21
498.7549152116379
 31
0.0
  0
LINE
  5
208
  8
0
  6
CONTINUOUS
 62
     7
 10
-284.9553306694231
 20
484.254915211638
 30
0.0
 11
-292.0833333333333
 21
484.254915211638
 31
0.0
  0
LINE
  5
209
  8
0
  6
CONTINUOUS
 62
     7
 10
-205.0833333333334
 20
464.254915211638
 30
0.0
 11
-212.2113359972435
 21
464.254915211638
 31
0.0
  0
LINE
  5
20A
  8
0
  6
CONTINUOUS
 62
     7
 10
-216.8744125787934
 20
451.7549152116374
 30
0.0
 11
-216.8744125787934
 21
464.2549152116373
 31
0.0
  0
LINE
  5
20B
  8
0
  6
CONTINUOUS
 62
     7
 10
-333.0833333333331
 20
498.7549152116379
 30
0.0
 11
-292.0833333333333
 21
498.7549152116379
 31
0.0
  0
LINE
  5
20C
  8
0
  6
CONTINUOUS
 62
     7
 10
-205.0833333333334
 20
484.254915211638
 30
0.0
 11
-164.0833333333335
 21
484.254915211638
 31
0.0
  0
LINE
  5
20D
  8
0
  6
CONTINUOUS
 62
     7
 10
-292.0833333333333
 20
498.7549152116379
 30
0.0
 11
-287.1620865073481
 21
498.7549152116379
 31
0.0
  0
LINE
  5
20E
  8
0
  6
CONTINUOUS
 62
     7
 10
-292.0833333333333
 20
484.254915211638
 30
0.0
 11
-333.0833333333331
 21
484.254915211638
 31
0.0
  0
LINE
  5
20F
  8
0
  6
CONTINUOUS
 62
     7
 10
-280.2922540878732
 20
451.7549152116374
 30
0.0
 11
-280.2922540878732
 21
464.2549152116373
 31
0.0
  0
ARC
  5
210
  8
0
  6
CONTINUOUS
 62
     7
 10
-164.0833333333333
 20
486.2549152116378
 30
0.0
 40
2.000000000000113
 50
269.9999999999991
 51
0.0000000000001705
  0
LINE
  5
211
  8
0
  6
CONTINUOUS
 62
     7
 10
-335.0833333333333
 20
496.7549152116377
 30
0.0
 11
-335.0833333333333
 21
486.2549152116376
 31
0.0
  0
ARC
  5
212
  8
0
  6
CONTINUOUS
 62
     7
 10
-214.1949747754391
 20
496.8042024206598
 30
0.0
 40
2.679891074468754
 50
149.3813489854348
 51
181.0538145788464
  0
ARC
  5
213
  8
0
  6
CONTINUOUS
 62
     7
 10
-164.0833333333333
 20
462.2549152116378
 30
0.0
 40
2.000000000000113
 50
0.0
 51
90.0000000000008
  0
LINE
  5
214
  8
0
  6
CONTINUOUS
 62
     7
 10
-287.1620865073481
 20
449.7549152116376
 30
0.0
 11
-292.0833333333332
 21
449.7549152116376
 31
0.0
  0
LINE
  5
215
  8
0
  6
CONTINUOUS
 62
     7
 10
-280.2922540878732
 20
464.254915211638
 30
0.0
 11
-284.9553306694231
 21
464.254915211638
 31
0.0
  0
ARC
  5
216
  8
0
  6
CONTINUOUS
 62
     7
 10
-333.0833333333331
 20
496.7549152116377
 30
0.0
 40
2.000000000000113
 50
89.9999999999992
 51
180.0
  0
LINE
  5
217
  8
0
  6
CONTINUOUS
 62
     7
 10
-162.0833333333332
 20
496.7549152116377
 30
0.0
 11
-162.0833333333332
 21
486.2549152116376
 31
0.0
  0
ARC
  5
218
  8
0
  6
CONTINUOUS
 62
     7
 10
-333.0833333333331
 20
462.2549152116378
 30
0.0
 40
1.999999999999891
 50
89.9999999999992
 51
180.0
  0
LINE
  5
219
  8
0
  6
CONTINUOUS
 62
     7
 10
-216.8744125787934
 20
484.254915211638
 30
0.0
 11
-212.2113359972435
 21
484.254915211638
 31
0.0
  0
LINE
  5
21A
  8
0
  6
CONTINUOUS
 62
     7
 10
-335.0833333333333
 20
462.2549152116378
 30
0.0
 11
-335.0833333333333
 21
451.7549152116378
 31
0.0
  0
LINE
  5
21B
  8
0
  6
CONTINUOUS
 62
     7
 10
-164.0833333333333
 20
464.254915211638
 30
0.0
 11
-205.0833333333333
 21
464.254915211638
 31
0.0
  0
LINE
  5
21C
  8
0
  6
CONTINUOUS
 62
     7
 10
-216.8744125787934
 20
484.254915211638
 30
0.0
 11
-216.8744125787934
 21
496.754915211638
 31
0.0
  0
LINE
  5
21D
  8
0
  6
CONTINUOUS
 62
     7
 10
-333.0833333333331
 20
464.254915211638
 30
0.0
 11
-292.0833333333333
 21
464.254915211638
 31
0.0
  0
ARC
  5
21E
  8
0
  6
CONTINUOUS
 62
     7
 10
-333.0833333333331
 20
486.2549152116378
 30
0.0
 40
1.99999999999978
 50
179.9999999999998
 51
270.0000000000007
  0
ARC
  5
21F
  8
0
  6
CONTINUOUS
 62
     7
 10
-333.0833333333331
 20
451.7549152116374
 30
0.0
 40
1.99999999999978
 50
179.9999999999999
 51
270.0000000000007
  0
LINE
  5
220
  8
0
  6
CONTINUOUS
 62
     7
 10
-216.8744125787934
 20
464.254915211638
 30
0.0
 11
-212.2113359972435
 21
464.254915211638
 31
0.0
  0
LINE
  5
221
  8
0
  6
CONTINUOUS
 62
     7
 10
-292.0833333333333
 20
449.7549152116376
 30
0.0
 11
-333.0833333333331
 21
449.7549152116376
 31
0.0
  0
ARC
  5
222
  8
0
  6
CONTINUOUS
 62
     7
 10
-164.0833333333333
 20
451.7549152116374
 30
0.0
 40
2.000000000000113
 50
269.9999999999992
 51
0.0000000000001137
  0
LINE
  5
223
  8
0
  6
CONTINUOUS
 62
     7
 10
-205.0833333333334
 20
449.7549152116376
 30
0.0
 11
-164.0833333333335
 21
449.7549152116376
 31
0.0
  0
LINE
  5
224
  8
0
  6
CONTINUOUS
 62
     7
 10
-216.8744125787934
 20
464.254915211638
 30
0.0
 11
-280.2922540878733
 21
464.254915211638
 31
0.0
  0
ARC
  5
225
  8
0
  6
CONTINUOUS
 62
     7
 10
-315.5833333333332
 20
465.2549152116379
 30
0.0
 40
0.9999999999998899
 50
269.9999999999992
 51
0.0
  0
LINE
  5
226
  8
0
  6
CONTINUOUS
 62
     7
 10
-212.2113359972434
 20
484.254915211638
 30
0.0
 11
-205.0833333333333
 21
484.254915211638
 31
0.0
  0
ARC
  5
227
  8
0
  6
CONTINUOUS
 62
     7
 10
-315.5833333333332
 20
483.2549152116376
 30
0.0
 40
0.9999999999998899
 50
0.0
 51
90.0
  0
LINE
  5
228
  8
0
  6
CONTINUOUS
 62
     7
 10
-205.0833333333334
 20
498.7549152116379
 30
0.0
 11
-210.0045801593186
 21
498.7549152116379
 31
0.0
  0
LINE
  5
229
  8
0
  6
CONTINUOUS
 62
     7
 10
-210.0045801593186
 20
449.7549152116376
 30
0.0
 11
-205.0833333333334
 21
449.7549152116376
 31
0.0
  0
LINE
  5
22A
  8
0
  6
CONTINUOUS
 62
     7
 10
-182.5833333333334
 20
506.2549152116378
 30
0.0
 11
-182.5833333333334
 21
498.7549152116379
 31
0.0
  0
LINE
  5
22B
  8
0
  6
CONTINUOUS
 62
     7
 10
-162.0833333333332
 20
462.2549152116378
 30
0.0
 11
-162.0833333333332
 21
451.7549152116378
 31
0.0
  0
ARC
  5
22C
  8
0
  6
CONTINUOUS
 62
     7
 10
-282.9716918912272
 20
451.7056280026152
 30
0.0
 40
2.679891074468532
 50
329.3813489854322
 51
1.053814578847494
  0
LINE
  5
22D
  8
0
  6
CONTINUOUS
 62
     7
 10
-182.5833333333334
 20
449.7549152116376
 30
0.0
 11
-182.5833333333334
 21
442.2549152116376
 31
0.0
  0
LINE
  5
22E
  8
0
  6
CONTINUOUS
 62
     7
 10
-281.5663946094882
 20
498.7549152116379
 30
0.0
 11
-215.6002720571782
 21
498.7549152116379
 31
0.0
  0
LINE
  5
22F
  8
0
  6
CONTINUOUS
 62
     7
 10
-280.2922540878732
 20
484.254915211638
 30
0.0
 11
-284.9553306694231
 21
484.254915211638
 31
0.0
  0
LINE
  5
230
  8
0
  6
CONTINUOUS
 62
     7
 10
-164.0833333333333
 20
498.7549152116379
 30
0.0
 11
-205.0833333333333
 21
498.7549152116379
 31
0.0
  0
ARC
  5
231
  8
0
  6
CONTINUOUS
 62
     7
 10
-181.5833333333333
 20
483.2549152116376
 30
0.0
 40
1.000000000000001
 50
90.0
 51
180.0
  0
ARC
  5
232
  8
0
  6
CONTINUOUS
 62
     7
 10
-181.5833333333333
 20
465.2549152116379
 30
0.0
 40
1.000000000000001
 50
180.0
 51
270.0000000000007
  0
LINE
  5
233
  8
0
  6
CONTINUOUS
 62
     7
 10
-292.0833333333333
 20
464.254915211638
 30
0.0
 11
-284.9553306694231
 21
464.254915211638
 31
0.0
  0
LINE
  5
234
  8
0
  6
CONTINUOUS
 62
     7
 10
-215.6002720571782
 20
449.7549152116376
 30
0.0
 11
-281.5663946094882
 21
449.7549152116376
 31
0.0
  0
ARC
  5
235
  8
0
  6
CONTINUOUS
 62
     7
 10
-164.0833333333333
 20
496.7549152116377
 30
0.0
 40
2.000000000000113
 50
0.0
 51
90.0000000000008
  0
LINE
  5
236
  8
0
  6
CONTINUOUS
 62
     7
 10
-216.8744125787934
 20
484.254915211638
 30
0.0
 11
-280.2922540878733
 21
484.254915211638
 31
0.0
  0
LINE
  5
237
  8
0
  6
CONTINUOUS
 62
     7
 10
-280.2922540878732
 20
484.254915211638
 30
0.0
 11
-280.2922540878732
 21
496.754915211638
 31
0.0
  0
LINE
  5
238
  8
0
  6
CONTINUOUS
 62
     7
 10
-281.566394609488
 20
449.7549152116376
 30
0.0
 11
-287.1620865073481
 21
449.7549152116376
 31
0.0
  0
LINE
  5
239
  8
0
  6
CONTINUOUS
 62
     7
 10
-183.5833333333333
 20
507.2549152116381
 30
0.0
 11
-214.0833333333333
 21
507.2549152116381
 31
0.0
  0
ARC
  5
23A
  8
0
  6
CONTINUOUS
 62
     7
 10
-183.5833333333333
 20
442.2549152116373
 30
0.0
 40
0.9999999999998899
 50
269.9999999999992
 51
0.0000000000000568
  0
ARC
  5
23B
  8
0
  6
CONTINUOUS
 62
     7
 10
-313.5833333333334
 20
506.2549152116378
 30
0.0
 40
1.000000000000223
 50
89.9999999999992
 51
180.0
  0
LINE
  5
23C
  8
0
  6
CONTINUOUS
 62
     7
 10
-313.5833333333334
 20
507.2549152116381
 30
0.0
 11
-283.0833333333335
 21
507.2549152116381
 31
0.0
  0
LINE
  5
23D
  8
0
  6
CONTINUOUS
 62
     7
 10
-283.0833333333333
 20
441.2549152116378
 30
0.0
 11
-313.5833333333332
 21
441.2549152116378
 31
0.0
  0
ARC
  5
23E
  8
0
  6
CONTINUOUS
 62
     7
 10
-183.5833333333333
 20
506.2549152116378
 30
0.0
 40
0.9999999999998899
 50
0.0
 51
90.0000000000008
  0
LINE
  5
23F
  8
0
  6
CONTINUOUS
 62
     7
 10
-182.5833333333334
 20
483.2549152116376
 30
0.0
 11
-182.5833333333334
 21
465.2549152116378
 31
0.0
  0
ARC
  5
240
  8
0
  6
CONTINUOUS
 62
     7
 10
-313.5833333333334
 20
442.2549152116373
 30
0.0
 40
1.000000000000223
 50
180.0
 51
270.0000000000007
  0
LINE
  5
241
  8
0
  6
CONTINUOUS
 62
     7
 10
-214.0833333333333
 20
441.2549152116378
 30
0.0
 11
-283.0833333333333
 21
441.2549152116378
 31
0.0
  0
LINE
  5
242
  8
0
  6
CONTINUOUS
 62
     7
 10
-314.5833333333333
 20
483.2549152116376
 30
0.0
 11
-314.5833333333333
 21
465.2549152116378
 31
0.0
  0
LINE
  5
243
  8
0
  6
CONTINUOUS
 62
     7
 10
-314.5833333333333
 20
506.2549152116378
 30
0.0
 11
-314.5833333333333
 21
498.7549152116379
 31
0.0
  0
LINE
  5
244
  8
0
  6
CONTINUOUS
 62
     7
 10
-283.0833333333333
 20
507.2549152116381
 30
0.0
 11
-214.0833333333332
 21
507.2549152116381
 31
0.0
  0
LINE
  5
245
  8
0
  6
CONTINUOUS
 62
     7
 10
-314.5833333333333
 20
449.7549152116376
 30
0.0
 11
-314.5833333333333
 21
442.2549152116376
 31
0.0
  0
LINE
  5
246
  8
0
  6
CONTINUOUS
 62
     7
 10
-214.0833333333333
 20
441.2549152116378
 30
0.0
 11
-183.5833333333333
 21
441.2549152116378
 31
0.0
  0
ARC
  5
247
  8
0
  6
CONTINUOUS
 62
     7
 10
-71.08333333333327
 20
413.7418580393834
 30
0.0
 40
2.000000000000002
 50
0.0
 51
90.0
  0
LINE
  5
248
  8
0
  6
CONTINUOUS
 62
     7
 10
-118.0833333333332
 20
298.7418580393833
 30
0.0
 11
-118.0833333333332
 21
275.7343538905694
 31
0.0
  0
LINE
  5
249
  8
0
  6
CONTINUOUS
 62
     7
 10
-118.0833333333332
 20
372.7418580393835
 30
0.0
 11
-118.0833333333332
 21
351.4046306898525
 31
0.0
  0
ARC
  5
24A
  8
0
  6
CONTINUOUS
 62
     7
 10
-116.0833333333332
 20
413.7418580393834
 30
0.0
 40
1.999999999999891
 50
89.9999999999999
 51
180.0
  0
LINE
  5
24B
  8
0
  6
CONTINUOUS
 62
     7
 10
-105.5833333333332
 20
415.7418580393837
 30
0.0
 11
-116.0833333333332
 21
415.7418580393837
 31
0.0
  0
LINE
  5
24C
  8
0
  6
CONTINUOUS
 62
     7
 10
-71.08333333333327
 20
415.7418580393837
 30
0.0
 11
-81.58333333333331
 21
415.7418580393837
 31
0.0
  0
LINE
  5
24D
  8
0
  6
CONTINUOUS
 62
     7
 10
-118.0833333333332
 20
413.7418580393834
 30
0.0
 11
-118.0833333333332
 21
372.7418580393835
 31
0.0
  0
LINE
  5
24E
  8
0
  6
CONTINUOUS
 62
     7
 10
-83.58333333333334
 20
320.0790853889148
 30
0.0
 11
-83.58333333333334
 21
298.7418580393835
 31
0.0
  0
LINE
  5
24F
  8
0
  6
CONTINUOUS
 62
     7
 10
-69.08333333333339
 20
372.7418580393835
 30
0.0
 11
-69.08333333333339
 21
413.7418580393835
 31
0.0
  0
LINE
  5
250
  8
0
  6
CONTINUOUS
 62
     7
 10
-83.58333333333334
 20
298.7418580393833
 30
0.0
 11
-83.58333333333334
 21
271.2300018393123
 31
0.0
  0
LINE
  5
251
  8
0
  6
CONTINUOUS
 62
     7
 10
-69.08333333333339
 20
351.4046306898524
 30
0.0
 11
-69.08333333333339
 21
372.7418580393834
 31
0.0
  0
LINE
  5
252
  8
0
  6
CONTINUOUS
 62
     7
 10
-103.5833333333334
 20
271.2300018393123
 30
0.0
 11
-103.5833333333334
 21
298.7418580393835
 31
0.0
  0
LINE
  5
253
  8
0
  6
CONTINUOUS
 62
     7
 10
-118.0833333333332
 20
320.0790853889148
 30
0.0
 11
-118.0833333333332
 21
298.7418580393835
 31
0.0
  0
LINE
  5
254
  8
0
  6
CONTINUOUS
 62
     7
 10
-69.08333333333339
 20
298.7418580393833
 30
0.0
 11
-69.08333333333339
 21
320.0790853889146
 31
0.0
  0
LINE
  5
255
  8
0
  6
CONTINUOUS
 62
     7
 10
-103.5833333333334
 20
351.4046306898524
 30
0.0
 11
-103.5833333333334
 21
372.7418580393834
 31
0.0
  0
ARC
  5
256
  8
0
  6
CONTINUOUS
 62
     7
 10
-81.58333333333346
 20
413.7418580393834
 30
0.0
 40
2.000000000000113
 50
89.99999999999977
 51
180.0
  0
LINE
  5
257
  8
0
  6
CONTINUOUS
 62
     7
 10
-69.08333333333339
 20
275.7343538905697
 30
0.0
 11
-69.08333333333339
 21
298.7418580393836
 31
0.0
  0
ARC
  5
258
  8
0
  6
CONTINUOUS
 62
     7
 10
-105.5833333333332
 20
413.7418580393834
 30
0.0
 40
2.000000000000002
 50
0.0
 51
90.0
  0
LINE
  5
259
  8
0
  6
CONTINUOUS
 62
     7
 10
-83.58333333333334
 20
372.7418580393835
 30
0.0
 11
-83.58333333333334
 21
351.4046306898525
 31
0.0
  0
LINE
  5
25A
  8
0
  6
CONTINUOUS
 62
     7
 10
-69.08333333333339
 20
320.0790853889148
 30
0.0
 11
-69.08333333333339
 21
320.7843933117487
 31
0.0
  0
LINE
  5
25B
  8
0
  6
CONTINUOUS
 62
     7
 10
-103.5833333333334
 20
298.7418580393833
 30
0.0
 11
-103.5833333333334
 21
320.0790853889146
 31
0.0
  0
LINE
  5
25C
  8
0
  6
CONTINUOUS
 62
     7
 10
-103.5833333333334
 20
320.0790853889148
 30
0.0
 11
-103.5833333333334
 21
320.7843933117487
 31
0.0
  0
LINE
  5
25D
  8
0
  6
CONTINUOUS
 62
     7
 10
-118.0833333333332
 20
351.4046306898524
 30
0.0
 11
-118.0833333333332
 21
350.6993227670184
 31
0.0
  0
LINE
  5
25E
  8
0
  6
CONTINUOUS
 62
     7
 10
-83.58333333333334
 20
351.4046306898524
 30
0.0
 11
-83.58333333333334
 21
350.6993227670184
 31
0.0
  0
LINE
  5
25F
  8
0
  6
CONTINUOUS
 62
     7
 10
-83.58333333333334
 20
320.7843933117483
 30
0.0
 11
-83.58333333333334
 21
320.0790853889144
 31
0.0
  0
LINE
  5
260
  8
0
  6
CONTINUOUS
 62
     7
 10
-103.5833333333334
 20
372.7418580393835
 30
0.0
 11
-103.5833333333334
 21
413.7418580393835
 31
0.0
  0
LINE
  5
261
  8
0
  6
CONTINUOUS
 62
     7
 10
-83.58333333333334
 20
413.7418580393834
 30
0.0
 11
-83.58333333333334
 21
372.7418580393835
 31
0.0
  0
LINE
  5
262
  8
0
  6
CONTINUOUS
 62
     7
 10
-166.0833333333333
 20
316.965909699086
 30
0.0
 11
-166.0833333333335
 21
298.7418580393838
 31
0.0
  0
ARC
  5
263
  8
0
  6
CONTINUOUS
 62
     7
 10
-170.0833333333334
 20
319.106194049394
 30
0.0
 40
1.000000000000223
 50
180.0000000000007
 51
259.9999999999998
  0
LINE
  5
264
  8
0
  6
CONTINUOUS
 62
     7
 10
-171.0833333333333
 20
352.3775220293732
 30
0.0
 11
-171.0833333333333
 21
319.1061940493942
 31
0.0
  0
LINE
  5
265
  8
0
  6
CONTINUOUS
 62
     7
 10
-166.4965092444998
 20
354.0254025031748
 30
0.0
 11
-170.2569815110003
 21
353.3623297823848
 31
0.0
  0
LINE
  5
266
  8
0
  6
CONTINUOUS
 62
     7
 10
-166.0833333333333
 20
372.7418580393835
 30
0.0
 11
-166.0833333333333
 21
354.5178063796812
 31
0.0
  0
ARC
  5
267
  8
0
  6
CONTINUOUS
 62
     7
 10
-205.0833333333334
 20
372.7418580393835
 30
0.0
 40
39.00000000000014
 50
0.0000000000000568
 51
90.0
  0
LINE
  5
268
  8
0
  6
CONTINUOUS
 62
     7
 10
-167.0833333333333
 20
322.0430427585143
 30
0.0
 11
-167.0833333333333
 21
349.4406733202525
 31
0.0
  0
ARC
  5
269
  8
0
  6
CONTINUOUS
 62
     7
 10
-176.113543819418
 20
279.1013057172251
 30
0.0
 40
4.000000000000226
 50
227.0000000000005
 51
325.8640368082264
  0
ARC
  5
26A
  8
0
  6
CONTINUOUS
 62
     7
 10
-205.0833333333334
 20
298.7418580393833
 30
0.0
 40
39.00000000000014
 50
325.8640368082263
 51
0.0000000000000568
  0
ARC
  5
26B
  8
0
  6
CONTINUOUS
 62
     7
 10
-166.5833333333333
 20
354.5178063796812
 30
0.0
 40
0.4999999999999449
 50
280.0000000000002
 51
359.9999999999993
  0
LINE
  5
26C
  8
0
  6
CONTINUOUS
 62
     7
 10
-208.7304396377035
 20
411.7418580393837
 30
0.0
 11
-205.0833333333334
 21
411.7418580393837
 31
0.0
  0
LINE
  5
26D
  8
0
  6
CONTINUOUS
 62
     7
 10
-283.631228544277
 20
401.4375055359363
 30
0.0
 11
-288.4362270289632
 21
411.7418580393838
 31
0.0
  0
ARC
  5
26E
  8
0
  6
CONTINUOUS
 62
     7
 10
-330.5833333333331
 20
354.5178063796812
 30
0.0
 40
0.4999999999999449
 50
180.0000000000008
 51
259.9999999999998
  0
LINE
  5
26F
  8
0
  6
CONTINUOUS
 62
     7
 10
-178.8415372596678
 20
276.1758909107481
 30
0.0
 11
-187.6341557872138
 21
284.3751403343383
 31
0.0
  0
LINE
  5
270
  8
0
  6
CONTINUOUS
 62
     7
 10
-285.8879459857332
 20
415.7418580393837
 30
0.0
 11
-280.2922540878732
 21
403.7418580393835
 31
0.0
  0
ARC
  5
271
  8
0
  6
CONTINUOUS
 62
     7
 10
-334.0833333333334
 20
351.5809576705604
 30
0.0
 40
1.000000000000223
 50
180.0
 51
259.9999999999998
  0
LINE
  5
272
  8
0
  6
CONTINUOUS
 62
     7
 10
-213.5354381223896
 20
401.4375055359363
 30
0.0
 11
-208.7304396377035
 21
411.7418580393838
 31
0.0
  0
LINE
  5
273
  8
0
  6
CONTINUOUS
 62
     7
 10
-330.6701574221668
 20
354.0254025031748
 30
0.0
 11
-326.9096851556664
 21
353.3623297823848
 31
0.0
  0
ARC
  5
274
  8
0
  6
CONTINUOUS
 62
     7
 10
-327.0833333333333
 20
352.3775220293732
 30
0.0
 40
1.000000000000001
 50
0.0
 51
79.99999999999974
  0
LINE
  5
275
  8
0
  6
CONTINUOUS
 62
     7
 10
-333.2569815110002
 20
350.41982293684
 30
0.0
 11
-334.2569815110002
 21
350.5961499175485
 31
0.0
  0
ARC
  5
276
  8
0
  6
CONTINUOUS
 62
     7
 10
-327.0833333333333
 20
319.106194049394
 30
0.0
 40
1.000000000000112
 50
280.0000000000002
 51
359.9999999999993
  0
ARC
  5
277
  8
0
  6
CONTINUOUS
 62
     7
 10
-321.0531228472487
 20
279.1013057172251
 30
0.0
 40
4.000000000000226
 50
214.1359631917736
 51
312.9999999999994
  0
ARC
  5
278
  8
0
  6
CONTINUOUS
 62
     7
 10
-292.0833333333333
 20
372.7418580393835
 30
0.0
 40
43.00000000000004
 50
90.0
 51
180.0
  0
ARC
  5
279
  8
0
  6
CONTINUOUS
 62
     7
 10
-166.5833333333333
 20
316.965909699086
 30
0.0
 40
0.500000000000056
 50
0.0
 51
79.9999999999997
  0
LINE
  5
27A
  8
0
  6
CONTINUOUS
 62
     7
 10
-318.3251294069988
 20
276.1758909107481
 30
0.0
 11
-309.5325108794529
 21
284.3751403343383
 31
0.0
  0
LINE
  5
27B
  8
0
  6
CONTINUOUS
 62
     7
 10
-331.0833333333333
 20
372.7418580393835
 30
0.0
 11
-331.0833333333333
 21
354.5178063796812
 31
0.0
  0
LINE
  5
27C
  8
0
  6
CONTINUOUS
 62
     7
 10
-163.1436156819348
 20
320.9288144246112
 30
0.0
 11
-163.9096851556663
 21
321.0638931419272
 31
0.0
  0
ARC
  5
27D
  8
0
  6
CONTINUOUS
 62
     7
 10
-163.0833333333333
 20
351.5809576705604
 30
0.0
 40
1.000000000000112
 50
280.0000000000003
 51
0.0
  0
LINE
  5
27E
  8
0
  6
CONTINUOUS
 62
     7
 10
-335.0833333333333
 20
351.5809576705604
 30
0.0
 11
-335.0833333333333
 21
372.7418580393831
 31
0.0
  0
ARC
  5
27F
  8
0
  6
CONTINUOUS
 62
     7
 10
-163.0833333333333
 20
319.9027584082064
 30
0.0
 40
1.000000000000112
 50
0.0
 51
29.94472550542957
  0
LINE
  5
280
  8
0
  6
CONTINUOUS
 62
     7
 10
-288.4362270289632
 20
411.7418580393837
 30
0.0
 11
-292.0833333333333
 21
411.7418580393837
 31
0.0
  0
LINE
  5
281
  8
0
  6
CONTINUOUS
 62
     7
 10
-166.6701574221667
 20
349.9330771967588
 30
0.0
 11
-163.9096851556663
 21
350.4198229368403
 31
0.0
  0
ARC
  5
282
  8
0
  6
CONTINUOUS
 62
     7
 10
-292.0833333333333
 20
372.7418580393835
 30
0.0
 40
38.99999999999982
 50
90.00000000000001
 51
180.0
  0
LINE
  5
283
  8
0
  6
CONTINUOUS
 62
     7
 10
-326.0833333333333
 20
352.3775220293732
 30
0.0
 11
-326.0833333333333
 21
319.1061940493942
 31
0.0
  0
ARC
  5
284
  8
0
  6
CONTINUOUS
 62
     7
 10
-330.5833333333331
 20
316.965909699086
 30
0.0
 40
0.4999999999999449
 50
100.0000000000003
 51
180.0
  0
LINE
  5
285
  8
0
  6
CONTINUOUS
 62
     7
 10
-326.9096851556662
 20
318.1213862963821
 30
0.0
 11
-330.6701574221666
 21
317.4583135755921
 31
0.0
  0
ARC
  5
286
  8
0
  6
CONTINUOUS
 62
     7
 10
-205.0833333333334
 20
298.7418580393833
 30
0.0
 40
43.00000000000015
 50
325.8640368082262
 51
0.0
  0
ARC
  5
287
  8
0
  6
CONTINUOUS
 62
     7
 10
-176.113543819418
 20
279.1013057172251
 30
0.0
 40
8.000000000000117
 50
226.9999999999999
 51
325.8640368082263
  0
ARC
  5
288
  8
0
  6
CONTINUOUS
 62
     7
 10
-163.0833333333333
 20
319.9027584082064
 30
0.0
 40
1.000000000000112
 50
43.59007881994351
 51
79.99999999999974
  0
LINE
  5
289
  8
0
  6
CONTINUOUS
 62
     7
 10
-170.2569815110003
 20
318.1213862963821
 30
0.0
 11
-166.4965092444998
 21
317.4583135755921
 31
0.0
  0
LINE
  5
28A
  8
0
  6
CONTINUOUS
 62
     7
 10
-331.0833333333333
 20
316.965909699086
 30
0.0
 11
-331.0833333333333
 21
298.7418580393838
 31
0.0
  0
ARC
  5
28B
  8
0
  6
CONTINUOUS
 62
     7
 10
-292.0833333333333
 20
298.7418580393833
 30
0.0
 40
39.00000000000004
 50
180.0
 51
214.1359631917738
  0
LINE
  5
28C
  8
0
  6
CONTINUOUS
 62
     7
 10
-163.9096851556664
 20
350.41982293684
 30
0.0
 11
-162.9096851556663
 21
350.5961499175485
 31
0.0
  0
LINE
  5
28D
  8
0
  6
CONTINUOUS
 62
     7
 10
-330.4965092444999
 20
349.9330771967588
 30
0.0
 11
-333.2569815110003
 21
350.4198229368403
 31
0.0
  0
ARC
  5
28E
  8
0
  6
CONTINUOUS
 62
     7
 10
-170.0833333333334
 20
352.3775220293732
 30
0.0
 40
1.000000000000223
 50
100.0000000000002
 51
180.0
  0
LINE
  5
28F
  8
0
  6
CONTINUOUS
 62
     7
 10
-163.9096851556664
 20
321.0638931419272
 30
0.0
 11
-166.6701574221669
 21
321.5506388820086
 31
0.0
  0
LINE
  5
290
  8
0
  6
CONTINUOUS
 62
     7
 10
-162.9096851556663
 20
320.8875661612183
 30
0.0
 11
-163.1436156819348
 21
320.9288144246108
 31
0.0
  0
LINE
  5
291
  8
0
  6
CENTER
 62
     1
 10
-133.5833333333333
 20
335.7418580393836
 30
0.0
 11
-53.58333333333331
 21
335.7418580393836
 31
0.0
  0
LINE
  5
293
  8
0
  6
CONTINUOUS
 62
     7
 10
-314.5833333333333
 20
302.2418580393835
 30
0.0
 11
-314.5833333333333
 21
369.2418580393835
 31
0.0
  0
LINE
  5
294
  8
0
  6
CONTINUOUS
 62
     7
 10
-310.5833333333331
 20
369.2418580393833
 30
0.0
 11
-310.5833333333331
 21
302.2418580393833
 31
0.0
  0
ARC
  5
295
  8
0
  6
CONTINUOUS
 62
     7
 10
-283.0833333333333
 20
369.2418580393833
 30
0.0
 40
31.49999999999997
 50
90.00000000000006
 51
180.0
  0
ARC
  5
296
  8
0
  6
CONTINUOUS
 62
     7
 10
-283.0833333333333
 20
302.2418580393835
 30
0.0
 40
27.49999999999986
 50
180.0
 51
219.0335617483944
  0
ARC
  5
297
  8
0
  6
CONTINUOUS
 62
     7
 10
-305.2214834063271
 20
284.2932561064861
 30
0.0
 40
1.000000000000001
 50
312.9999999999999
 51
0.0
  0
ARC
  5
298
  8
0
  6
CONTINUOUS
 62
     7
 10
-305.2214834063271
 20
284.2932561064861
 30
0.0
 40
1.000000000000001
 50
0.0
 51
39.03356174839456
  0
LINE
  5
299
  8
0
  6
CONTINUOUS
 62
     7
 10
-283.0833333333333
 20
400.7418580393835
 30
0.0
 11
-214.0833333333332
 21
400.7418580393835
 31
0.0
  0
ARC
  5
29A
  8
0
  6
CONTINUOUS
 62
     7
 10
-214.0833333333333
 20
369.2418580393833
 30
0.0
 40
27.50000000000008
 50
0.0
 51
90.0
  0
LINE
  5
29B
  8
0
  6
CONTINUOUS
 62
     7
 10
-280.2922540878732
 20
403.7418580393832
 30
0.0
 11
-216.8744125787933
 21
403.7418580393832
 31
0.0
  0
ARC
  5
29C
  8
0
  6
CONTINUOUS
 62
     7
 10
-292.0833333333333
 20
298.7418580393833
 30
0.0
 40
43.00000000000004
 50
180.0
 51
214.1359631917738
  0
ARC
  5
29D
  8
0
  6
CONTINUOUS
 62
     7
 10
-214.0833333333333
 20
302.2418580393835
 30
0.0
 40
27.50000000000008
 50
320.9664382516055
 51
0.0000000000000568
  0
LINE
  5
29E
  8
0
  6
CONTINUOUS
 62
     7
 10
-182.5833333333334
 20
302.2418580393835
 30
0.0
 11
-182.5833333333334
 21
369.2418580393835
 31
0.0
  0
ARC
  5
29F
  8
0
  6
CONTINUOUS
 62
     7
 10
-214.0833333333333
 20
302.2418580393835
 30
0.0
 40
31.49999999999986
 50
320.7059678020494
 51
0.0
  0
LINE
  5
2A0
  8
0
  6
CONTINUOUS
 62
     7
 10
-306.0054733743253
 20
282.1948461728487
 30
0.0
 11
-315.5971359667486
 21
273.2504761042717
 31
0.0
  0
ARC
  5
2A1
  8
0
  6
CONTINUOUS
 62
     7
 10
-191.9451832603395
 20
284.2932561064861
 30
0.0
 40
1.000000000000112
 50
140.9664382516055
 51
227.0000000000001
  0
ARC
  5
2A2
  8
0
  6
CONTINUOUS
 62
     7
 10
-190.4791949322789
 20
282.9261998744679
 30
0.0
 40
1.000000000000223
 50
227.0
 51
320.7059678020495
  0
LINE
  5
2A3
  8
0
  6
CONTINUOUS
 62
     7
 10
-304.5394850462647
 20
283.561902404867
 30
0.0
 11
-306.0054733743253
 21
282.1948461728487
 31
0.0
  0
LINE
  5
2A4
  8
0
  6
CONTINUOUS
 62
     7
 10
-162.0833333333332
 20
298.7418580393833
 30
0.0
 11
-162.0833333333332
 21
319.902758408206
 31
0.0
  0
LINE
  5
2A5
  8
0
  6
CONTINUOUS
 62
     7
 10
-214.0833333333333
 20
396.7418580393835
 30
0.0
 11
-283.0833333333333
 21
396.7418580393835
 31
0.0
  0
ARC
  5
2A6
  8
0
  6
CONTINUOUS
 62
     7
 10
-214.0833333333333
 20
369.2418580393833
 30
0.0
 40
31.49999999999986
 50
0.0000000000000126
 51
89.99999999999996
  0
LINE
  5
2A7
  8
0
  6
CONTINUOUS
 62
     7
 10
-186.5833333333333
 20
369.2418580393833
 30
0.0
 11
-186.5833333333333
 21
302.2418580393833
 31
0.0
  0
ARC
  5
2A8
  8
0
  6
CONTINUOUS
 62
     7
 10
-283.0833333333333
 20
369.2418580393833
 30
0.0
 40
27.49999999999986
 50
90.0
 51
180.0
  0
LINE
  5
2A9
  8
0
  6
CONTINUOUS
 62
     7
 10
-191.1611932923413
 20
282.1948461728487
 30
0.0
 11
-181.5695306999179
 21
273.2504761042717
 31
0.0
  0
LINE
  5
2AA
  8
0
  6
CONTINUOUS
 62
     7
 10
-216.8744125787934
 20
403.7418580393832
 30
0.0
 11
-211.2787206809335
 21
415.7418580393834
 31
0.0
  0
LINE
  5
2AB
  8
0
  6
CONTINUOUS
 62
     7
 10
-162.0833333333332
 20
351.5809576705604
 30
0.0
 11
-162.0833333333332
 21
372.7418580393831
 31
0.0
  0
ARC
  5
2AC
  8
0
  6
CONTINUOUS
 62
     7
 10
-283.0833333333333
 20
302.2418580393835
 30
0.0
 40
31.49999999999997
 50
180.0
 51
219.2940321979506
  0
ARC
  5
2AD
  8
0
  6
CONTINUOUS
 62
     7
 10
-306.6874717343878
 20
282.9261998744679
 30
0.0
 40
0.9999999999998899
 50
219.2940321979505
 51
312.9999999999999
  0
LINE
  5
2AE
  8
0
  6
CONTINUOUS
 62
     7
 10
-192.6271816204018
 20
283.561902404867
 30
0.0
 11
-191.1611932923412
 21
282.1948461728487
 31
0.0
  0
LINE
  5
2AF
  8
0
  6
CONTINUOUS
 62
     7
 10
-205.0833333333334
 20
415.7418580393837
 30
0.0
 11
-211.2787206809335
 21
415.7418580393837
 31
0.0
  0
LINE
  5
2B0
  8
0
  6
CONTINUOUS
 62
     7
 10
-334.172814124715
 20
320.9024071423165
 30
0.0
 11
-333.526001768834
 21
321.0164576121139
 31
0.0
  0
LINE
  5
2B1
  8
0
  6
CONTINUOUS
 62
     7
 10
-335.0833333333333
 20
298.7418580393833
 30
0.0
 11
-335.0833333333333
 21
319.902758408206
 31
0.0
  0
LINE
  5
2B2
  8
0
  6
CONTINUOUS
 62
     7
 10
-292.0833333333333
 20
415.7418580393837
 30
0.0
 11
-285.8879459857332
 21
415.7418580393837
 31
0.0
  0
LINE
  5
2B3
  8
0
  6
CONTINUOUS
 62
     7
 10
-333.526001768834
 20
321.0164576121137
 30
0.0
 11
-333.2569815110002
 21
321.0638931419271
 31
0.0
  0
ARC
  5
2B4
  8
0
  6
CONTINUOUS
 62
     7
 10
-321.0531228472487
 20
279.1013057172251
 30
0.0
 40
8.000000000000007
 50
214.1359631917738
 51
312.9999999999999
  0
LINE
  5
2B5
  8
0
  6
CONTINUOUS
 62
     7
 10
-334.2301502880126
 20
320.8922972297565
 30
0.0
 11
-334.1728141247152
 21
320.9024071423162
 31
0.0
  0
ARC
  5
2B6
  8
0
  6
CONTINUOUS
 62
     7
 10
-330.5833333333331
 20
322.0430427585143
 30
0.0
 40
0.4999999999999449
 50
280.0000000000002
 51
0.0000000000001705
  0
ARC
  5
2B7
  8
0
  6
CONTINUOUS
 62
     7
 10
-334.0833333333334
 20
319.9027584082064
 30
0.0
 40
1.000000000000223
 50
130.0176670929517
 51
180.0
  0
ARC
  5
2B8
  8
0
  6
CONTINUOUS
 62
     7
 10
-166.5833333333333
 20
322.0430427585143
 30
0.0
 40
0.500000000000056
 50
179.9999999999998
 51
259.9999999999998
  0
LINE
  5
2B9
  8
0
  6
CONTINUOUS
 62
     7
 10
-334.2569815110001
 20
320.8875661612183
 30
0.0
 11
-334.2301502880124
 21
320.8922972297564
 31
0.0
  0
ARC
  5
2BA
  8
0
  6
CONTINUOUS
 62
     7
 10
-205.0833333333334
 20
372.7418580393835
 30
0.0
 40
42.99999999999993
 50
0.0000000000000185
 51
89.99999999999999
  0
ARC
  5
2BB
  8
0
  6
CONTINUOUS
 62
     7
 10
-330.5833333333331
 20
349.4406733202524
 30
0.0
 40
0.4999999999999449
 50
0.0
 51
79.99999999999974
  0
LINE
  5
2BC
  8
0
  6
CONTINUOUS
 62
     7
 10
-330.0833333333331
 20
322.0430427585143
 30
0.0
 11
-330.0833333333331
 21
349.4406733202525
 31
0.0
  0
ARC
  5
2BD
  8
0
  6
CONTINUOUS
 62
     7
 10
-284.0843824377952
 20
401.2261964050658
 30
0.0
 40
0.4999999999999449
 50
271.792663992471
 51
25.00000000000017
  0
ARC
  5
2BE
  8
0
  6
CONTINUOUS
 62
     7
 10
-187.2931566071826
 20
284.7408171851482
 30
0.0
 40
0.4999999999999449
 50
146.8448860391066
 51
226.9999999999994
  0
ARC
  5
2BF
  8
0
  6
CONTINUOUS
 62
     7
 10
-309.873510059484
 20
284.7408171851482
 30
0.0
 40
0.500000000000056
 50
313.0000000000005
 51
33.1551139608934
  0
ARC
  5
2C0
  8
0
  6
CONTINUOUS
 62
     7
 10
-213.0822842288713
 20
401.2261964050658
 30
0.0
 40
0.500000000000056
 50
154.9999999999998
 51
268.207336007529
  0
LINE
  5
2C1
  8
0
  6
CONTINUOUS
 62
     7
 10
-333.2569815110002
 20
321.0638931419272
 30
0.0
 11
-330.4965092444999
 21
321.5506388820086
 31
0.0
  0
ARC
  5
2C2
  8
0
  6
CONTINUOUS
 62
     7
 10
-166.5833333333333
 20
349.4406733202524
 30
0.0
 40
0.500000000000056
 50
100.0000000000002
 51
180.0
  0
LINE
  5
2C3
  8
0
  6
CONTINUOUS
 62
     7
 10
-333.5259014050248
 20
321.0164753088547
 30
0.0
 11
-334.7262952325036
 21
320.668656568624
 31
0.0
  0
LINE
  5
2C4
  8
0
  6
CENTER
 62
     1
 10
-347.5833333333333
 20
474.2549152116378
 30
0.0
 11
-149.5833333333332
 21
474.2549152116378
 31
0.0
  0
LINE
  5
2C5
  8
0
  6
CENTER
 62
     1
 10
-149.5833333333333
 20
335.7418580393836
 30
0.0
 11
-347.5833333333333
 21
335.7418580393836
 31
0.0
  0
LINE
  5
2C6
  8
0
  6
CENTER
 62
     1
 10
-248.5833333333333
 20
428.2418580393834
 30
0.0
 11
-248.5833333333333
 21
258.601305717225
 31
0.0
  0
LINE
  5
2C7
  8
0
  6
CENTER
 62
     1
 10
-93.58333333333334
 20
266.1013057172252
 30
0.0
 11
-93.58333333333334
 21
420.7418580393835
 31
0.0
  0
LINE
  5
2C8
  8
0
  6
CENTER
 62
     1
 10
-248.5833333333333
 20
436.2549152116375
 30
0.0
 11
-248.5833333333333
 21
512.2549152116376
 31
0.0
  0
ARC
  5
2C9
  8
0
  6
CONTINUOUS
 62
     7
 10
-102.5833333333334
 20
401.7418580393834
 30
0.0
 40
1.000000000000112
 50
180.0
 51
270.0
  0
LINE
  5
2CA
  8
0
  6
CONTINUOUS
 62
     7
 10
-103.5833333333334
 20
320.7843933117483
 30
0.0
 11
-103.5833333333334
 21
350.699322767018
 31
0.0
  0
LINE
  5
2CB
  8
0
  6
CONTINUOUS
 62
     7
 10
-103.5833333333334
 20
271.1013057172256
 30
0.0
 11
-103.5833333333334
 21
271.2300018393127
 31
0.0
  0
ARC
  5
2CC
  8
0
  6
CONTINUOUS
 62
     7
 10
-84.58333333333334
 20
401.741858039383
 30
0.0
 40
1.000000000000001
 50
270.0
 51
0.0000000000007958
  0
LINE
  5
2CD
  8
0
  6
CONTINUOUS
 62
     7
 10
-118.0833333333332
 20
275.7343538905697
 30
0.0
 11
-118.0833333333332
 21
273.1013057172253
 31
0.0
  0
LINE
  5
2CE
  8
0
  6
CONTINUOUS
 62
     7
 10
-83.58333333333334
 20
350.6993227670181
 30
0.0
 11
-83.58333333333334
 21
320.7843933117483
 31
0.0
  0
LINE
  5
2CF
  8
0
  6
CONTINUOUS
 62
     7
 10
-83.58333333333334
 20
271.2300018393123
 30
0.0
 11
-83.58333333333334
 21
271.1013057172252
 31
0.0
  0
LINE
  5
2D0
  8
0
  6
CONTINUOUS
 62
     7
 10
-69.08333333333339
 20
273.1013057172253
 30
0.0
 11
-69.08333333333339
 21
275.7343538905697
 31
0.0
  0
LINE
  5
2D1
  8
0
  6
CONTINUOUS
 62
     7
 10
-69.08333333333339
 20
320.7843933117483
 30
0.0
 11
-69.08333333333339
 21
350.699322767018
 31
0.0
  0
LINE
  5
2D2
  8
0
  6
CONTINUOUS
 62
     7
 10
-125.5833333333333
 20
281.926199874468
 30
0.0
 11
-118.0833333333333
 21
281.926199874468
 31
0.0
  0
ARC
  5
2D3
  8
0
  6
CONTINUOUS
 62
     7
 10
-125.5833333333333
 20
282.9261998744679
 30
0.0
 40
0.9999999999998899
 50
180.0
 51
270.0
  0
ARC
  5
2D4
  8
0
  6
CONTINUOUS
 62
     7
 10
-61.58333333333344
 20
399.7418580393832
 30
0.0
 40
1.000000000000223
 50
0.0000000000007958
 51
90.0
  0
LINE
  5
2D5
  8
0
  6
CONTINUOUS
 62
     7
 10
-116.0833333333332
 20
271.1013057172256
 30
0.0
 11
-103.5833333333332
 21
271.1013057172256
 31
0.0
  0
LINE
  5
2D6
  8
0
  6
CONTINUOUS
 62
     7
 10
-60.58333333333321
 20
282.9261998744679
 30
0.0
 11
-60.58333333333321
 21
302.2418580393834
 31
0.0
  0
ARC
  5
2D7
  8
0
  6
CONTINUOUS
 62
     7
 10
-61.58333333333344
 20
282.9261998744679
 30
0.0
 40
1.000000000000223
 50
270.0
 51
0.0
  0
LINE
  5
2D8
  8
0
  6
CONTINUOUS
 62
     7
 10
-126.5833333333333
 20
369.2418580393833
 30
0.0
 11
-126.5833333333333
 21
302.2418580393833
 31
0.0
  0
LINE
  5
2D9
  8
0
  6
CONTINUOUS
 62
     7
 10
-84.58333333333334
 20
281.4795683271533
 30
0.0
 11
-102.5833333333333
 21
281.4795683271533
 31
0.0
  0
LINE
  5
2DA
  8
0
  6
CONTINUOUS
 62
     7
 10
-118.0833333333332
 20
400.7418580393835
 30
0.0
 11
-125.5833333333332
 21
400.7418580393835
 31
0.0
  0
LINE
  5
2DB
  8
0
  6
CONTINUOUS
 62
     7
 10
-126.5833333333333
 20
302.2418580393835
 30
0.0
 11
-126.5833333333333
 21
282.9261998744682
 31
0.0
  0
ARC
  5
2DC
  8
0
  6
CONTINUOUS
 62
     7
 10
-71.08333333333327
 20
273.1013057172253
 30
0.0
 40
1.999999999999891
 50
270.0
 51
0.0
  0
LINE
  5
2DD
  8
0
  6
CONTINUOUS
 62
     7
 10
-83.58333333333334
 20
271.1013057172256
 30
0.0
 11
-71.08333333333333
 21
271.1013057172256
 31
0.0
  0
LINE
  5
2DE
  8
0
  6
CONTINUOUS
 62
     7
 10
-126.5833333333333
 20
399.7418580393832
 30
0.0
 11
-126.5833333333333
 21
369.2418580393832
 31
0.0
  0
LINE
  5
2DF
  8
0
  6
CONTINUOUS
 62
     7
 10
-60.58333333333321
 20
302.2418580393835
 30
0.0
 11
-60.58333333333321
 21
369.2418580393835
 31
0.0
  0
LINE
  5
2E0
  8
0
  6
CONTINUOUS
 62
     7
 10
-60.58333333333321
 20
369.2418580393833
 30
0.0
 11
-60.58333333333321
 21
399.7418580393833
 31
0.0
  0
LINE
  5
2E1
  8
0
  6
CONTINUOUS
 62
     7
 10
-69.08333333333339
 20
281.926199874468
 30
0.0
 11
-61.58333333333338
 21
281.926199874468
 31
0.0
  0
ARC
  5
2E2
  8
0
  6
CONTINUOUS
 62
     7
 10
-125.5833333333333
 20
399.7418580393832
 30
0.0
 40
0.9999999999998899
 50
89.99999999999994
 51
179.9999999999992
  0
LINE
  5
2E3
  8
0
  6
CONTINUOUS
 62
     7
 10
-84.58333333333334
 20
400.7418580393835
 30
0.0
 11
-102.5833333333333
 21
400.7418580393835
 31
0.0
  0
LINE
  5
2E4
  8
0
  6
CONTINUOUS
 62
     7
 10
-61.58333333333344
 20
400.7418580393835
 30
0.0
 11
-69.08333333333344
 21
400.7418580393835
 31
0.0
  0
ARC
  5
2E5
  8
0
  6
CONTINUOUS
 62
     7
 10
-116.0833333333332
 20
273.1013057172253
 30
0.0
 40
1.999999999999891
 50
180.0
 51
269.9999999999999
  0
ENDSEC
  0
EOF
