  0
SECTION
  2
HEADER
  9
$ACADVER
  1
AC1006
  9
$DWGCODEPAGE
  3
ansi_932
  9
$INSBASE
 10
0.0
 20
0.0
 30
0.0
  9
$EXTMIN
 10
-740.0
 20
277.212510941603
  9
$EXTMAX
 10
-386.0
 20
599.5000000000001
  9
$LIMMIN
 10
0.0
 20
0.0
  9
$LIMMAX
 10
12.0
 20
9.0
  9
$ORTHOMODE
 70
     0
  9
$REGENMODE
 70
     1
  9
$FILLMODE
 70
     1
  9
$QTEXTMODE
 70
     0
  9
$MIRRTEXT
 70
     1
  9
$DRAGMODE
 70
     2
  9
$LTSCALE
 40
1.0
  9
$OSMODE
 70
    37
  9
$ATTMODE
 70
     1
  9
$TEXTSIZE
 40
0.2
  9
$TRACEWID
 40
0.05
  9
$TEXTSTYLE
  7
STANDARD
  9
$CLAYER
  8
0
  9
$CELTYPE
  6
BYLAYER
  9
$CECOLOR
 62
   256
  9
$DIMSCALE
 40
1.0
  9
$DIMASZ
 40
3.0
  9
$DIMEXO
 40
0.0625
  9
$DIMDLI
 40
0.38
  9
$DIMRND
 40
0.0
  9
$DIMDLE
 40
0.0
  9
$DIMEXE
 40
1.5
  9
$DIMTP
 40
0.0
  9
$DIMTM
 40
0.0
  9
$DIMTXT
 40
3.0
  9
$DIMCEN
 40
0.09
  9
$DIMTSZ
 40
0.0
  9
$DIMTOL
 70
     0
  9
$DIMLIM
 70
     0
  9
$DIMTIH
 70
     1
  9
$DIMTOH
 70
     1
  9
$DIMSE1
 70
     0
  9
$DIMSE2
 70
     0
  9
$DIMTAD
 70
     1
  9
$DIMZIN
 70
     0
  9
$DIMBLK
  1

  9
$DIMASO
 70
     1
  9
$DIMSHO
 70
     1
  9
$DIMPOST
  1

  9
$DIMAPOST
  1

  9
$DIMALT
 70
     0
  9
$DIMALTD
 70
     2
  9
$DIMALTF
 40
25.4
  9
$DIMLFAC
 40
1.0
  9
$DIMTOFL
 70
     0
  9
$DIMTVP
 40
0.0
  9
$DIMTIX
 70
     0
  9
$DIMSOXD
 70
     0
  9
$DIMSAH
 70
     0
  9
$DIMBLK1
  1

  9
$DIMBLK2
  1

  9
$LUNITS
 70
     2
  9
$LUPREC
 70
     4
  9
$SKETCHINC
 40
0.1
  9
$FILLETRAD
 40
0.5
  9
$AUNITS
 70
     0
  9
$AUPREC
 70
     0
  9
$MENU
  1
.
  9
$ELEVATION
 40
0.0
  9
$THICKNESS
 40
0.0
  9
$LIMCHECK
 70
     0
  9
$CHAMFERA
 40
0.0
  9
$CHAMFERB
 40
0.0
  9
$SKPOLY
 70
     0
  9
$TDCREATE
 40
2460663.48929603
  9
$TDUPDATE
 40
2460663.489296296
  9
$TDINDWG
 40
0.0000000116
  9
$TDUSRTIMER
 40
0.0000000116
  9
$USRTIMER
 70
     1
  9
$ANGBASE
 50
0.0
  9
$ANGDIR
 70
     0
  9
$PDMODE
 70
     0
  9
$PDSIZE
 40
0.0
  9
$PLINEWID
 40
0.0
  9
$COORDS
 70
     1
  9
$SPLFRAME
 70
     0
  9
$SPLINETYPE
 70
     6
  9
$SPLINESEGS
 70
     8
  9
$ATTDIA
 70
     0
  9
$ATTREQ
 70
     1
  9
$HANDLING
 70
     1
  9
$HANDSEED
  5
2EF
  9
$SURFTAB1
 70
     6
  9
$SURFTAB2
 70
     6
  9
$SURFTYPE
 70
     6
  9
$SURFU
 70
     6
  9
$SURFV
 70
     6
  9
$UCSNAME
  2

  9
$UCSORG
 10
0.0
 20
0.0
 30
0.0
  9
$UCSXDIR
 10
1.0
 20
0.0
 30
0.0
  9
$UCSYDIR
 10
0.0
 20
1.0
 30
0.0
  9
$USERI1
 70
     0
  9
$USERI2
 70
     0
  9
$USERI3
 70
     0
  9
$USERI4
 70
     0
  9
$USERI5
 70
     0
  9
$USERR1
 40
0.0
  9
$USERR2
 40
0.0
  9
$USERR3
 40
0.0
  9
$USERR4
 40
0.0
  9
$USERR5
 40
0.0
  9
$WORLDVIEW
 70
     1
  0
ENDSEC
  0
SECTION
  2
TABLES
  0
TABLE
  2
VPORT
 70
     1
  0
VPORT
  2
*ACTIVE
 70
     0
 10
0.0
 20
0.0
 11
1.0
 21
1.0
 12
-563.0
 22
438.3562554708016
 13
0.0
 23
0.0
 14
0.5
 24
0.5
 15
0.5
 25
0.5
 16
0.0
 26
0.0
 36
1.0
 17
0.0
 27
0.0
 37
0.0
 40
322.2874890583971
 41
1.6
 42
50.0
 43
0.0
 44
0.0
 50
0.0
 51
0.0
 71
     0
 72
   100
 73
     1
 74
     3
 75
     0
 76
     0
 77
     0
 78
     0
  0
ENDTAB
  0
TABLE
  2
LTYPE
 70
     2
  0
LTYPE
  2
CONTINUOUS
 70
     0
  3
Solid line
 72
    65
 73
     0
 40
0.0
  0
LTYPE
  2
CENTER
 70
     0
  3

 72
    65
 73
     0
 40
0.0
  0
ENDTAB
  0
TABLE
  2
LAYER
 70
     1
  0
LAYER
  2
0
 70
     0
 62
     7
  6
CONTINUOUS
  0
ENDTAB
  0
TABLE
  2
STYLE
 70
     2
  0
STYLE
  2
STANDARD
 70
     0
 40
0.0
 41
1.0
 50
0.0
 71
     0
 42
0.2
  3
txt
  4

  0
STYLE
  2
ＭＳ_ゴシック
 70
     0
 40
0.0
 41
1.0
 50
0.0
 71
     0
 42
0.2
  3
ＭＳ ゴシック.shx
  4

  0
ENDTAB
  0
TABLE
  2
VIEW
 70
     0
  0
ENDTAB
  0
TABLE
  2
UCS
 70
     0
  0
ENDTAB
  0
ENDSEC
  0
SECTION
  2
BLOCKS
  0
ENDSEC
  0
SECTION
  2
ENTITIES
  0
LINE
  5
6F
  8
0
  6
CONTINUOUS
 62
     7
 10
-462.9999999999999
 20
442.887218107405
 30
0.0
 11
-463.0002719818914
 21
442.8707864614187
 31
0.0
  0
LINE
  5
70
  8
0
  6
CONTINUOUS
 62
     7
 10
-463.0002719818914
 20
442.8707864614187
 30
0.0
 11
-463.0010834015284
 21
442.8543725165216
 31
0.0
  0
LINE
  5
71
  8
0
  6
CONTINUOUS
 62
     7
 10
-463.0010834015284
 20
442.8543725165216
 30
0.0
 11
-463.0024274698555
 21
442.8380279840278
 31
0.0
  0
LINE
  5
72
  8
0
  6
CONTINUOUS
 62
     7
 10
-463.0024274698555
 20
442.8380279840278
 30
0.0
 11
-463.0042973978168
 21
442.8218045752516
 31
0.0
  0
LINE
  5
73
  8
0
  6
CONTINUOUS
 62
     7
 10
-463.0042973978168
 20
442.8218045752516
 30
0.0
 11
-463.0067813679775
 21
442.8051594984823
 31
0.0
  0
LINE
  5
74
  8
0
  6
CONTINUOUS
 62
     7
 10
-463.0067813679775
 20
442.8051594984823
 30
0.0
 11
-463.0098097196548
 21
442.7886770134739
 31
0.0
  0
LINE
  5
75
  8
0
  6
CONTINUOUS
 62
     7
 10
-463.0098097196548
 20
442.7886770134739
 30
0.0
 11
-463.0133626539292
 21
442.7724037972022
 31
0.0
  0
LINE
  5
76
  8
0
  6
CONTINUOUS
 62
     7
 10
-463.0133626539292
 20
442.7724037972022
 30
0.0
 11
-463.0174203718811
 21
442.7563865266434
 31
0.0
  0
LINE
  5
77
  8
0
  6
CONTINUOUS
 62
     7
 10
-463.0174203718811
 20
442.7563865266434
 30
0.0
 11
-463.0234317861889
 21
442.7359716087974
 31
0.0
  0
LINE
  5
78
  8
0
  6
CONTINUOUS
 62
     7
 10
-463.0234317861889
 20
442.7359716087974
 30
0.0
 11
-463.0302467096217
 21
442.716007129402
 31
0.0
  0
LINE
  5
79
  8
0
  6
CONTINUOUS
 62
     7
 10
-463.0302467096217
 20
442.716007129402
 30
0.0
 11
-463.0378087368149
 21
442.6965469196427
 31
0.0
  0
LINE
  5
7A
  8
0
  6
CONTINUOUS
 62
     7
 10
-463.0378087368149
 20
442.6965469196427
 30
0.0
 11
-463.0460614624037
 21
442.6776448107049
 31
0.0
  0
LINE
  5
7B
  8
0
  6
CONTINUOUS
 62
     7
 10
-463.0460614624037
 20
442.6776448107049
 30
0.0
 11
-463.0549484810236
 21
442.659354633774
 31
0.0
  0
LINE
  5
7C
  8
0
  6
CONTINUOUS
 62
     7
 10
-463.0549484810236
 20
442.659354633774
 30
0.0
 11
-463.06441338731
 21
442.6417302200355
 31
0.0
  0
LINE
  5
7D
  8
0
  6
CONTINUOUS
 62
     7
 10
-463.06441338731
 20
442.6417302200355
 30
0.0
 11
-463.0749006698962
 21
442.6239890602259
 31
0.0
  0
LINE
  5
7E
  8
0
  6
CONTINUOUS
 62
     7
 10
-463.0749006698962
 20
442.6239890602259
 30
0.0
 11
-463.085956796238
 21
442.6069212020489
 31
0.0
  0
LINE
  5
7F
  8
0
  6
CONTINUOUS
 62
     7
 10
-463.085956796238
 20
442.6069212020489
 30
0.0
 11
-463.0975279310744
 21
442.5905446175844
 31
0.0
  0
LINE
  5
80
  8
0
  6
CONTINUOUS
 62
     7
 10
-463.0975279310744
 20
442.5905446175844
 30
0.0
 11
-463.1095602391447
 21
442.5748772789126
 31
0.0
  0
LINE
  5
81
  8
0
  6
CONTINUOUS
 62
     7
 10
-463.1095602391447
 20
442.5748772789126
 30
0.0
 11
-463.126753627446
 21
442.5545220977483
 31
0.0
  0
LINE
  5
82
  8
0
  6
CONTINUOUS
 62
     7
 10
-463.126753627446
 20
442.5545220977483
 30
0.0
 11
-463.1446827910158
 21
442.5354381659274
 31
0.0
  0
LINE
  5
83
  8
0
  6
CONTINUOUS
 62
     7
 10
-463.1446827910158
 20
442.5354381659274
 30
0.0
 11
-463.163243289442
 21
442.5176306104653
 31
0.0
  0
LINE
  5
84
  8
0
  6
CONTINUOUS
 62
     7
 10
-463.163243289442
 20
442.5176306104653
 30
0.0
 11
-463.1826121934021
 21
442.5008699938783
 31
0.0
  0
LINE
  5
85
  8
0
  6
CONTINUOUS
 62
     7
 10
-463.1826121934021
 20
442.5008699938783
 30
0.0
 11
-463.2025160048575
 21
442.4853438304992
 31
0.0
  0
LINE
  5
86
  8
0
  6
CONTINUOUS
 62
     7
 10
-463.2025160048575
 20
442.4853438304992
 30
0.0
 11
-463.2228792394727
 21
442.4710404747422
 31
0.0
  0
LINE
  5
87
  8
0
  6
CONTINUOUS
 62
     7
 10
-463.2228792394727
 20
442.4710404747422
 30
0.0
 11
-463.2436264129122
 21
442.457948281021
 31
0.0
  0
LINE
  5
88
  8
0
  6
CONTINUOUS
 62
     7
 10
-463.2436264129122
 20
442.457948281021
 30
0.0
 11
-463.2726314838814
 21
442.4419048609417
 31
0.0
  0
LINE
  5
89
  8
0
  6
CONTINUOUS
 62
     7
 10
-463.2726314838814
 20
442.4419048609417
 30
0.0
 11
-463.3022176448877
 21
442.4279987948687
 31
0.0
  0
LINE
  5
8A
  8
0
  6
CONTINUOUS
 62
     7
 10
-463.3022176448877
 20
442.4279987948687
 30
0.0
 11
-463.3322551871527
 21
442.4161961570006
 31
0.0
  0
LINE
  5
8B
  8
0
  6
CONTINUOUS
 62
     7
 10
-463.3322551871527
 20
442.4161961570006
 30
0.0
 11
-463.366139453557
 21
442.4054692147912
 31
0.0
  0
LINE
  5
8C
  8
0
  6
CONTINUOUS
 62
     7
 10
-463.366139453557
 20
442.4054692147912
 30
0.0
 11
-463.4004427495229
 21
442.3972299913477
 31
0.0
  0
LINE
  5
8D
  8
0
  6
CONTINUOUS
 62
     7
 10
-463.4004427495229
 20
442.3972299913477
 30
0.0
 11
-463.4215759353967
 21
442.3934059939498
 31
0.0
  0
LINE
  5
8E
  8
0
  6
CONTINUOUS
 62
     7
 10
-463.4215759353967
 20
442.3934059939498
 30
0.0
 11
-463.4429125480744
 21
442.3904877753005
 31
0.0
  0
LINE
  5
8F
  8
0
  6
CONTINUOUS
 62
     7
 10
-463.4429125480744
 20
442.3904877753005
 30
0.0
 11
-463.4674686884611
 21
442.388277515982
 31
0.0
  0
LINE
  5
90
  8
0
  6
CONTINUOUS
 62
     7
 10
-463.4674686884611
 20
442.388277515982
 30
0.0
 11
-463.4722256579739
 21
442.3879889796273
 31
0.0
  0
LINE
  5
91
  8
0
  6
CONTINUOUS
 62
     7
 10
-463.4722256579739
 20
442.3879889796273
 30
0.0
 11
-463.4770791937477
 21
442.3877416944843
 31
0.0
  0
LINE
  5
92
  8
0
  6
CONTINUOUS
 62
     7
 10
-463.4770791937477
 20
442.3877416944843
 30
0.0
 11
-463.4821020560126
 21
442.3875373724561
 31
0.0
  0
LINE
  5
93
  8
0
  6
CONTINUOUS
 62
     7
 10
-463.4821020560126
 20
442.3875373724561
 30
0.0
 11
-463.4873670049985
 21
442.3873777254457
 31
0.0
  0
LINE
  5
94
  8
0
  6
CONTINUOUS
 62
     7
 10
-463.4873670049985
 20
442.3873777254457
 30
0.0
 11
-463.4887849501761
 21
442.3873438900433
 31
0.0
  0
LINE
  5
95
  8
0
  6
CONTINUOUS
 62
     7
 10
-463.4887849501761
 20
442.3873438900433
 30
0.0
 11
-463.4902365969394
 21
442.387313416688
 31
0.0
  0
LINE
  5
96
  8
0
  6
CONTINUOUS
 62
     7
 10
-463.4902365969394
 20
442.387313416688
 30
0.0
 11
-463.49172267326
 21
442.3872866022355
 31
0.0
  0
LINE
  5
97
  8
0
  6
CONTINUOUS
 62
     7
 10
-463.49172267326
 20
442.3872866022355
 30
0.0
 11
-463.4932439071094
 21
442.3872637435416
 31
0.0
  0
LINE
  5
98
  8
0
  6
CONTINUOUS
 62
     7
 10
-463.4932439071094
 20
442.3872637435416
 30
0.0
 11
-463.4948010264594
 21
442.3872451374615
 31
0.0
  0
LINE
  5
99
  8
0
  6
CONTINUOUS
 62
     7
 10
-463.4948010264594
 20
442.3872451374615
 30
0.0
 11
-463.4956463496492
 21
442.38723708266
 31
0.0
  0
LINE
  5
9A
  8
0
  6
CONTINUOUS
 62
     7
 10
-463.4956463496492
 20
442.38723708266
 30
0.0
 11
-463.49650403473
 21
442.387230382373
 31
0.0
  0
LINE
  5
9B
  8
0
  6
CONTINUOUS
 62
     7
 10
-463.49650403473
 20
442.387230382373
 30
0.0
 11
-463.4973711620034
 21
442.3872250856522
 31
0.0
  0
LINE
  5
9C
  8
0
  6
CONTINUOUS
 62
     7
 10
-463.4973711620034
 20
442.3872250856522
 30
0.0
 11
-463.4982448117717
 21
442.3872212415494
 31
0.0
  0
LINE
  5
9D
  8
0
  6
CONTINUOUS
 62
     7
 10
-463.4982448117717
 20
442.3872212415494
 30
0.0
 11
-463.4991220643366
 21
442.3872188991165
 31
0.0
  0
LINE
  5
9E
  8
0
  6
CONTINUOUS
 62
     7
 10
-463.4991220643366
 20
442.3872188991165
 30
0.0
 11
-463.4999999999999
 21
442.3872181074051
 31
0.0
  0
LINE
  5
9F
  8
0
  6
CONTINUOUS
 62
     7
 10
-396.4999999999999
 20
442.3872181074051
 30
0.0
 11
-396.5008007625199
 21
442.3872187549851
 31
0.0
  0
LINE
  5
A0
  8
0
  6
CONTINUOUS
 62
     7
 10
-396.5008007625199
 20
442.3872187549851
 30
0.0
 11
-396.5016004827654
 21
442.3872206802384
 31
0.0
  0
LINE
  5
A1
  8
0
  6
CONTINUOUS
 62
     7
 10
-396.5016004827654
 20
442.3872206802384
 30
0.0
 11
-396.5023964907094
 21
442.3872238569352
 31
0.0
  0
LINE
  5
A2
  8
0
  6
CONTINUOUS
 62
     7
 10
-396.5023964907094
 20
442.3872238569352
 30
0.0
 11
-396.5031861163245
 21
442.3872282588454
 31
0.0
  0
LINE
  5
A3
  8
0
  6
CONTINUOUS
 62
     7
 10
-396.5031861163245
 20
442.3872282588454
 30
0.0
 11
-396.5039955608239
 21
442.3872340750311
 31
0.0
  0
LINE
  5
A4
  8
0
  6
CONTINUOUS
 62
     7
 10
-396.5039955608239
 20
442.3872340750311
 30
0.0
 11
-396.5047972413432
 21
442.3872411265226
 31
0.0
  0
LINE
  5
A5
  8
0
  6
CONTINUOUS
 62
     7
 10
-396.5047972413432
 20
442.3872411265226
 30
0.0
 11
-396.5055898884343
 21
442.3872493580648
 31
0.0
  0
LINE
  5
A6
  8
0
  6
CONTINUOUS
 62
     7
 10
-396.5055898884343
 20
442.3872493580648
 30
0.0
 11
-396.506372232649
 21
442.3872587144029
 31
0.0
  0
LINE
  5
A7
  8
0
  6
CONTINUOUS
 62
     7
 10
-396.506372232649
 20
442.3872587144029
 30
0.0
 11
-396.5085885896783
 21
442.3872917238228
 31
0.0
  0
LINE
  5
A8
  8
0
  6
CONTINUOUS
 62
     7
 10
-396.5085885896783
 20
442.3872917238228
 30
0.0
 11
-396.5107329962373
 21
442.3873329313336
 31
0.0
  0
LINE
  5
A9
  8
0
  6
CONTINUOUS
 62
     7
 10
-396.5107329962373
 20
442.3873329313336
 30
0.0
 11
-396.5128129470901
 21
442.3873818226421
 31
0.0
  0
LINE
  5
AA
  8
0
  6
CONTINUOUS
 62
     7
 10
-396.5128129470901
 20
442.3873818226421
 30
0.0
 11
-396.514835937002
 21
442.3874378834551
 31
0.0
  0
LINE
  5
AB
  8
0
  6
CONTINUOUS
 62
     7
 10
-396.514835937002
 20
442.3874378834551
 30
0.0
 11
-396.5168094607369
 21
442.3875005994794
 31
0.0
  0
LINE
  5
AC
  8
0
  6
CONTINUOUS
 62
     7
 10
-396.5168094607369
 20
442.3875005994794
 30
0.0
 11
-396.5187410130598
 21
442.3875694564217
 31
0.0
  0
LINE
  5
AD
  8
0
  6
CONTINUOUS
 62
     7
 10
-396.5187410130598
 20
442.3875694564217
 30
0.0
 11
-396.5352656977603
 21
442.3884512752554
 31
0.0
  0
LINE
  5
AE
  8
0
  6
CONTINUOUS
 62
     7
 10
-396.5352656977603
 20
442.3884512752554
 30
0.0
 11
-396.5509345470551
 21
442.3898073295895
 31
0.0
  0
LINE
  5
AF
  8
0
  6
CONTINUOUS
 62
     7
 10
-396.5509345470551
 20
442.3898073295895
 30
0.0
 11
-396.5662848337538
 21
442.391631262529
 31
0.0
  0
LINE
  5
B0
  8
0
  6
CONTINUOUS
 62
     7
 10
-396.5662848337538
 20
442.391631262529
 30
0.0
 11
-396.5970678728766
 21
442.3967213813633
 31
0.0
  0
LINE
  5
B1
  8
0
  6
CONTINUOUS
 62
     7
 10
-396.5970678728766
 20
442.3967213813633
 30
0.0
 11
-396.627588599458
 21
442.4037457169985
 31
0.0
  0
LINE
  5
B2
  8
0
  6
CONTINUOUS
 62
     7
 10
-396.627588599458
 20
442.4037457169985
 30
0.0
 11
-396.6577749372731
 21
442.4127299362765
 31
0.0
  0
LINE
  5
B3
  8
0
  6
CONTINUOUS
 62
     7
 10
-396.6577749372731
 20
442.4127299362765
 30
0.0
 11
-396.6875548100967
 21
442.4236997060394
 31
0.0
  0
LINE
  5
B4
  8
0
  6
CONTINUOUS
 62
     7
 10
-396.6875548100967
 20
442.4236997060394
 30
0.0
 11
-396.7168561417043
 21
442.4366806931295
 31
0.0
  0
LINE
  5
B5
  8
0
  6
CONTINUOUS
 62
     7
 10
-396.7168561417043
 20
442.4366806931295
 30
0.0
 11
-396.7456068558709
 21
442.4516985643887
 31
0.0
  0
LINE
  5
B6
  8
0
  6
CONTINUOUS
 62
     7
 10
-396.7456068558709
 20
442.4516985643887
 30
0.0
 11
-396.7666566782979
 21
442.4642594522305
 31
0.0
  0
LINE
  5
B7
  8
0
  6
CONTINUOUS
 62
     7
 10
-396.7666566782979
 20
442.4642594522305
 30
0.0
 11
-396.7873428901428
 21
442.4780312964276
 31
0.0
  0
LINE
  5
B8
  8
0
  6
CONTINUOUS
 62
     7
 10
-396.7873428901428
 20
442.4780312964276
 30
0.0
 11
-396.8075925673667
 21
442.4930268304649
 31
0.0
  0
LINE
  5
B9
  8
0
  6
CONTINUOUS
 62
     7
 10
-396.8075925673667
 20
442.4930268304649
 30
0.0
 11
-396.8273327859302
 21
442.509258787828
 31
0.0
  0
LINE
  5
BA
  8
0
  6
CONTINUOUS
 62
     7
 10
-396.8273327859302
 20
442.509258787828
 30
0.0
 11
-396.8432679707934
 21
442.5236719256766
 31
0.0
  0
LINE
  5
BB
  8
0
  6
CONTINUOUS
 62
     7
 10
-396.8432679707934
 20
442.5236719256766
 30
0.0
 11
-396.8588031712316
 21
442.5389975210041
 31
0.0
  0
LINE
  5
BC
  8
0
  6
CONTINUOUS
 62
     7
 10
-396.8588031712316
 20
442.5389975210041
 30
0.0
 11
-396.8738748338306
 21
442.5552315592628
 31
0.0
  0
LINE
  5
BD
  8
0
  6
CONTINUOUS
 62
     7
 10
-396.8738748338306
 20
442.5552315592628
 30
0.0
 11
-396.8884194051764
 21
442.5723700259047
 31
0.0
  0
LINE
  5
BE
  8
0
  6
CONTINUOUS
 62
     7
 10
-396.8884194051764
 20
442.5723700259047
 30
0.0
 11
-396.902373331855
 21
442.590408906382
 31
0.0
  0
LINE
  5
BF
  8
0
  6
CONTINUOUS
 62
     7
 10
-396.902373331855
 20
442.590408906382
 30
0.0
 11
-396.9149003109871
 21
442.6082011820692
 31
0.0
  0
LINE
  5
C0
  8
0
  6
CONTINUOUS
 62
     7
 10
-396.9149003109871
 20
442.6082011820692
 30
0.0
 11
-396.9268492644008
 21
442.6268698078549
 31
0.0
  0
LINE
  5
C1
  8
0
  6
CONTINUOUS
 62
     7
 10
-396.9268492644008
 20
442.6268698078549
 30
0.0
 11
-396.9381428439117
 21
442.646370132545
 31
0.0
  0
LINE
  5
C2
  8
0
  6
CONTINUOUS
 62
     7
 10
-396.9381428439117
 20
442.646370132545
 30
0.0
 11
-396.9487037013355
 21
442.6666575049451
 31
0.0
  0
LINE
  5
C3
  8
0
  6
CONTINUOUS
 62
     7
 10
-396.9487037013355
 20
442.6666575049451
 30
0.0
 11
-396.958454488488
 21
442.6876872738613
 31
0.0
  0
LINE
  5
C4
  8
0
  6
CONTINUOUS
 62
     7
 10
-396.958454488488
 20
442.6876872738613
 30
0.0
 11
-396.9673178571849
 21
442.7094147880993
 31
0.0
  0
LINE
  5
C5
  8
0
  6
CONTINUOUS
 62
     7
 10
-396.9673178571849
 20
442.7094147880993
 30
0.0
 11
-396.9724375990234
 21
442.7235057296151
 31
0.0
  0
LINE
  5
C6
  8
0
  6
CONTINUOUS
 62
     7
 10
-396.9724375990234
 20
442.7235057296151
 30
0.0
 11
-396.9771740068978
 21
442.7378754111135
 31
0.0
  0
LINE
  5
C7
  8
0
  6
CONTINUOUS
 62
     7
 10
-396.9771740068978
 20
442.7378754111135
 30
0.0
 11
-396.981507011002
 21
442.7524960626252
 31
0.0
  0
LINE
  5
C8
  8
0
  6
CONTINUOUS
 62
     7
 10
-396.981507011002
 20
442.7524960626252
 30
0.0
 11
-396.9854165415293
 21
442.7673399141808
 31
0.0
  0
LINE
  5
C9
  8
0
  6
CONTINUOUS
 62
     7
 10
-396.9854165415293
 20
442.7673399141808
 30
0.0
 11
-396.9889782394372
 21
442.7828211248498
 31
0.0
  0
LINE
  5
CA
  8
0
  6
CONTINUOUS
 62
     7
 10
-396.9889782394372
 20
442.7828211248498
 30
0.0
 11
-396.9920669671958
 21
442.7985200699415
 31
0.0
  0
LINE
  5
CB
  8
0
  6
CONTINUOUS
 62
     7
 10
-396.9920669671958
 20
442.7985200699415
 30
0.0
 11
-396.9946666552384
 21
442.8143940046604
 31
0.0
  0
LINE
  5
CC
  8
0
  6
CONTINUOUS
 62
     7
 10
-396.9946666552384
 20
442.8143940046604
 30
0.0
 11
-396.9967612339987
 21
442.8304001842109
 31
0.0
  0
LINE
  5
CD
  8
0
  6
CONTINUOUS
 62
     7
 10
-396.9967612339987
 20
442.8304001842109
 30
0.0
 11
-396.9981723906803
 21
442.8445194013986
 31
0.0
  0
LINE
  5
CE
  8
0
  6
CONTINUOUS
 62
     7
 10
-396.9981723906803
 20
442.8445194013986
 30
0.0
 11
-396.999185149883
 21
442.8587181346119
 31
0.0
  0
LINE
  5
CF
  8
0
  6
CONTINUOUS
 62
     7
 10
-396.999185149883
 20
442.8587181346119
 30
0.0
 11
-396.9997956426436
 21
442.8729623734231
 31
0.0
  0
LINE
  5
D0
  8
0
  6
CONTINUOUS
 62
     7
 10
-396.9997956426436
 20
442.8729623734231
 30
0.0
 11
-396.9999999999999
 21
442.887218107405
 31
0.0
  0
LINE
  5
D1
  8
0
  6
CONTINUOUS
 62
     7
 10
-396.9999999999999
 20
348.0906537485928
 30
0.0
 11
-396.9999999999999
 21
347.2090188450505
 31
0.0
  0
LINE
  5
D2
  8
0
  6
CONTINUOUS
 62
     7
 10
-398.9999999999999
 20
383.0055832038627
 30
0.0
 11
-414.9999999999999
 21
383.0055832038627
 31
0.0
  0
LINE
  5
D3
  8
0
  6
CONTINUOUS
 62
     7
 10
-416.9999999999999
 20
347.2090188450505
 30
0.0
 11
-416.9999999999999
 21
348.0906537485928
 31
0.0
  0
LINE
  5
D4
  8
0
  6
CONTINUOUS
 62
     7
 10
-462.9999999999999
 20
410.8872181074051
 30
0.0
 11
-462.9999999999999
 21
385.5654173697596
 31
0.0
  0
LINE
  5
D5
  8
0
  6
CONTINUOUS
 62
     7
 10
-444.9999999999999
 20
463.8872181074051
 30
0.0
 11
-460.9999999999999
 21
463.8872181074051
 31
0.0
  0
LINE
  5
D6
  8
0
  6
CONTINUOUS
 62
     7
 10
-442.9999999999999
 20
385.5654173697596
 30
0.0
 11
-442.9999999999999
 21
410.8872181074051
 31
0.0
  0
LINE
  5
D7
  8
0
  6
CONTINUOUS
 62
     7
 10
-396.9999999999999
 20
385.5654173697596
 30
0.0
 11
-396.9999999999999
 21
410.8872181074051
 31
0.0
  0
LINE
  5
D8
  8
0
  6
CONTINUOUS
 62
     7
 10
-442.9999999999999
 20
321.8872181074051
 30
0.0
 11
-442.9999999999999
 21
347.2090188450505
 31
0.0
  0
LINE
  5
D9
  8
0
  6
CONTINUOUS
 62
     7
 10
-396.9999999999999
 20
410.8872181074051
 30
0.0
 11
-396.9999999999999
 21
461.8872181074051
 31
0.0
  0
ARC
  5
DA
  8
0
  6
CONTINUOUS
 62
     7
 10
-398.9999999999999
 20
461.8872181074051
 30
0.0
 40
2.000000000000002
 50
0.0
 51
90.0
  0
LINE
  5
DB
  8
0
  6
CONTINUOUS
 62
     7
 10
-396.9999999999999
 20
298.5336511084948
 30
0.0
 11
-396.9999999999999
 21
321.8872181074051
 31
0.0
  0
LINE
  5
DC
  8
0
  6
CONTINUOUS
 62
     7
 10
-442.9999999999999
 20
292.2198047814352
 30
0.0
 11
-442.9999999999999
 21
321.8872181074051
 31
0.0
  0
ARC
  5
DD
  8
0
  6
CONTINUOUS
 62
     7
 10
-460.9999999999999
 20
461.8872181074051
 30
0.0
 40
2.000000000000002
 50
90.0
 51
180.0
  0
ARC
  5
DE
  8
0
  6
CONTINUOUS
 62
     7
 10
-444.9999999999999
 20
461.8872181074051
 30
0.0
 40
2.000000000000002
 50
359.9999999999987
 51
90.0
  0
LINE
  5
DF
  8
0
  6
CONTINUOUS
 62
     7
 10
-462.9999999999999
 20
321.8872181074051
 30
0.0
 11
-462.9999999999999
 21
298.5336511084948
 31
0.0
  0
LINE
  5
E0
  8
0
  6
CONTINUOUS
 62
     7
 10
-416.9999999999999
 20
410.8872181074051
 30
0.0
 11
-416.9999999999999
 21
385.5654173697596
 31
0.0
  0
LINE
  5
E1
  8
0
  6
CONTINUOUS
 62
     7
 10
-416.9999999999999
 20
321.8872181074051
 30
0.0
 11
-416.9999999999999
 21
292.2198047814352
 31
0.0
  0
LINE
  5
E2
  8
0
  6
CONTINUOUS
 62
     7
 10
-444.9999999999999
 20
349.7688530109474
 30
0.0
 11
-460.9999999999999
 21
349.7688530109474
 31
0.0
  0
LINE
  5
E3
  8
0
  6
CONTINUOUS
 62
     7
 10
-442.9999999999999
 20
384.6837824662173
 30
0.0
 11
-442.9999999999999
 21
385.5654173697596
 31
0.0
  0
POLYLINE
  5
E4
  8
0
  6
CONTINUOUS
 62
     7
 66
     1
 10
0.0
 20
0.0
 30
0.0
  0
VERTEX
  5
24F
  8
0
  6
CONTINUOUS
 62
     7
 10
-444.9999999999998
 20
383.0055832038627
 30
0.0
  0
VERTEX
  5
250
  8
0
  6
CONTINUOUS
 62
     7
 10
-444.6098193559676
 20
383.0378293321164
 30
0.0
  0
VERTEX
  5
251
  8
0
  6
CONTINUOUS
 62
     7
 10
-444.2346331352697
 20
383.1333285162524
 30
0.0
  0
VERTEX
  5
252
  8
0
  6
CONTINUOUS
 62
     7
 10
-443.8888595339607
 20
383.2884107761809
 30
0.0
  0
VERTEX
  5
253
  8
0
  6
CONTINUOUS
 62
     7
 10
-443.5857864376268
 20
383.4971163876241
 30
0.0
  0
VERTEX
  5
254
  8
0
  6
CONTINUOUS
 62
     7
 10
-443.3370607753948
 20
383.7514249109777
 30
0.0
  0
VERTEX
  5
255
  8
0
  6
CONTINUOUS
 62
     7
 10
-443.1522409349773
 20
384.0415634123069
 30
0.0
  0
VERTEX
  5
256
  8
0
  6
CONTINUOUS
 62
     7
 10
-443.0384294391934
 20
384.3563820317173
 30
0.0
  0
VERTEX
  5
257
  8
0
  6
CONTINUOUS
 62
     7
 10
-442.9999999999999
 20
384.6837824662173
 30
0.0
  0
SEQEND
  5
2DF
  8
0
  6
CONTINUOUS
 62
     7
  0
LINE
  5
E5
  8
0
  6
CONTINUOUS
 62
     7
 10
-398.9999999999999
 20
463.8872181074051
 30
0.0
 11
-414.9999999999999
 21
463.8872181074051
 31
0.0
  0
LINE
  5
E6
  8
0
  6
CONTINUOUS
 62
     7
 10
-396.9999999999999
 20
384.6837824662173
 30
0.0
 11
-396.9999999999999
 21
385.5654173697596
 31
0.0
  0
LINE
  5
E7
  8
0
  6
CONTINUOUS
 62
     7
 10
-396.9999999999999
 20
321.8872181074051
 30
0.0
 11
-396.9999999999999
 21
347.2090188450505
 31
0.0
  0
LINE
  5
E8
  8
0
  6
CONTINUOUS
 62
     7
 10
-462.9999999999999
 20
461.8872181074051
 30
0.0
 11
-462.9999999999999
 21
410.8872181074051
 31
0.0
  0
ARC
  5
E9
  8
0
  6
CONTINUOUS
 62
     7
 10
-414.9999999999999
 20
461.8872181074051
 30
0.0
 40
2.000000000000002
 50
90.0
 51
180.0
  0
LINE
  5
EA
  8
0
  6
CONTINUOUS
 62
     7
 10
-462.9999999999999
 20
347.2090188450505
 30
0.0
 11
-462.9999999999999
 21
321.887218107405
 31
0.0
  0
LINE
  5
EB
  8
0
  6
CONTINUOUS
 62
     7
 10
-398.9999999999999
 20
349.7688530109474
 30
0.0
 11
-414.9999999999999
 21
349.7688530109474
 31
0.0
  0
LINE
  5
EC
  8
0
  6
CONTINUOUS
 62
     7
 10
-416.9999999999999
 20
461.8872181074051
 30
0.0
 11
-416.9999999999999
 21
410.8872181074051
 31
0.0
  0
POLYLINE
  5
ED
  8
0
  6
CONTINUOUS
 62
     7
 66
     1
 10
0.0
 20
0.0
 30
0.0
  0
VERTEX
  5
258
  8
0
  6
CONTINUOUS
 62
     7
 10
-398.9999999999999
 20
383.0055832038627
 30
0.0
  0
VERTEX
  5
259
  8
0
  6
CONTINUOUS
 62
     7
 10
-398.6098193559676
 20
383.0378293321164
 30
0.0
  0
VERTEX
  5
25A
  8
0
  6
CONTINUOUS
 62
     7
 10
-398.2346331352697
 20
383.1333285162524
 30
0.0
  0
VERTEX
  5
25B
  8
0
  6
CONTINUOUS
 62
     7
 10
-397.8888595339607
 20
383.2884107761809
 30
0.0
  0
VERTEX
  5
25C
  8
0
  6
CONTINUOUS
 62
     7
 10
-397.5857864376268
 20
383.4971163876241
 30
0.0
  0
VERTEX
  5
25D
  8
0
  6
CONTINUOUS
 62
     7
 10
-397.3370607753948
 20
383.7514249109776
 30
0.0
  0
VERTEX
  5
25E
  8
0
  6
CONTINUOUS
 62
     7
 10
-397.1522409349773
 20
384.0415634123069
 30
0.0
  0
VERTEX
  5
25F
  8
0
  6
CONTINUOUS
 62
     7
 10
-397.0384294391934
 20
384.3563820317173
 30
0.0
  0
VERTEX
  5
260
  8
0
  6
CONTINUOUS
 62
     7
 10
-396.9999999999999
 20
384.6837824662173
 30
0.0
  0
SEQEND
  5
2E0
  8
0
  6
CONTINUOUS
 62
     7
  0
POLYLINE
  5
EE
  8
0
  6
CONTINUOUS
 62
     7
 66
     1
 10
0.0
 20
0.0
 30
0.0
  0
VERTEX
  5
261
  8
0
  6
CONTINUOUS
 62
     7
 10
-396.9999999999999
 20
348.0906537485928
 30
0.0
  0
VERTEX
  5
262
  8
0
  6
CONTINUOUS
 62
     7
 10
-397.0384294391934
 20
348.4180541830927
 30
0.0
  0
VERTEX
  5
263
  8
0
  6
CONTINUOUS
 62
     7
 10
-397.1522409349773
 20
348.7328728025032
 30
0.0
  0
VERTEX
  5
264
  8
0
  6
CONTINUOUS
 62
     7
 10
-397.3370607753948
 20
349.0230113038324
 30
0.0
  0
VERTEX
  5
265
  8
0
  6
CONTINUOUS
 62
     7
 10
-397.5857864376268
 20
349.277319827186
 30
0.0
  0
VERTEX
  5
266
  8
0
  6
CONTINUOUS
 62
     7
 10
-397.8888595339607
 20
349.4860254386292
 30
0.0
  0
VERTEX
  5
267
  8
0
  6
CONTINUOUS
 62
     7
 10
-398.2346331352697
 20
349.6411076985577
 30
0.0
  0
VERTEX
  5
268
  8
0
  6
CONTINUOUS
 62
     7
 10
-398.6098193559676
 20
349.7366068826937
 30
0.0
  0
VERTEX
  5
269
  8
0
  6
CONTINUOUS
 62
     7
 10
-398.9999999999999
 20
349.7688530109473
 30
0.0
  0
SEQEND
  5
2E1
  8
0
  6
CONTINUOUS
 62
     7
  0
LINE
  5
EF
  8
0
  6
CONTINUOUS
 62
     7
 10
-442.9999999999999
 20
347.2090188450505
 30
0.0
 11
-442.9999999999999
 21
348.0906537485928
 31
0.0
  0
POLYLINE
  5
F0
  8
0
  6
CONTINUOUS
 62
     7
 66
     1
 10
0.0
 20
0.0
 30
0.0
  0
VERTEX
  5
26A
  8
0
  6
CONTINUOUS
 62
     7
 10
-442.9999999999999
 20
348.0906537485928
 30
0.0
  0
VERTEX
  5
26B
  8
0
  6
CONTINUOUS
 62
     7
 10
-443.0384294391934
 20
348.4180541830927
 30
0.0
  0
VERTEX
  5
26C
  8
0
  6
CONTINUOUS
 62
     7
 10
-443.1522409349773
 20
348.7328728025032
 30
0.0
  0
VERTEX
  5
26D
  8
0
  6
CONTINUOUS
 62
     7
 10
-443.3370607753948
 20
349.0230113038324
 30
0.0
  0
VERTEX
  5
26E
  8
0
  6
CONTINUOUS
 62
     7
 10
-443.5857864376268
 20
349.2773198271859
 30
0.0
  0
VERTEX
  5
26F
  8
0
  6
CONTINUOUS
 62
     7
 10
-443.8888595339607
 20
349.4860254386292
 30
0.0
  0
VERTEX
  5
270
  8
0
  6
CONTINUOUS
 62
     7
 10
-444.2346331352697
 20
349.6411076985577
 30
0.0
  0
VERTEX
  5
271
  8
0
  6
CONTINUOUS
 62
     7
 10
-444.6098193559676
 20
349.7366068826937
 30
0.0
  0
VERTEX
  5
272
  8
0
  6
CONTINUOUS
 62
     7
 10
-444.9999999999998
 20
349.7688530109473
 30
0.0
  0
SEQEND
  5
2E2
  8
0
  6
CONTINUOUS
 62
     7
  0
LINE
  5
F1
  8
0
  6
CONTINUOUS
 62
     7
 10
-416.9999999999999
 20
347.2090188450505
 30
0.0
 11
-416.9999999999999
 21
321.887218107405
 31
0.0
  0
LINE
  5
F2
  8
0
  6
CONTINUOUS
 62
     7
 10
-442.9999999999999
 20
410.8872181074051
 30
0.0
 11
-442.9999999999999
 21
461.8872181074051
 31
0.0
  0
LINE
  5
F3
  8
0
  6
CONTINUOUS
 62
     7
 10
-442.9999999999999
 20
291.1127818925949
 30
0.0
 11
-442.9999999999999
 21
292.2198047814352
 31
0.0
  0
LINE
  5
F4
  8
0
  6
CONTINUOUS
 62
     7
 10
-473.9999999999999
 20
326.887218107405
 30
0.0
 11
-473.9999999999999
 21
304.3840882718715
 31
0.0
  0
LINE
  5
F5
  8
0
  6
CONTINUOUS
 62
     7
 10
-396.9999999999999
 20
348.0906537485928
 30
0.0
 11
-396.9999999999999
 21
384.6837824662173
 31
0.0
  0
LINE
  5
F6
  8
0
  6
CONTINUOUS
 62
     7
 10
-473.3424985658467
 20
442.3267364586856
 30
0.0
 11
-472.9999999999999
 21
442.3872181074051
 31
0.0
  0
LINE
  5
F7
  8
0
  6
CONTINUOUS
 62
     7
 10
-387.0
 20
442.386965639601
 30
0.0
 11
-397.0
 21
442.386965639601
 31
0.0
  0
LINE
  5
F8
  8
0
  6
CONTINUOUS
 62
     7
 10
-386.65236823609
 20
442.3248492484839
 30
0.0
 11
-386.4041316137336
 21
442.1903002117059
 31
0.0
  0
ARC
  5
F9
  8
0
  6
CONTINUOUS
 62
     7
 10
-441.9999999999999
 20
443.3872181074051
 30
0.0
 40
1.000000000000001
 50
180.0
 51
270.0
  0
LINE
  5
FA
  8
0
  6
CONTINUOUS
 62
     7
 10
-462.9999999999999
 20
442.386965639601
 30
0.0
 11
-472.9999999999999
 21
442.386965639601
 31
0.0
  0
LINE
  5
FB
  8
0
  6
CONTINUOUS
 62
     7
 10
-386.4041316137335
 20
442.1903002117059
 30
0.0
 11
-386.6588671922881
 21
442.3271106771941
 31
0.0
  0
POLYLINE
  5
FC
  8
0
  6
CONTINUOUS
 62
     7
 66
     1
 10
0.0
 20
0.0
 30
0.0
  0
VERTEX
  5
273
  8
0
  6
CONTINUOUS
 62
     7
 10
-460.9999999999998
 20
349.7688530109473
 30
0.0
  0
VERTEX
  5
274
  8
0
  6
CONTINUOUS
 62
     7
 10
-461.3901806440321
 20
349.7366068826937
 30
0.0
  0
VERTEX
  5
275
  8
0
  6
CONTINUOUS
 62
     7
 10
-461.76536686473
 20
349.6411076985577
 30
0.0
  0
VERTEX
  5
276
  8
0
  6
CONTINUOUS
 62
     7
 10
-462.111140466039
 20
349.4860254386292
 30
0.0
  0
VERTEX
  5
277
  8
0
  6
CONTINUOUS
 62
     7
 10
-462.4142135623729
 20
349.277319827186
 30
0.0
  0
VERTEX
  5
278
  8
0
  6
CONTINUOUS
 62
     7
 10
-462.6629392246049
 20
349.0230113038324
 30
0.0
  0
VERTEX
  5
279
  8
0
  6
CONTINUOUS
 62
     7
 10
-462.8477590650224
 20
348.7328728025032
 30
0.0
  0
VERTEX
  5
27A
  8
0
  6
CONTINUOUS
 62
     7
 10
-462.9615705608064
 20
348.4180541830927
 30
0.0
  0
VERTEX
  5
27B
  8
0
  6
CONTINUOUS
 62
     7
 10
-462.9999999999999
 20
348.0906537485928
 30
0.0
  0
SEQEND
  5
2E3
  8
0
  6
CONTINUOUS
 62
     7
  0
LINE
  5
FD
  8
0
  6
CONTINUOUS
 62
     7
 10
-442.9999999999999
 20
302.2539119029267
 30
0.0
 11
-442.9861969343734
 21
302.3668997142875
 31
0.0
  0
LINE
  5
FE
  8
0
  6
CONTINUOUS
 62
     7
 10
-442.9861969343734
 20
302.3668997142875
 30
0.0
 11
-442.9435773072302
 21
302.4798875256483
 31
0.0
  0
LINE
  5
FF
  8
0
  6
CONTINUOUS
 62
     7
 10
-442.9435773072302
 20
302.4798875256483
 30
0.0
 11
-442.8757151401986
 21
302.5833906149784
 31
0.0
  0
LINE
  5
100
  8
0
  6
CONTINUOUS
 62
     7
 10
-442.8757151401986
 20
302.5833906149784
 30
0.0
 11
-442.8067708247531
 21
302.6571141060094
 31
0.0
  0
LINE
  5
101
  8
0
  6
CONTINUOUS
 62
     7
 10
-442.8067708247531
 20
302.6571141060094
 30
0.0
 11
-442.7262319050732
 21
302.7230246018118
 31
0.0
  0
LINE
  5
102
  8
0
  6
CONTINUOUS
 62
     7
 10
-442.7262319050732
 20
302.7230246018118
 30
0.0
 11
-442.6340048121768
 21
302.781628614687
 31
0.0
  0
ARC
  5
103
  8
0
  6
CONTINUOUS
 62
     7
 10
-442.0130895596475
 20
301.6133052773885
 30
0.0
 40
1.323070357652927
 50
89.43314521858976
 51
117.9887858932636
  0
LINE
  5
104
  8
0
  6
CONTINUOUS
 62
     7
 10
-386.6588671922881
 20
442.3271106771941
 30
0.0
 11
-387.0
 21
442.386965639601
 31
0.0
  0
ARC
  5
105
  8
0
  6
CONTINUOUS
 62
     7
 10
-387.0
 20
441.3872181074051
 30
0.0
 40
0.9999999999999893
 50
0.0
 51
53.42543782666633
  0
LINE
  5
106
  8
0
  6
CONTINUOUS
 62
     7
 10
-473.9999999999999
 20
405.8872181074051
 30
0.0
 11
-473.9999999999999
 21
326.887218107405
 31
0.0
  0
LINE
  5
107
  8
0
  6
CONTINUOUS
 62
     7
 10
-396.9999999999999
 20
303.3840882718715
 30
0.0
 11
-386.9999999999999
 21
303.3840882718715
 31
0.0
  0
LINE
  5
108
  8
0
  6
CONTINUOUS
 62
     7
 10
-386.0
 20
405.8872181074051
 30
0.0
 11
-386.0
 21
441.3872181074051
 31
0.0
  0
LINE
  5
109
  8
0
  6
CONTINUOUS
 62
     7
 10
-462.9999999999999
 20
348.0906537485928
 30
0.0
 11
-462.9999999999999
 21
347.2090188450505
 31
0.0
  0
LINE
  5
10A
  8
0
  6
CONTINUOUS
 62
     7
 10
-416.9999999999999
 20
291.1127818925949
 30
0.0
 11
-416.9999999999999
 21
292.2198047814352
 31
0.0
  0
ARC
  5
10B
  8
0
  6
CONTINUOUS
 62
     7
 10
-417.9800137422249
 20
301.6515060607502
 30
0.0
 40
1.284960265517921
 50
58.73477541921432
 51
90.89121385878634
  0
LINE
  5
10C
  8
0
  6
CONTINUOUS
 62
     7
 10
-417.3131188424397
 20
302.7498566771748
 30
0.0
 11
-417.2272476878648
 21
302.6870328265655
 31
0.0
  0
LINE
  5
10D
  8
0
  6
CONTINUOUS
 62
     7
 10
-417.2272476878648
 20
302.6870328265655
 30
0.0
 11
-417.1523322871691
 21
302.6159406399624
 31
0.0
  0
LINE
  5
10E
  8
0
  6
CONTINUOUS
 62
     7
 10
-417.1523322871691
 20
302.6159406399624
 30
0.0
 11
-417.0762222817074
 21
302.5152198059852
 31
0.0
  0
LINE
  5
10F
  8
0
  6
CONTINUOUS
 62
     7
 10
-417.0762222817074
 20
302.5152198059852
 30
0.0
 11
-417.0245167965169
 21
302.4040882592016
 31
0.0
  0
LINE
  5
110
  8
0
  6
CONTINUOUS
 62
     7
 10
-417.0245167965169
 20
302.4040882592016
 30
0.0
 11
-417.0027690915983
 21
302.3046506566752
 31
0.0
  0
LINE
  5
111
  8
0
  6
CONTINUOUS
 62
     7
 10
-417.0027690915983
 20
302.3046506566752
 30
0.0
 11
-416.9999999999999
 21
302.2539119029267
 31
0.0
  0
LINE
  5
112
  8
0
  6
CONTINUOUS
 62
     7
 10
-462.9999999999999
 20
298.5336511084948
 30
0.0
 11
-462.9999999999999
 21
293.1127818925949
 31
0.0
  0
LINE
  5
113
  8
0
  6
CONTINUOUS
 62
     7
 10
-444.9999999999999
 20
383.0055832038627
 30
0.0
 11
-460.9999999999999
 21
383.0055832038627
 31
0.0
  0
LINE
  5
114
  8
0
  6
CONTINUOUS
 62
     7
 10
-396.9999999999999
 20
293.1127818925949
 30
0.0
 11
-396.9999999999999
 21
298.5336511084948
 31
0.0
  0
LINE
  5
115
  8
0
  6
CONTINUOUS
 62
     7
 10
-473.5958683862668
 20
442.1903002117057
 30
0.0
 11
-473.3424985658467
 21
442.3267364586857
 31
0.0
  0
ARC
  5
116
  8
0
  6
CONTINUOUS
 62
     7
 10
-460.9999999999999
 20
293.1127818925949
 30
0.0
 40
2.000000000000002
 50
179.9999999999996
 51
270.0
  0
LINE
  5
117
  8
0
  6
CONTINUOUS
 62
     7
 10
-472.9999999999999
 20
303.3840882718715
 30
0.0
 11
-462.9999999999999
 21
303.3840882718715
 31
0.0
  0
ARC
  5
118
  8
0
  6
CONTINUOUS
 62
     7
 10
-472.9999999999999
 20
441.3872181074051
 30
0.0
 40
1.000000000000001
 50
126.574562173359
 51
180.0
  0
LINE
  5
119
  8
0
  6
CONTINUOUS
 62
     7
 10
-396.4999999999999
 20
442.3872181074051
 30
0.0
 11
-387.0
 21
442.3872181074051
 31
0.0
  0
ARC
  5
11A
  8
0
  6
CONTINUOUS
 62
     7
 10
-472.9999999999999
 20
304.3840882718715
 30
0.0
 40
1.000000000000001
 50
180.0
 51
270.0
  0
LINE
  5
11B
  8
0
  6
CONTINUOUS
 62
     7
 10
-462.9999999999999
 20
385.5654173697596
 30
0.0
 11
-462.9999999999999
 21
384.6837824662173
 31
0.0
  0
ARC
  5
11C
  8
0
  6
CONTINUOUS
 62
     7
 10
-418.0000000000001
 20
443.3872181074051
 30
0.0
 40
1.000000000000001
 50
270.0
 51
0.0
  0
LINE
  5
11D
  8
0
  6
CONTINUOUS
 62
     7
 10
-386.0
 20
304.3840882718715
 30
0.0
 11
-386.0
 21
326.887218107405
 31
0.0
  0
POLYLINE
  5
11E
  8
0
  6
CONTINUOUS
 62
     7
 66
     1
 10
0.0
 20
0.0
 30
0.0
  0
VERTEX
  5
27C
  8
0
  6
CONTINUOUS
 62
     7
 10
-462.9999999999999
 20
384.6837824662173
 30
0.0
  0
VERTEX
  5
27D
  8
0
  6
CONTINUOUS
 62
     7
 10
-462.9615705608064
 20
384.3563820317173
 30
0.0
  0
VERTEX
  5
27E
  8
0
  6
CONTINUOUS
 62
     7
 10
-462.8477590650224
 20
384.0415634123069
 30
0.0
  0
VERTEX
  5
27F
  8
0
  6
CONTINUOUS
 62
     7
 10
-462.6629392246049
 20
383.7514249109776
 30
0.0
  0
VERTEX
  5
280
  8
0
  6
CONTINUOUS
 62
     7
 10
-462.4142135623729
 20
383.4971163876241
 30
0.0
  0
VERTEX
  5
281
  8
0
  6
CONTINUOUS
 62
     7
 10
-462.111140466039
 20
383.2884107761809
 30
0.0
  0
VERTEX
  5
282
  8
0
  6
CONTINUOUS
 62
     7
 10
-461.76536686473
 20
383.1333285162523
 30
0.0
  0
VERTEX
  5
283
  8
0
  6
CONTINUOUS
 62
     7
 10
-461.3901806440321
 20
383.0378293321164
 30
0.0
  0
VERTEX
  5
284
  8
0
  6
CONTINUOUS
 62
     7
 10
-460.9999999999998
 20
383.0055832038627
 30
0.0
  0
SEQEND
  5
2E4
  8
0
  6
CONTINUOUS
 62
     7
  0
LINE
  5
11F
  8
0
  6
CONTINUOUS
 62
     7
 10
-472.9999999999999
 20
442.3872181074051
 30
0.0
 11
-463.4999999999999
 21
442.3872181074051
 31
0.0
  0
POLYLINE
  5
120
  8
0
  6
CONTINUOUS
 62
     7
 66
     1
 10
0.0
 20
0.0
 30
0.0
  0
VERTEX
  5
285
  8
0
  6
CONTINUOUS
 62
     7
 10
-416.9999999999999
 20
384.6837824662173
 30
0.0
  0
VERTEX
  5
286
  8
0
  6
CONTINUOUS
 62
     7
 10
-416.9615705608064
 20
384.3563820317173
 30
0.0
  0
VERTEX
  5
287
  8
0
  6
CONTINUOUS
 62
     7
 10
-416.8477590650224
 20
384.0415634123069
 30
0.0
  0
VERTEX
  5
288
  8
0
  6
CONTINUOUS
 62
     7
 10
-416.662939224605
 20
383.7514249109776
 30
0.0
  0
VERTEX
  5
289
  8
0
  6
CONTINUOUS
 62
     7
 10
-416.414213562373
 20
383.4971163876241
 30
0.0
  0
VERTEX
  5
28A
  8
0
  6
CONTINUOUS
 62
     7
 10
-416.1111404660391
 20
383.2884107761809
 30
0.0
  0
VERTEX
  5
28B
  8
0
  6
CONTINUOUS
 62
     7
 10
-415.76536686473
 20
383.1333285162523
 30
0.0
  0
VERTEX
  5
28C
  8
0
  6
CONTINUOUS
 62
     7
 10
-415.3901806440321
 20
383.0378293321164
 30
0.0
  0
VERTEX
  5
28D
  8
0
  6
CONTINUOUS
 62
     7
 10
-414.9999999999999
 20
383.0055832038627
 30
0.0
  0
SEQEND
  5
2E5
  8
0
  6
CONTINUOUS
 62
     7
  0
LINE
  5
121
  8
0
  6
CONTINUOUS
 62
     7
 10
-387.0
 20
442.3872181074051
 30
0.0
 11
-386.65236823609
 21
442.3248492484839
 31
0.0
  0
LINE
  5
122
  8
0
  6
CONTINUOUS
 62
     7
 10
-473.9999999999999
 20
441.3872181074051
 30
0.0
 11
-473.9999999999999
 21
405.8872181074051
 31
0.0
  0
LINE
  5
123
  8
0
  6
CONTINUOUS
 62
     7
 10
-416.9999999999999
 20
291.1127818925949
 30
0.0
 11
-398.9999999999999
 21
291.1127818925949
 31
0.0
  0
POLYLINE
  5
124
  8
0
  6
CONTINUOUS
 62
     7
 66
     1
 10
0.0
 20
0.0
 30
0.0
  0
VERTEX
  5
28E
  8
0
  6
CONTINUOUS
 62
     7
 10
-414.9999999999999
 20
349.7688530109473
 30
0.0
  0
VERTEX
  5
28F
  8
0
  6
CONTINUOUS
 62
     7
 10
-415.3901806440321
 20
349.7366068826937
 30
0.0
  0
VERTEX
  5
290
  8
0
  6
CONTINUOUS
 62
     7
 10
-415.76536686473
 20
349.6411076985577
 30
0.0
  0
VERTEX
  5
291
  8
0
  6
CONTINUOUS
 62
     7
 10
-416.1111404660391
 20
349.4860254386292
 30
0.0
  0
VERTEX
  5
292
  8
0
  6
CONTINUOUS
 62
     7
 10
-416.414213562373
 20
349.277319827186
 30
0.0
  0
VERTEX
  5
293
  8
0
  6
CONTINUOUS
 62
     7
 10
-416.662939224605
 20
349.0230113038324
 30
0.0
  0
VERTEX
  5
294
  8
0
  6
CONTINUOUS
 62
     7
 10
-416.8477590650224
 20
348.7328728025032
 30
0.0
  0
VERTEX
  5
295
  8
0
  6
CONTINUOUS
 62
     7
 10
-416.9615705608064
 20
348.4180541830927
 30
0.0
  0
VERTEX
  5
296
  8
0
  6
CONTINUOUS
 62
     7
 10
-416.9999999999999
 20
348.0906537485928
 30
0.0
  0
SEQEND
  5
2E6
  8
0
  6
CONTINUOUS
 62
     7
  0
LINE
  5
125
  8
0
  6
CONTINUOUS
 62
     7
 10
-416.9999999999999
 20
385.5654173697596
 30
0.0
 11
-416.9999999999999
 21
384.6837824662173
 31
0.0
  0
LINE
  5
126
  8
0
  6
CONTINUOUS
 62
     7
 10
-462.9999999999999
 20
384.6837824662173
 30
0.0
 11
-462.9999999999999
 21
348.0906537485928
 31
0.0
  0
LINE
  5
127
  8
0
  6
CONTINUOUS
 62
     7
 10
-442.9999999999999
 20
348.0906537485928
 30
0.0
 11
-442.9999999999999
 21
384.6837824662173
 31
0.0
  0
LINE
  5
128
  8
0
  6
CONTINUOUS
 62
     7
 10
-416.9999999999999
 20
384.6837824662173
 30
0.0
 11
-416.9999999999999
 21
348.0906537485928
 31
0.0
  0
LINE
  5
129
  8
0
  6
CONTINUOUS
 62
     7
 10
-418.0000000000001
 20
302.9363108838498
 30
0.0
 11
-442.0000000000001
 21
302.9363108838498
 31
0.0
  0
LINE
  5
12A
  8
0
  6
CONTINUOUS
 62
     7
 10
-386.0
 20
326.887218107405
 30
0.0
 11
-386.0
 21
405.887218107405
 31
0.0
  0
ARC
  5
12B
  8
0
  6
CONTINUOUS
 62
     7
 10
-398.9999999999999
 20
293.1127818925949
 30
0.0
 40
2.000000000000002
 50
270.0
 51
0.0000000000003979
  0
LINE
  5
12C
  8
0
  6
CONTINUOUS
 62
     7
 10
-460.9999999999999
 20
291.1127818925949
 30
0.0
 11
-442.9999999999999
 21
291.1127818925949
 31
0.0
  0
ARC
  5
12D
  8
0
  6
CONTINUOUS
 62
     7
 10
-387.0
 20
304.3840882718715
 30
0.0
 40
1.000000000000001
 50
270.0
 51
359.9999999999993
  0
LINE
  5
12E
  8
0
  6
CONTINUOUS
 62
     7
 10
-418.0000000000001
 20
442.3872181074051
 30
0.0
 11
-442.0000000000001
 21
442.3872181074051
 31
0.0
  0
LINE
  5
12F
  8
0
  6
CENTER
 62
     1
 10
-635.0
 20
505.5000000000002
 30
0.0
 11
-635.0
 21
599.5000000000001
 31
0.0
  0
LINE
  5
131
  8
0
  6
CENTER
 62
     1
 10
-740.0
 20
552.5000000000001
 30
0.0
 11
-530.0
 21
552.5000000000001
 31
0.0
  0
LINE
  5
132
  8
0
  6
CENTER
 62
     1
 10
-635.0
 20
288.1127818925949
 30
0.0
 11
-635.0
 21
466.8872181074051
 31
0.0
  0
LINE
  5
133
  8
0
  6
CENTER
 62
     1
 10
-429.9999999999999
 20
288.1127818925949
 30
0.0
 11
-429.9999999999999
 21
466.8872181074051
 31
0.0
  0
TEXT
  5
134
  8
0
  6
CONTINUOUS
 62
     7
 10
-539.9570463923973
 20
276.8704764286607
 30
0.0
 40
3.0
  1
KPRC-150E
  0
ARC
  5
135
  8
0
  6
CONTINUOUS
 62
     7
 10
-700.7575290405437
 20
306.4346577110613
 30
0.0
 40
1.000000000000001
 50
312.9999999999999
 51
0.0
  0
ARC
  5
136
  8
0
  6
CONTINUOUS
 62
     7
 10
-700.7575290405437
 20
306.4346577110613
 30
0.0
 40
0.9999999999999989
 50
0.0
 51
38.99920078685852
  0
LINE
  5
137
  8
0
  6
CONTINUOUS
 62
     7
 10
-569.9244693195187
 20
305.7033040094421
 30
0.0
 11
-567.7255028151989
 21
303.6527345702523
 31
0.0
  0
ARC
  5
138
  8
0
  6
CONTINUOUS
 62
     7
 10
-594.5
 20
326.887218107405
 30
0.0
 40
31.49999999999997
 50
321.0007992131416
 51
0.0
  0
LINE
  5
139
  8
0
  6
CONTINUOUS
 62
     7
 10
-558.0
 20
326.887218107405
 30
0.0
 11
-558.0
 21
405.887218107405
 31
0.0
  0
LINE
  5
13A
  8
0
  6
CONTINUOUS
 62
     7
 10
-675.621621495374
 20
442.3872181074051
 30
0.0
 11
-675.5
 21
442.1903002117057
 31
0.0
  0
LINE
  5
13B
  8
0
  6
CONTINUOUS
 62
     7
 10
-675.621621495374
 20
442.3872181074051
 30
0.0
 11
-594.378378504626
 21
442.3872181074051
 31
0.0
  0
LINE
  5
13C
  8
0
  6
CONTINUOUS
 62
     7
 10
-594.5
 20
442.1903002117057
 30
0.0
 11
-594.378378504626
 21
442.3872181074051
 31
0.0
  0
ARC
  5
13D
  8
0
  6
CONTINUOUS
 62
     7
 10
-675.5
 20
405.8872181074051
 30
0.0
 40
36.5
 50
90.21310539753354
 51
180.0
  0
LINE
  5
13E
  8
0
  6
CONTINUOUS
 62
     7
 10
-712.0
 20
326.887218107405
 30
0.0
 11
-712.0
 21
405.887218107405
 31
0.0
  0
LINE
  5
13F
  8
0
  6
CONTINUOUS
 62
     7
 10
-594.5
 20
437.3872181074051
 30
0.0
 11
-675.5
 21
437.3872181074051
 31
0.0
  0
ARC
  5
140
  8
0
  6
CONTINUOUS
 62
     7
 10
-675.5
 20
326.887218107405
 30
0.0
 40
36.50000000000001
 50
180.0
 51
219.3377790707322
  0
ARC
  5
141
  8
0
  6
CONTINUOUS
 62
     7
 10
-594.5
 20
405.8872181074051
 30
0.0
 40
36.50000000000001
 50
0.0
 51
89.78689460246649
  0
ARC
  5
142
  8
0
  6
CONTINUOUS
 62
     7
 10
-702.9564955448637
 20
304.3840882718715
 30
0.0
 40
0.999999999999998
 50
219.3377790707324
 51
313.0000000000011
  0
LINE
  5
143
  8
0
  6
CONTINUOUS
 62
     7
 10
-707.0
 20
405.8872181074051
 30
0.0
 11
-707.0
 21
326.8872181074051
 31
0.0
  0
ARC
  5
144
  8
0
  6
CONTINUOUS
 62
     7
 10
-594.5
 20
326.887218107405
 30
0.0
 40
36.5
 50
320.6622209292678
 51
0.0
  0
ARC
  5
145
  8
0
  6
CONTINUOUS
 62
     7
 10
-594.5
 20
405.8872181074051
 30
0.0
 40
31.5
 50
0.0
 51
90.0
  0
ARC
  5
146
  8
0
  6
CONTINUOUS
 62
     7
 10
-567.0435044551363
 20
304.3840882718715
 30
0.0
 40
0.9999999999999872
 50
226.9999999999989
 51
320.6622209292676
  0
LINE
  5
147
  8
0
  6
CONTINUOUS
 62
     7
 10
-562.9999999999999
 20
405.8872181074051
 30
0.0
 11
-562.9999999999999
 21
326.8872181074051
 31
0.0
  0
ARC
  5
148
  8
0
  6
CONTINUOUS
 62
     7
 10
-569.2424709594563
 20
306.4346577110613
 30
0.0
 40
0.9999999999999883
 50
141.0007992131415
 51
227.0
  0
ARC
  5
149
  8
0
  6
CONTINUOUS
 62
     7
 10
-675.5
 20
405.8872181074051
 30
0.0
 40
31.5
 50
90.0
 51
180.0
  0
ARC
  5
14A
  8
0
  6
CONTINUOUS
 62
     7
 10
-675.5
 20
326.887218107405
 30
0.0
 40
31.49999999999999
 50
180.0
 51
218.9992007868584
  0
LINE
  5
14B
  8
0
  6
CONTINUOUS
 62
     7
 10
-700.0755306804812
 20
305.7033040094421
 30
0.0
 11
-702.2744971848011
 21
303.6527345702524
 31
0.0
  0
ARC
  5
14C
  8
0
  6
CONTINUOUS
 62
     7
 10
-594.3623828561897
 20
442.8869621811379
 30
0.0
 40
0.4999999999999985
 50
268.1667209078648
 51
269.7868946024661
  0
ARC
  5
14D
  8
0
  6
CONTINUOUS
 62
     7
 10
-675.6376171438103
 20
442.8869621811379
 30
0.0
 40
0.4999999999999998
 50
270.2131053975339
 51
271.8332790921352
  0
LINE
  5
14E
  8
0
  6
CONTINUOUS
 62
     7
 10
-675.621621495374
 20
442.3872181074051
 30
0.0
 11
-675.5091588690335
 21
442.4037453854434
 31
0.0
  0
LINE
  5
14F
  8
0
  6
CONTINUOUS
 62
     7
 10
-675.5091588690334
 20
442.4037453854434
 30
0.0
 11
-675.4792733100682
 21
442.4127299362764
 31
0.0
  0
LINE
  5
150
  8
0
  6
CONTINUOUS
 62
     7
 10
-675.4792733100682
 20
442.4127299362764
 30
0.0
 11
-675.4495629044642
 21
442.4236997060393
 31
0.0
  0
LINE
  5
151
  8
0
  6
CONTINUOUS
 62
     7
 10
-675.4495629044642
 20
442.4236997060393
 30
0.0
 11
-675.4202744690563
 21
442.4366806931293
 31
0.0
  0
LINE
  5
152
  8
0
  6
CONTINUOUS
 62
     7
 10
-675.4202744690563
 20
442.4366806931293
 30
0.0
 11
-675.3915570212099
 21
442.4516985643884
 31
0.0
  0
LINE
  5
153
  8
0
  6
CONTINUOUS
 62
     7
 10
-675.3915570212099
 20
442.4516985643884
 30
0.0
 11
-675.3702484494065
 21
442.4644597589907
 31
0.0
  0
LINE
  5
154
  8
0
  6
CONTINUOUS
 62
     7
 10
-675.3702484494065
 20
442.4644597589907
 30
0.0
 11
-675.3492442611206
 21
442.4785191262506
 31
0.0
  0
LINE
  5
155
  8
0
  6
CONTINUOUS
 62
     7
 10
-675.3492442611206
 20
442.4785191262506
 30
0.0
 11
-675.3286416700886
 21
442.4938815224316
 31
0.0
  0
LINE
  5
156
  8
0
  6
CONTINUOUS
 62
     7
 10
-675.3286416700886
 20
442.4938815224316
 30
0.0
 11
-675.3085378900468
 21
442.5105518037975
 31
0.0
  0
LINE
  5
157
  8
0
  6
CONTINUOUS
 62
     7
 10
-675.3085378900468
 20
442.5105518037975
 30
0.0
 11
-675.2890301347314
 21
442.5285348266117
 31
0.0
  0
LINE
  5
158
  8
0
  6
CONTINUOUS
 62
     7
 10
-675.2890301347314
 20
442.5285348266117
 30
0.0
 11
-675.2702156178789
 21
442.547835447138
 31
0.0
  0
LINE
  5
159
  8
0
  6
CONTINUOUS
 62
     7
 10
-675.2702156178789
 20
442.547835447138
 30
0.0
 11
-675.2521915532257
 21
442.56845852164
 31
0.0
  0
LINE
  5
15A
  8
0
  6
CONTINUOUS
 62
     7
 10
-675.2521915532257
 20
442.56845852164
 30
0.0
 11
-675.2350551545079
 21
442.5904089063812
 31
0.0
  0
LINE
  5
15B
  8
0
  6
CONTINUOUS
 62
     7
 10
-675.2350551545079
 20
442.5904089063812
 30
0.0
 11
-675.2225448402844
 21
442.6082011820684
 31
0.0
  0
LINE
  5
15C
  8
0
  6
CONTINUOUS
 62
     7
 10
-675.2225448402844
 20
442.6082011820684
 30
0.0
 11
-675.2106118902065
 21
442.6268698078541
 31
0.0
  0
LINE
  5
15D
  8
0
  6
CONTINUOUS
 62
     7
 10
-675.2106118902065
 20
442.6268698078541
 30
0.0
 11
-675.1993337173556
 21
442.6463701325441
 31
0.0
  0
LINE
  5
15E
  8
0
  6
CONTINUOUS
 62
     7
 10
-675.1993337173556
 20
442.6463701325441
 30
0.0
 11
-675.1887877348132
 21
442.6666575049444
 31
0.0
  0
LINE
  5
15F
  8
0
  6
CONTINUOUS
 62
     7
 10
-675.1887877348132
 20
442.6666575049444
 30
0.0
 11
-675.1790513556612
 21
442.6876872738605
 31
0.0
  0
LINE
  5
160
  8
0
  6
CONTINUOUS
 62
     7
 10
-675.1790513556612
 20
442.6876872738605
 30
0.0
 11
-675.1702019929808
 21
442.7094147880985
 31
0.0
  0
LINE
  5
161
  8
0
  6
CONTINUOUS
 62
     7
 10
-675.1702019929808
 20
442.7094147880985
 30
0.0
 11
-675.1643339828101
 21
442.7257339273162
 31
0.0
  0
LINE
  5
162
  8
0
  6
CONTINUOUS
 62
     7
 10
-675.1643339828101
 20
442.7257339273162
 30
0.0
 11
-675.1589774232044
 21
442.7424616898056
 31
0.0
  0
LINE
  5
163
  8
0
  6
CONTINUOUS
 62
     7
 10
-675.1589774232044
 20
442.7424616898056
 30
0.0
 11
-675.1541597519048
 21
442.7595457993633
 31
0.0
  0
LINE
  5
164
  8
0
  6
CONTINUOUS
 62
     7
 10
-675.1541597519048
 20
442.7595457993633
 30
0.0
 11
-675.1499084066522
 21
442.776933979786
 31
0.0
  0
LINE
  5
165
  8
0
  6
CONTINUOUS
 62
     7
 10
-675.1499084066522
 20
442.776933979786
 30
0.0
 11
-675.1462508251877
 21
442.7945739548703
 31
0.0
  0
LINE
  5
166
  8
0
  6
CONTINUOUS
 62
     7
 10
-675.1462508251877
 20
442.7945739548703
 30
0.0
 11
-675.1432144452524
 21
442.8124134484128
 31
0.0
  0
LINE
  5
167
  8
0
  6
CONTINUOUS
 62
     7
 10
-675.1432144452524
 20
442.8124134484128
 30
0.0
 11
-675.1408267045871
 21
442.8304001842101
 31
0.0
  0
LINE
  5
168
  8
0
  6
CONTINUOUS
 62
     7
 10
-675.1408267045871
 20
442.8304001842101
 30
0.0
 11
-675.1394228836652
 21
442.844519401398
 31
0.0
  0
LINE
  5
169
  8
0
  6
CONTINUOUS
 62
     7
 10
-675.1394228836652
 20
442.844519401398
 30
0.0
 11
-675.1384174480369
 21
442.8587181346115
 31
0.0
  0
LINE
  5
16A
  8
0
  6
CONTINUOUS
 62
     7
 10
-675.1384174480369
 20
442.8587181346115
 30
0.0
 11
-675.1378142668641
 21
442.8729623734229
 31
0.0
  0
LINE
  5
16B
  8
0
  6
CONTINUOUS
 62
     7
 10
-675.1378142668641
 20
442.8729623734229
 30
0.0
 11
-675.1376172093085
 21
442.887218107405
 31
0.0
  0
LINE
  5
16C
  8
0
  6
CONTINUOUS
 62
     7
 10
-594.8623827906914
 20
442.887218107405
 30
0.0
 11
-594.8620171289904
 21
442.868173524413
 31
0.0
  0
LINE
  5
16D
  8
0
  6
CONTINUOUS
 62
     7
 10
-594.8620171289904
 20
442.868173524413
 30
0.0
 11
-594.8609139445209
 21
442.8491238650349
 31
0.0
  0
LINE
  5
16E
  8
0
  6
CONTINUOUS
 62
     7
 10
-594.8609139445209
 20
442.8491238650349
 30
0.0
 11
-594.8590931405598
 21
442.8301430465362
 31
0.0
  0
LINE
  5
16F
  8
0
  6
CONTINUOUS
 62
     7
 10
-594.8590931405598
 20
442.8301430465362
 30
0.0
 11
-594.8565746203836
 21
442.8113049861824
 31
0.0
  0
LINE
  5
170
  8
0
  6
CONTINUOUS
 62
     7
 10
-594.8565746203836
 20
442.8113049861824
 30
0.0
 11
-594.8533782872689
 21
442.7926836012387
 31
0.0
  0
LINE
  5
171
  8
0
  6
CONTINUOUS
 62
     7
 10
-594.8533782872689
 20
442.7926836012387
 30
0.0
 11
-594.8495240444922
 21
442.7743528089706
 31
0.0
  0
LINE
  5
172
  8
0
  6
CONTINUOUS
 62
     7
 10
-594.8495240444922
 20
442.7743528089706
 30
0.0
 11
-594.84503179533
 21
442.7563865266434
 31
0.0
  0
LINE
  5
173
  8
0
  6
CONTINUOUS
 62
     7
 10
-594.84503179533
 20
442.7563865266434
 30
0.0
 11
-594.8390322185257
 21
442.7359716087974
 31
0.0
  0
LINE
  5
174
  8
0
  6
CONTINUOUS
 62
     7
 10
-594.8390322185257
 20
442.7359716087974
 30
0.0
 11
-594.8322293498865
 21
442.716007129402
 31
0.0
  0
LINE
  5
175
  8
0
  6
CONTINUOUS
 62
     7
 10
-594.8322293498865
 20
442.716007129402
 30
0.0
 11
-594.8246796218011
 21
442.6965469196427
 31
0.0
  0
LINE
  5
176
  8
0
  6
CONTINUOUS
 62
     7
 10
-594.8246796218011
 20
442.6965469196427
 30
0.0
 11
-594.8164394666596
 21
442.6776448107049
 31
0.0
  0
LINE
  5
177
  8
0
  6
CONTINUOUS
 62
     7
 10
-594.8164394666596
 20
442.6776448107049
 30
0.0
 11
-594.807565316851
 21
442.659354633774
 31
0.0
  0
LINE
  5
178
  8
0
  6
CONTINUOUS
 62
     7
 10
-594.807565316851
 20
442.659354633774
 30
0.0
 11
-594.7981136047648
 21
442.6417302200355
 31
0.0
  0
LINE
  5
179
  8
0
  6
CONTINUOUS
 62
     7
 10
-594.7981136047648
 20
442.6417302200355
 30
0.0
 11
-594.785954530564
 21
442.621287968973
 31
0.0
  0
LINE
  5
17A
  8
0
  6
CONTINUOUS
 62
     7
 10
-594.785954530564
 20
442.621287968973
 30
0.0
 11
-594.7730267915017
 21
442.6017268531633
 31
0.0
  0
LINE
  5
17B
  8
0
  6
CONTINUOUS
 62
     7
 10
-594.7730267915017
 20
442.6017268531633
 30
0.0
 11
-594.7594035906086
 21
442.5830609385367
 31
0.0
  0
LINE
  5
17C
  8
0
  6
CONTINUOUS
 62
     7
 10
-594.7594035906086
 20
442.5830609385367
 30
0.0
 11
-594.7451581309157
 21
442.5653042910234
 31
0.0
  0
LINE
  5
17D
  8
0
  6
CONTINUOUS
 62
     7
 10
-594.7451581309157
 20
442.5653042910234
 30
0.0
 11
-594.7303636154537
 21
442.5484709765536
 31
0.0
  0
LINE
  5
17E
  8
0
  6
CONTINUOUS
 62
     7
 10
-594.7303636154537
 20
442.5484709765536
 30
0.0
 11
-594.7150932472538
 21
442.5325750610575
 31
0.0
  0
LINE
  5
17F
  8
0
  6
CONTINUOUS
 62
     7
 10
-594.7150932472538
 20
442.5325750610575
 30
0.0
 11
-594.6994202293466
 21
442.5176306104653
 31
0.0
  0
LINE
  5
180
  8
0
  6
CONTINUOUS
 62
     7
 10
-594.6994202293466
 20
442.5176306104653
 30
0.0
 11
-594.6770199878266
 21
442.4983703722257
 31
0.0
  0
LINE
  5
181
  8
0
  6
CONTINUOUS
 62
     7
 10
-594.6770199878266
 20
442.4983703722257
 30
0.0
 11
-594.6538918361166
 21
442.480733925049
 31
0.0
  0
LINE
  5
182
  8
0
  6
CONTINUOUS
 62
     7
 10
-594.6538918361166
 20
442.480733925049
 30
0.0
 11
-594.6301361213519
 21
442.4647009147035
 31
0.0
  0
LINE
  5
183
  8
0
  6
CONTINUOUS
 62
     7
 10
-594.6301361213519
 20
442.4647009147035
 30
0.0
 11
-594.6058531906675
 21
442.4502509869578
 31
0.0
  0
LINE
  5
184
  8
0
  6
CONTINUOUS
 62
     7
 10
-594.6058531906675
 20
442.4502509869578
 30
0.0
 11
-594.5811433911983
 21
442.4373637875798
 31
0.0
  0
LINE
  5
185
  8
0
  6
CONTINUOUS
 62
     7
 10
-594.5811433911983
 20
442.4373637875798
 30
0.0
 11
-594.5561070700795
 21
442.426018962338
 31
0.0
  0
LINE
  5
186
  8
0
  6
CONTINUOUS
 62
     7
 10
-594.5561070700795
 20
442.426018962338
 30
0.0
 11
-594.5308445744462
 21
442.4161961570006
 31
0.0
  0
LINE
  5
187
  8
0
  6
CONTINUOUS
 62
     7
 10
-594.5308445744462
 20
442.4161961570006
 30
0.0
 11
-594.497156437958
 21
442.4054692147912
 31
0.0
  0
LINE
  5
188
  8
0
  6
CONTINUOUS
 62
     7
 10
-594.497156437958
 20
442.4054692147912
 30
0.0
 11
-594.4665078599699
 21
442.3979243670705
 31
0.0
  0
LINE
  5
189
  8
0
  6
CONTINUOUS
 62
     7
 10
-594.4665078599699
 20
442.3979243670705
 30
0.0
 11
-594.378378504626
 21
442.3872181074051
 31
0.0
  0
LINE
  5
18A
  8
0
  6
CONTINUOUS
 62
     7
 10
-702.2744971848011
 20
303.6527345702523
 30
0.0
 11
-712.2648954481405
 21
294.3365374731649
 31
0.0
  0
LINE
  5
18B
  8
0
  6
CONTINUOUS
 62
     7
 10
-567.7255028151989
 20
303.6527345702523
 30
0.0
 11
-557.7351045518594
 21
294.3365374731649
 31
0.0
  0
ARC
  5
18C
  8
0
  6
CONTINUOUS
 62
     7
 10
-563.8372417631001
 20
306.1798460552727
 30
0.0
 40
0.499999999999999
 50
145.9678018558159
 51
226.9999999999995
  0
LINE
  5
18D
  8
0
  6
CONTINUOUS
 62
     7
 10
-555.0071111116094
 20
297.2619522796416
 30
0.0
 11
-564.1782409431315
 21
305.8141692044631
 31
0.0
  0
ARC
  5
18E
  8
0
  6
CONTINUOUS
 62
     7
 10
-549.5511242311094
 20
303.112781892595
 30
0.0
 40
8.000000000000057
 50
226.9999999999999
 51
332.7474759577118
  0
ARC
  5
18F
  8
0
  6
CONTINUOUS
 62
     7
 10
-586.0000000000001
 20
321.8872181074051
 30
0.0
 40
48.99999999999999
 50
332.7474759577118
 51
0.0
  0
LINE
  5
190
  8
0
  6
CONTINUOUS
 62
     7
 10
-537.0
 20
344.6917199515188
 30
0.0
 11
-537.0
 21
321.8872181074053
 31
0.0
  0
ARC
  5
191
  8
0
  6
CONTINUOUS
 62
     7
 10
-538.0
 20
344.6917199515188
 30
0.0
 40
1.000000000000005
 50
0.0
 51
79.99999999999972
  0
LINE
  5
192
  8
0
  6
CONTINUOUS
 62
     7
 10
-541.1736481776668
 20
346.2667463644034
 30
0.0
 11
-537.8263518223331
 21
345.6765277045311
 31
0.0
  0
ARC
  5
193
  8
0
  6
CONTINUOUS
 62
     7
 10
-540.9999999999999
 20
347.2515541174157
 30
0.0
 40
1.000000000000001
 50
180.0000000000008
 51
259.9999999999998
  0
LINE
  5
194
  8
0
  6
CONTINUOUS
 62
     7
 10
-541.9999999999998
 20
385.5228820973947
 30
0.0
 11
-541.9999999999998
 21
347.2515541174157
 31
0.0
  0
ARC
  5
195
  8
0
  6
CONTINUOUS
 62
     7
 10
-540.9999999999999
 20
385.5228820973947
 30
0.0
 40
1.00000000000001
 50
100.0000000000003
 51
180.0
  0
LINE
  5
196
  8
0
  6
CONTINUOUS
 62
     7
 10
-537.8263518223331
 20
387.0979085102794
 30
0.0
 11
-541.1736481776668
 21
386.507689850407
 31
0.0
  0
ARC
  5
197
  8
0
  6
CONTINUOUS
 62
     7
 10
-538.0
 20
388.0827162632916
 30
0.0
 40
1.000000000000001
 50
280.0000000000002
 51
359.9999999999996
  0
LINE
  5
198
  8
0
  6
CONTINUOUS
 62
     7
 10
-537.0
 20
410.8872181074051
 30
0.0
 11
-537.0
 21
388.0827162632916
 31
0.0
  0
ARC
  5
199
  8
0
  6
CONTINUOUS
 62
     7
 10
-586.0000000000001
 20
410.8872181074052
 30
0.0
 40
48.99999999999999
 50
359.9999999999998
 51
90.0
  0
LINE
  5
19A
  8
0
  6
CONTINUOUS
 62
     7
 10
-586.6681871562538
 20
459.8872181074051
 30
0.0
 11
-586.0
 21
459.8872181074051
 31
0.0
  0
ARC
  5
19B
  8
0
  6
CONTINUOUS
 62
     7
 10
-586.6681871562538
 20
459.3872181074051
 30
0.0
 40
0.500000000000007
 50
90.0
 51
155.0000000000005
  0
LINE
  5
19C
  8
0
  6
CONTINUOUS
 62
     7
 10
-594.815536749708
 20
443.0982713120083
 30
0.0
 11
-587.1213410497722
 21
459.5985272382756
 31
0.0
  0
LINE
  5
19D
  8
0
  6
CONTINUOUS
 62
     7
 10
-675.1844632502919
 20
443.0982713120083
 30
0.0
 11
-682.8786589502276
 21
459.5985272382756
 31
0.0
  0
ARC
  5
19E
  8
0
  6
CONTINUOUS
 62
     7
 10
-683.3318128437461
 20
459.3872181074051
 30
0.0
 40
0.5000000000000004
 50
24.99999999999949
 51
90.0
  0
LINE
  5
19F
  8
0
  6
CONTINUOUS
 62
     7
 10
-683.3318128437461
 20
459.8872181074051
 30
0.0
 11
-683.9999999999999
 21
459.8872181074051
 31
0.0
  0
ARC
  5
1A0
  8
0
  6
CONTINUOUS
 62
     7
 10
-683.9999999999999
 20
410.8872181074052
 30
0.0
 40
48.99999999999999
 50
90.00000000000001
 51
180.0000000000001
  0
LINE
  5
1A1
  8
0
  6
CONTINUOUS
 62
     7
 10
-733.0
 20
410.8872181074051
 30
0.0
 11
-733.0
 21
388.0827162632916
 31
0.0
  0
ARC
  5
1A2
  8
0
  6
CONTINUOUS
 62
     7
 10
-732.0
 20
388.0827162632916
 30
0.0
 40
1.000000000000005
 50
180.0000000000004
 51
259.9999999999998
  0
LINE
  5
1A3
  8
0
  6
CONTINUOUS
 62
     7
 10
-732.1736481776668
 20
387.0979085102794
 30
0.0
 11
-728.8263518223331
 21
386.507689850407
 31
0.0
  0
ARC
  5
1A4
  8
0
  6
CONTINUOUS
 62
     7
 10
-729.0000000000001
 20
385.5228820973947
 30
0.0
 40
1.000000000000001
 50
0.0
 51
79.9999999999997
  0
LINE
  5
1A5
  8
0
  6
CONTINUOUS
 62
     7
 10
-728.0000000000001
 20
385.5228820973947
 30
0.0
 11
-728.0000000000001
 21
347.2515541174157
 31
0.0
  0
ARC
  5
1A6
  8
0
  6
CONTINUOUS
 62
     7
 10
-729.0000000000001
 20
347.2515541174157
 30
0.0
 40
1.000000000000005
 50
280.0000000000002
 51
359.9999999999993
  0
LINE
  5
1A7
  8
0
  6
CONTINUOUS
 62
     7
 10
-728.8263518223331
 20
346.2667463644034
 30
0.0
 11
-732.1736481776668
 21
345.6765277045311
 31
0.0
  0
ARC
  5
1A8
  8
0
  6
CONTINUOUS
 62
     7
 10
-732.0
 20
344.6917199515188
 30
0.0
 40
1.000000000000001
 50
100.0000000000002
 51
180.0
  0
LINE
  5
1A9
  8
0
  6
CONTINUOUS
 62
     7
 10
-732.9999999999999
 20
344.6917199515188
 30
0.0
 11
-732.9999999999999
 21
321.8872181074053
 31
0.0
  0
ARC
  5
1AA
  8
0
  6
CONTINUOUS
 62
     7
 10
-683.9999999999999
 20
321.8872181074051
 30
0.0
 40
48.99999999999998
 50
180.0
 51
207.2525240422882
  0
ARC
  5
1AB
  8
0
  6
CONTINUOUS
 62
     7
 10
-720.4488757688905
 20
303.112781892595
 30
0.0
 40
8.000000000000044
 50
207.2525240422882
 51
313.0000000000001
  0
LINE
  5
1AC
  8
0
  6
CONTINUOUS
 62
     7
 10
-714.9928888883906
 20
297.2619522796416
 30
0.0
 11
-705.8217590568685
 21
305.8141692044631
 31
0.0
  0
ARC
  5
1AD
  8
0
  6
CONTINUOUS
 62
     7
 10
-706.1627582368998
 20
306.1798460552727
 30
0.0
 40
0.4999999999999942
 50
313.0000000000005
 51
34.032198144184
  0
ARC
  5
1AE
  8
0
  6
CONTINUOUS
 62
     7
 10
-675.6376171438103
 20
442.8869621811379
 30
0.0
 40
0.500000000000007
 50
0.0293269912291407
 51
24.99999999999989
  0
ARC
  5
1AF
  8
0
  6
CONTINUOUS
 62
     7
 10
-594.3623828561897
 20
442.8869621811379
 30
0.0
 40
0.5000000000000132
 50
155.0000000000001
 51
179.9706730087709
  0
ARC
  5
1B0
  8
0
  6
CONTINUOUS
 62
     7
 10
-549.5511242311094
 20
303.1127818925949
 30
0.0
 40
12.00000000000001
 50
226.9999999999999
 51
332.7474759577116
  0
LINE
  5
1B1
  8
0
  6
CONTINUOUS
 62
     7
 10
-597.6953873476001
 20
446.3872181074051
 30
0.0
 11
-590.0734783823459
 21
462.7324546308866
 31
0.0
  0
ARC
  5
1B2
  8
0
  6
CONTINUOUS
 62
     7
 10
-720.4488757688906
 20
303.1127818925949
 30
0.0
 40
12.00000000000002
 50
207.2525240422884
 51
313.0000000000001
  0
ARC
  5
1B3
  8
0
  6
CONTINUOUS
 62
     7
 10
-588.2608628082726
 20
461.887218107405
 30
0.0
 40
2.0
 50
89.99999999999841
 51
154.9999999999955
  0
LINE
  5
1B4
  8
0
  6
CONTINUOUS
 62
     7
 10
-672.3046126523999
 20
446.3872181074051
 30
0.0
 11
-597.6953873476001
 21
446.3872181074051
 31
0.0
  0
LINE
  5
1B5
  8
0
  6
CONTINUOUS
 62
     7
 10
-532.9999999999999
 20
321.8872181074051
 30
0.0
 11
-532.9999999999999
 21
347.2090188450505
 31
0.0
  0
ARC
  5
1B6
  8
0
  6
CONTINUOUS
 62
     7
 10
-683.9999999999999
 20
321.8872181074051
 30
0.0
 40
53.0
 50
180.0
 51
207.2525240422882
  0
ARC
  5
1B7
  8
0
  6
CONTINUOUS
 62
     7
 10
-681.7391371917274
 20
461.8872181074051
 30
0.0
 40
2.000000000000002
 50
24.99999999999949
 51
90.0
  0
LINE
  5
1B8
  8
0
  6
CONTINUOUS
 62
     7
 10
-537.9999999999998
 20
349.7688530109474
 30
0.0
 11
-537.9999999999998
 21
383.0055832038627
 31
0.0
  0
LINE
  5
1B9
  8
0
  6
CONTINUOUS
 62
     7
 10
-735.3472963553338
 20
349.178634351075
 30
0.0
 11
-732.0000000000001
 21
349.7688530109474
 31
0.0
  0
LINE
  5
1BA
  8
0
  6
CONTINUOUS
 62
     7
 10
-683.9999999999999
 20
463.8872181074051
 30
0.0
 11
-681.7391371917274
 21
463.8872181074051
 31
0.0
  0
ARC
  5
1BB
  8
0
  6
CONTINUOUS
 62
     7
 10
-683.9999999999999
 20
410.8872181074051
 30
0.0
 40
52.99999999999998
 50
90.0
 51
180.0
  0
LINE
  5
1BC
  8
0
  6
CONTINUOUS
 62
     7
 10
-732.0000000000001
 20
383.0055832038627
 30
0.0
 11
-735.3472963553338
 21
383.5958018637352
 31
0.0
  0
LINE
  5
1BD
  8
0
  6
CONTINUOUS
 62
     7
 10
-537.9999999999998
 20
383.0055832038627
 30
0.0
 11
-534.6527036446661
 21
383.5958018637352
 31
0.0
  0
LINE
  5
1BE
  8
0
  6
CONTINUOUS
 62
     7
 10
-732.0000000000001
 20
349.7688530109474
 30
0.0
 11
-732.0000000000001
 21
383.0055832038627
 31
0.0
  0
LINE
  5
1BF
  8
0
  6
CONTINUOUS
 62
     7
 10
-679.926521617654
 20
462.7324546308865
 30
0.0
 11
-672.3046126523998
 21
446.3872181074051
 31
0.0
  0
LINE
  5
1C0
  8
0
  6
CONTINUOUS
 62
     7
 10
-533.0
 20
385.5654173697596
 30
0.0
 11
-533.0
 21
410.8872181074051
 31
0.0
  0
ARC
  5
1C1
  8
0
  6
CONTINUOUS
 62
     7
 10
-535.0
 20
347.2090188450505
 30
0.0
 40
2.000000000000005
 50
359.9999999999998
 51
80.00000000000011
  0
ARC
  5
1C2
  8
0
  6
CONTINUOUS
 62
     7
 10
-735.0
 20
385.5654173697596
 30
0.0
 40
2.000000000000002
 50
180.0
 51
260.0000000000001
  0
LINE
  5
1C3
  8
0
  6
CONTINUOUS
 62
     7
 10
-737.0
 20
321.8872181074051
 30
0.0
 11
-737.0
 21
347.2090188450505
 31
0.0
  0
ARC
  5
1C4
  8
0
  6
CONTINUOUS
 62
     7
 10
-535.0
 20
385.5654173697596
 30
0.0
 40
2.000000000000002
 50
279.9999999999999
 51
0.0
  0
ARC
  5
1C5
  8
0
  6
CONTINUOUS
 62
     7
 10
-735.0
 20
347.2090188450505
 30
0.0
 40
2.000000000000008
 50
99.9999999999999
 51
180.0000000000001
  0
ARC
  5
1C6
  8
0
  6
CONTINUOUS
 62
     7
 10
-586.0000000000001
 20
410.8872181074051
 30
0.0
 40
52.99999999999999
 50
0.00000000000003
 51
90.00000000000001
  0
LINE
  5
1C7
  8
0
  6
CONTINUOUS
 62
     7
 10
-534.6527036446662
 20
349.178634351075
 30
0.0
 11
-537.9999999999999
 21
349.7688530109474
 31
0.0
  0
LINE
  5
1C8
  8
0
  6
CONTINUOUS
 62
     7
 10
-586.0000000000001
 20
463.8872181074051
 30
0.0
 11
-588.2608628082726
 21
463.8872181074051
 31
0.0
  0
LINE
  5
1C9
  8
0
  6
CONTINUOUS
 62
     7
 10
-737.0
 20
385.5654173697596
 30
0.0
 11
-737.0
 21
410.8872181074051
 31
0.0
  0
ARC
  5
1CA
  8
0
  6
CONTINUOUS
 62
     7
 10
-586.0
 20
321.8872181074051
 30
0.0
 40
52.99999999999999
 50
332.7474759577118
 51
0.0
  0
LINE
  5
1CB
  8
0
  6
CONTINUOUS
 62
     7
 10
-588.2608628082726
 20
565.5000000000001
 30
0.0
 11
-586.0000000000001
 21
565.5000000000001
 31
0.0
  0
LINE
  5
1CC
  8
0
  6
CONTINUOUS
 62
     7
 10
-683.9999999999999
 20
539.5000000000002
 30
0.0
 11
-681.7391371917274
 21
539.5000000000002
 31
0.0
  0
ARC
  5
1CD
  8
0
  6
CONTINUOUS
 62
     7
 10
-734.9999999999999
 20
537.5000000000002
 30
0.0
 40
2.000000000000002
 50
90.0000000000008
 51
180.0
  0
LINE
  5
1CE
  8
0
  6
CONTINUOUS
 62
     7
 10
-734.9999999999999
 20
539.5000000000002
 30
0.0
 11
-683.9999999999999
 21
539.5000000000002
 31
0.0
  0
LINE
  5
1CF
  8
0
  6
CONTINUOUS
 62
     7
 10
-586.0000000000001
 20
539.5000000000002
 30
0.0
 11
-588.2608628082726
 21
539.5000000000002
 31
0.0
  0
LINE
  5
1D0
  8
0
  6
CONTINUOUS
 62
     7
 10
-683.9999999999999
 20
585.5000000000001
 30
0.0
 11
-681.7391371917274
 21
585.5000000000001
 31
0.0
  0
ARC
  5
1D1
  8
0
  6
CONTINUOUS
 62
     7
 10
-734.9999999999999
 20
583.5000000000001
 30
0.0
 40
2.000000000000002
 50
90.0
 51
180.0
  0
LINE
  5
1D2
  8
0
  6
CONTINUOUS
 62
     7
 10
-734.9999999999999
 20
585.5000000000001
 30
0.0
 11
-683.9999999999999
 21
585.5000000000001
 31
0.0
  0
LINE
  5
1D3
  8
0
  6
CONTINUOUS
 62
     7
 10
-586.0000000000001
 20
585.5000000000001
 30
0.0
 11
-588.2608628082726
 21
585.5000000000001
 31
0.0
  0
ARC
  5
1D4
  8
0
  6
CONTINUOUS
 62
     7
 10
-535.0
 20
521.5000000000002
 30
0.0
 40
2.000000000000002
 50
270.0
 51
0.0
  0
LINE
  5
1D5
  8
0
  6
CONTINUOUS
 62
     7
 10
-586.0000000000001
 20
519.5000000000002
 30
0.0
 11
-535.0000000000001
 21
519.5000000000002
 31
0.0
  0
LINE
  5
1D6
  8
0
  6
CONTINUOUS
 62
     7
 10
-681.7391371917274
 20
565.5000000000001
 30
0.0
 11
-683.9999999999999
 21
565.5000000000001
 31
0.0
  0
ARC
  5
1D7
  8
0
  6
CONTINUOUS
 62
     7
 10
-535.0
 20
567.5000000000001
 30
0.0
 40
2.000000000000002
 50
270.0
 51
0.0
  0
LINE
  5
1D8
  8
0
  6
CONTINUOUS
 62
     7
 10
-586.0000000000001
 20
565.5000000000001
 30
0.0
 11
-535.0000000000001
 21
565.5000000000001
 31
0.0
  0
LINE
  5
1D9
  8
0
  6
CONTINUOUS
 62
     7
 10
-683.9999999999999
 20
565.5000000000001
 30
0.0
 11
-734.9999999999999
 21
565.5000000000001
 31
0.0
  0
ARC
  5
1DA
  8
0
  6
CONTINUOUS
 62
     7
 10
-734.9999999999999
 20
567.5000000000001
 30
0.0
 40
2.000000000000002
 50
180.0
 51
270.0
  0
LINE
  5
1DB
  8
0
  6
CONTINUOUS
 62
     7
 10
-535.0
 20
585.5000000000001
 30
0.0
 11
-586.0
 21
585.5000000000001
 31
0.0
  0
ARC
  5
1DC
  8
0
  6
CONTINUOUS
 62
     7
 10
-535.0
 20
583.5000000000001
 30
0.0
 40
2.000000000000002
 50
0.0
 51
90.0
  0
LINE
  5
1DD
  8
0
  6
CONTINUOUS
 62
     7
 10
-683.9999999999999
 20
519.5000000000002
 30
0.0
 11
-734.9999999999999
 21
519.5000000000002
 31
0.0
  0
ARC
  5
1DE
  8
0
  6
CONTINUOUS
 62
     7
 10
-734.9999999999999
 20
521.5000000000002
 30
0.0
 40
2.000000000000002
 50
180.0
 51
270.0
  0
LINE
  5
1DF
  8
0
  6
CONTINUOUS
 62
     7
 10
-681.7391371917273
 20
519.5000000000002
 30
0.0
 11
-683.9999999999999
 21
519.5000000000002
 31
0.0
  0
LINE
  5
1E0
  8
0
  6
CONTINUOUS
 62
     7
 10
-535.0
 20
539.5000000000002
 30
0.0
 11
-586.0
 21
539.5000000000002
 31
0.0
  0
ARC
  5
1E1
  8
0
  6
CONTINUOUS
 62
     7
 10
-535.0
 20
537.5000000000002
 30
0.0
 40
2.000000000000002
 50
0.0
 51
89.9999999999992
  0
LINE
  5
1E2
  8
0
  6
CONTINUOUS
 62
     7
 10
-588.2608628082726
 20
519.5000000000002
 30
0.0
 11
-586.0000000000001
 21
519.5000000000002
 31
0.0
  0
LINE
  5
1E3
  8
0
  6
CONTINUOUS
 62
     7
 10
-737.0
 20
583.5000000000001
 30
0.0
 11
-737.0
 21
567.5000000000001
 31
0.0
  0
LINE
  5
1E4
  8
0
  6
CONTINUOUS
 62
     7
 10
-532.9999999999999
 20
583.5000000000001
 30
0.0
 11
-532.9999999999999
 21
567.5000000000001
 31
0.0
  0
LINE
  5
1E5
  8
0
  6
CONTINUOUS
 62
     7
 10
-532.9999999999999
 20
537.5000000000002
 30
0.0
 11
-532.9999999999999
 21
521.5000000000002
 31
0.0
  0
LINE
  5
1E6
  8
0
  6
CONTINUOUS
 62
     7
 10
-737.0
 20
537.5000000000002
 30
0.0
 11
-737.0
 21
521.5000000000002
 31
0.0
  0
POLYLINE
  5
1E7
  8
0
  6
CONTINUOUS
 62
     7
 66
     1
 10
0.0
 20
0.0
 30
0.0
  0
VERTEX
  5
297
  8
0
  6
CONTINUOUS
 62
     7
 10
-597.6953873476
 20
521.5000000000002
 30
0.0
  0
VERTEX
  5
298
  8
0
  6
CONTINUOUS
 62
     7
 10
-597.6709050947503
 20
521.1098193559679
 30
0.0
  0
VERTEX
  5
299
  8
0
  6
CONTINUOUS
 62
     7
 10
-597.5983991754483
 20
520.7346331352701
 30
0.0
  0
VERTEX
  5
29A
  8
0
  6
CONTINUOUS
 62
     7
 10
-597.4806559515112
 20
520.3888595339611
 30
0.0
  0
VERTEX
  5
29B
  8
0
  6
CONTINUOUS
 62
     7
 10
-597.3222002290036
 20
520.0857864376271
 30
0.0
  0
VERTEX
  5
29C
  8
0
  6
CONTINUOUS
 62
     7
 10
-597.1291213724784
 20
519.8370607753951
 30
0.0
  0
VERTEX
  5
29D
  8
0
  6
CONTINUOUS
 62
     7
 10
-596.9088392941121
 20
519.6522409349776
 30
0.0
  0
VERTEX
  5
29E
  8
0
  6
CONTINUOUS
 62
     7
 10
-596.6698193106407
 20
519.5384294391938
 30
0.0
  0
VERTEX
  5
29F
  8
0
  6
CONTINUOUS
 62
     7
 10
-596.421246825985
 20
519.5000000000002
 30
0.0
  0
SEQEND
  5
2E7
  8
0
  6
CONTINUOUS
 62
     7
  0
LINE
  5
1E8
  8
0
  6
CONTINUOUS
 62
     7
 10
-588.2608628082726
 20
519.5000000000002
 30
0.0
 11
-596.421246825985
 21
519.5000000000002
 31
0.0
  0
LINE
  5
1E9
  8
0
  6
CONTINUOUS
 62
     7
 10
-597.6953873476001
 20
521.5000000000002
 30
0.0
 11
-597.6953873476001
 21
537.5000000000002
 31
0.0
  0
POLYLINE
  5
1EA
  8
0
  6
CONTINUOUS
 62
     7
 66
     1
 10
0.0
 20
0.0
 30
0.0
  0
VERTEX
  5
2A0
  8
0
  6
CONTINUOUS
 62
     7
 10
-596.421246825985
 20
585.5000000000001
 30
0.0
  0
VERTEX
  5
2A1
  8
0
  6
CONTINUOUS
 62
     7
 10
-596.6698193106407
 20
585.4615705608065
 30
0.0
  0
VERTEX
  5
2A2
  8
0
  6
CONTINUOUS
 62
     7
 10
-596.9088392941121
 20
585.3477590650227
 30
0.0
  0
VERTEX
  5
2A3
  8
0
  6
CONTINUOUS
 62
     7
 10
-597.1291213724784
 20
585.1629392246052
 30
0.0
  0
VERTEX
  5
2A4
  8
0
  6
CONTINUOUS
 62
     7
 10
-597.3222002290036
 20
584.9142135623732
 30
0.0
  0
VERTEX
  5
2A5
  8
0
  6
CONTINUOUS
 62
     7
 10
-597.4806559515112
 20
584.6111404660393
 30
0.0
  0
VERTEX
  5
2A6
  8
0
  6
CONTINUOUS
 62
     7
 10
-597.5983991754483
 20
584.2653668647303
 30
0.0
  0
VERTEX
  5
2A7
  8
0
  6
CONTINUOUS
 62
     7
 10
-597.6709050947503
 20
583.8901806440324
 30
0.0
  0
VERTEX
  5
2A8
  8
0
  6
CONTINUOUS
 62
     7
 10
-597.6953873476
 20
583.5000000000001
 30
0.0
  0
SEQEND
  5
2E8
  8
0
  6
CONTINUOUS
 62
     7
  0
LINE
  5
1EB
  8
0
  6
CONTINUOUS
 62
     7
 10
-596.421246825985
 20
585.5000000000001
 30
0.0
 11
-588.2608628082726
 21
585.5000000000001
 31
0.0
  0
POLYLINE
  5
1EC
  8
0
  6
CONTINUOUS
 62
     7
 66
     1
 10
0.0
 20
0.0
 30
0.0
  0
VERTEX
  5
2A9
  8
0
  6
CONTINUOUS
 62
     7
 10
-673.5787531740148
 20
519.5000000000002
 30
0.0
  0
VERTEX
  5
2AA
  8
0
  6
CONTINUOUS
 62
     7
 10
-673.330180689359
 20
519.5384294391938
 30
0.0
  0
VERTEX
  5
2AB
  8
0
  6
CONTINUOUS
 62
     7
 10
-673.0911607058877
 20
519.6522409349776
 30
0.0
  0
VERTEX
  5
2AC
  8
0
  6
CONTINUOUS
 62
     7
 10
-672.8708786275214
 20
519.8370607753951
 30
0.0
  0
VERTEX
  5
2AD
  8
0
  6
CONTINUOUS
 62
     7
 10
-672.6777997709962
 20
520.0857864376271
 30
0.0
  0
VERTEX
  5
2AE
  8
0
  6
CONTINUOUS
 62
     7
 10
-672.5193440484886
 20
520.3888595339611
 30
0.0
  0
VERTEX
  5
2AF
  8
0
  6
CONTINUOUS
 62
     7
 10
-672.4016008245515
 20
520.7346331352701
 30
0.0
  0
VERTEX
  5
2B0
  8
0
  6
CONTINUOUS
 62
     7
 10
-672.3290949052495
 20
521.1098193559679
 30
0.0
  0
VERTEX
  5
2B1
  8
0
  6
CONTINUOUS
 62
     7
 10
-672.3046126523998
 20
521.5000000000002
 30
0.0
  0
SEQEND
  5
2E9
  8
0
  6
CONTINUOUS
 62
     7
  0
LINE
  5
1ED
  8
0
  6
CONTINUOUS
 62
     7
 10
-673.5787531740148
 20
519.5000000000002
 30
0.0
 11
-681.7391371917273
 21
519.5000000000002
 31
0.0
  0
POLYLINE
  5
1EE
  8
0
  6
CONTINUOUS
 62
     7
 66
     1
 10
0.0
 20
0.0
 30
0.0
  0
VERTEX
  5
2B2
  8
0
  6
CONTINUOUS
 62
     7
 10
-596.421246825985
 20
539.5000000000002
 30
0.0
  0
VERTEX
  5
2B3
  8
0
  6
CONTINUOUS
 62
     7
 10
-596.6698193106407
 20
539.4615705608066
 30
0.0
  0
VERTEX
  5
2B4
  8
0
  6
CONTINUOUS
 62
     7
 10
-596.9088392941121
 20
539.3477590650228
 30
0.0
  0
VERTEX
  5
2B5
  8
0
  6
CONTINUOUS
 62
     7
 10
-597.1291213724784
 20
539.1629392246053
 30
0.0
  0
VERTEX
  5
2B6
  8
0
  6
CONTINUOUS
 62
     7
 10
-597.3222002290036
 20
538.9142135623733
 30
0.0
  0
VERTEX
  5
2B7
  8
0
  6
CONTINUOUS
 62
     7
 10
-597.4806559515112
 20
538.6111404660394
 30
0.0
  0
VERTEX
  5
2B8
  8
0
  6
CONTINUOUS
 62
     7
 10
-597.5983991754483
 20
538.2653668647304
 30
0.0
  0
VERTEX
  5
2B9
  8
0
  6
CONTINUOUS
 62
     7
 10
-597.6709050947503
 20
537.8901806440325
 30
0.0
  0
VERTEX
  5
2BA
  8
0
  6
CONTINUOUS
 62
     7
 10
-597.6953873476
 20
537.5000000000002
 30
0.0
  0
SEQEND
  5
2EA
  8
0
  6
CONTINUOUS
 62
     7
  0
LINE
  5
1EF
  8
0
  6
CONTINUOUS
 62
     7
 10
-596.421246825985
 20
539.5000000000002
 30
0.0
 11
-588.2608628082726
 21
539.5000000000002
 31
0.0
  0
LINE
  5
1F0
  8
0
  6
CONTINUOUS
 62
     7
 10
-588.2608628082726
 20
565.5000000000001
 30
0.0
 11
-596.421246825985
 21
565.5000000000001
 31
0.0
  0
POLYLINE
  5
1F1
  8
0
  6
CONTINUOUS
 62
     7
 66
     1
 10
0.0
 20
0.0
 30
0.0
  0
VERTEX
  5
2BB
  8
0
  6
CONTINUOUS
 62
     7
 10
-597.6953873476
 20
567.5000000000001
 30
0.0
  0
VERTEX
  5
2BC
  8
0
  6
CONTINUOUS
 62
     7
 10
-597.6709050947503
 20
567.1098193559678
 30
0.0
  0
VERTEX
  5
2BD
  8
0
  6
CONTINUOUS
 62
     7
 10
-597.5983991754483
 20
566.73463313527
 30
0.0
  0
VERTEX
  5
2BE
  8
0
  6
CONTINUOUS
 62
     7
 10
-597.4806559515112
 20
566.388859533961
 30
0.0
  0
VERTEX
  5
2BF
  8
0
  6
CONTINUOUS
 62
     7
 10
-597.3222002290036
 20
566.085786437627
 30
0.0
  0
VERTEX
  5
2C0
  8
0
  6
CONTINUOUS
 62
     7
 10
-597.1291213724784
 20
565.837060775395
 30
0.0
  0
VERTEX
  5
2C1
  8
0
  6
CONTINUOUS
 62
     7
 10
-596.9088392941121
 20
565.6522409349775
 30
0.0
  0
VERTEX
  5
2C2
  8
0
  6
CONTINUOUS
 62
     7
 10
-596.6698193106407
 20
565.5384294391937
 30
0.0
  0
VERTEX
  5
2C3
  8
0
  6
CONTINUOUS
 62
     7
 10
-596.421246825985
 20
565.5000000000001
 30
0.0
  0
SEQEND
  5
2EB
  8
0
  6
CONTINUOUS
 62
     7
  0
LINE
  5
1F2
  8
0
  6
CONTINUOUS
 62
     7
 10
-597.6953873476001
 20
567.5000000000001
 30
0.0
 11
-597.6953873476001
 21
583.5000000000001
 31
0.0
  0
LINE
  5
1F3
  8
0
  6
CONTINUOUS
 62
     7
 10
-673.5787531740148
 20
565.5000000000001
 30
0.0
 11
-681.7391371917273
 21
565.5000000000001
 31
0.0
  0
POLYLINE
  5
1F4
  8
0
  6
CONTINUOUS
 62
     7
 66
     1
 10
0.0
 20
0.0
 30
0.0
  0
VERTEX
  5
2C4
  8
0
  6
CONTINUOUS
 62
     7
 10
-673.5787531740148
 20
565.5000000000001
 30
0.0
  0
VERTEX
  5
2C5
  8
0
  6
CONTINUOUS
 62
     7
 10
-673.330180689359
 20
565.5384294391937
 30
0.0
  0
VERTEX
  5
2C6
  8
0
  6
CONTINUOUS
 62
     7
 10
-673.0911607058877
 20
565.6522409349775
 30
0.0
  0
VERTEX
  5
2C7
  8
0
  6
CONTINUOUS
 62
     7
 10
-672.8708786275214
 20
565.837060775395
 30
0.0
  0
VERTEX
  5
2C8
  8
0
  6
CONTINUOUS
 62
     7
 10
-672.6777997709962
 20
566.085786437627
 30
0.0
  0
VERTEX
  5
2C9
  8
0
  6
CONTINUOUS
 62
     7
 10
-672.5193440484886
 20
566.388859533961
 30
0.0
  0
VERTEX
  5
2CA
  8
0
  6
CONTINUOUS
 62
     7
 10
-672.4016008245515
 20
566.73463313527
 30
0.0
  0
VERTEX
  5
2CB
  8
0
  6
CONTINUOUS
 62
     7
 10
-672.3290949052495
 20
567.1098193559678
 30
0.0
  0
VERTEX
  5
2CC
  8
0
  6
CONTINUOUS
 62
     7
 10
-672.3046126523998
 20
567.5000000000001
 30
0.0
  0
SEQEND
  5
2EC
  8
0
  6
CONTINUOUS
 62
     7
  0
LINE
  5
1F5
  8
0
  6
CONTINUOUS
 62
     7
 10
-681.7391371917274
 20
539.5000000000002
 30
0.0
 11
-673.5787531740149
 21
539.5000000000002
 31
0.0
  0
POLYLINE
  5
1F6
  8
0
  6
CONTINUOUS
 62
     7
 66
     1
 10
0.0
 20
0.0
 30
0.0
  0
VERTEX
  5
2CD
  8
0
  6
CONTINUOUS
 62
     7
 10
-672.3046126523999
 20
537.5000000000002
 30
0.0
  0
VERTEX
  5
2CE
  8
0
  6
CONTINUOUS
 62
     7
 10
-672.3290949052496
 20
537.8901806440325
 30
0.0
  0
VERTEX
  5
2CF
  8
0
  6
CONTINUOUS
 62
     7
 10
-672.4016008245516
 20
538.2653668647304
 30
0.0
  0
VERTEX
  5
2D0
  8
0
  6
CONTINUOUS
 62
     7
 10
-672.5193440484887
 20
538.6111404660394
 30
0.0
  0
VERTEX
  5
2D1
  8
0
  6
CONTINUOUS
 62
     7
 10
-672.6777997709963
 20
538.9142135623733
 30
0.0
  0
VERTEX
  5
2D2
  8
0
  6
CONTINUOUS
 62
     7
 10
-672.8708786275215
 20
539.1629392246053
 30
0.0
  0
VERTEX
  5
2D3
  8
0
  6
CONTINUOUS
 62
     7
 10
-673.0911607058878
 20
539.3477590650228
 30
0.0
  0
VERTEX
  5
2D4
  8
0
  6
CONTINUOUS
 62
     7
 10
-673.3301806893592
 20
539.4615705608066
 30
0.0
  0
VERTEX
  5
2D5
  8
0
  6
CONTINUOUS
 62
     7
 10
-673.5787531740149
 20
539.5000000000002
 30
0.0
  0
SEQEND
  5
2ED
  8
0
  6
CONTINUOUS
 62
     7
  0
LINE
  5
1F7
  8
0
  6
CONTINUOUS
 62
     7
 10
-672.3046126523999
 20
521.5000000000002
 30
0.0
 11
-672.3046126523999
 21
537.5000000000002
 31
0.0
  0
LINE
  5
1F8
  8
0
  6
CONTINUOUS
 62
     7
 10
-672.3046126523999
 20
567.5000000000001
 30
0.0
 11
-672.3046126523999
 21
583.5000000000001
 31
0.0
  0
POLYLINE
  5
1F9
  8
0
  6
CONTINUOUS
 62
     7
 66
     1
 10
0.0
 20
0.0
 30
0.0
  0
VERTEX
  5
2D6
  8
0
  6
CONTINUOUS
 62
     7
 10
-672.3046126523999
 20
583.5000000000001
 30
0.0
  0
VERTEX
  5
2D7
  8
0
  6
CONTINUOUS
 62
     7
 10
-672.3290949052496
 20
583.8901806440324
 30
0.0
  0
VERTEX
  5
2D8
  8
0
  6
CONTINUOUS
 62
     7
 10
-672.4016008245516
 20
584.2653668647303
 30
0.0
  0
VERTEX
  5
2D9
  8
0
  6
CONTINUOUS
 62
     7
 10
-672.5193440484887
 20
584.6111404660393
 30
0.0
  0
VERTEX
  5
2DA
  8
0
  6
CONTINUOUS
 62
     7
 10
-672.6777997709963
 20
584.9142135623732
 30
0.0
  0
VERTEX
  5
2DB
  8
0
  6
CONTINUOUS
 62
     7
 10
-672.8708786275215
 20
585.1629392246052
 30
0.0
  0
VERTEX
  5
2DC
  8
0
  6
CONTINUOUS
 62
     7
 10
-673.0911607058878
 20
585.3477590650227
 30
0.0
  0
VERTEX
  5
2DD
  8
0
  6
CONTINUOUS
 62
     7
 10
-673.3301806893592
 20
585.4615705608065
 30
0.0
  0
VERTEX
  5
2DE
  8
0
  6
CONTINUOUS
 62
     7
 10
-673.5787531740149
 20
585.5000000000001
 30
0.0
  0
SEQEND
  5
2EE
  8
0
  6
CONTINUOUS
 62
     7
  0
LINE
  5
1FA
  8
0
  6
CONTINUOUS
 62
     7
 10
-681.7391371917274
 20
585.5000000000001
 30
0.0
 11
-673.5787531740149
 21
585.5000000000001
 31
0.0
  0
LINE
  5
1FB
  8
0
  6
CONTINUOUS
 62
     7
 10
-673.5787531740149
 20
585.5000000000001
 30
0.0
 11
-596.421246825985
 21
585.5000000000001
 31
0.0
  0
LINE
  5
1FC
  8
0
  6
CONTINUOUS
 62
     7
 10
-673.5787531740149
 20
539.5000000000002
 30
0.0
 11
-596.421246825985
 21
539.5000000000002
 31
0.0
  0
LINE
  5
1FD
  8
0
  6
CONTINUOUS
 62
     7
 10
-596.421246825985
 20
565.5000000000001
 30
0.0
 11
-673.5787531740149
 21
565.5000000000001
 31
0.0
  0
LINE
  5
1FE
  8
0
  6
CONTINUOUS
 62
     7
 10
-596.421246825985
 20
519.5000000000002
 30
0.0
 11
-673.5787531740149
 21
519.5000000000002
 31
0.0
  0
ARC
  5
1FF
  8
0
  6
CONTINUOUS
 62
     7
 10
-713.0
 20
540.5000000000001
 30
0.0
 40
1.000000000000001
 50
270.0
 51
0.0
  0
ARC
  5
200
  8
0
  6
CONTINUOUS
 62
     7
 10
-556.9999999999999
 20
564.5000000000001
 30
0.0
 40
1.000000000000001
 50
90.0000000000008
 51
180.0
  0
ARC
  5
201
  8
0
  6
CONTINUOUS
 62
     7
 10
-713.0
 20
564.5000000000001
 30
0.0
 40
1.000000000000001
 50
0.0
 51
89.9999999999992
  0
ARC
  5
202
  8
0
  6
CONTINUOUS
 62
     7
 10
-556.9999999999999
 20
540.5000000000001
 30
0.0
 40
1.000000000000001
 50
180.0
 51
270.0
  0
LINE
  5
203
  8
0
  6
CONTINUOUS
 62
     7
 10
-675.621621495374
 20
595.5
 30
0.0
 11
-675.621621495374
 21
586.0000000000001
 31
0.0
  0
LINE
  5
204
  8
0
  6
CONTINUOUS
 62
     7
 10
-675.1376172093085
 20
585.5000000000001
 30
0.0
 11
-675.621621495374
 21
586.0000000000001
 31
0.0
  0
LINE
  5
205
  8
0
  6
CONTINUOUS
 62
     7
 10
-594.3783785053549
 20
586.0000000000002
 30
0.0
 11
-594.8623827906914
 21
585.5000000000001
 31
0.0
  0
LINE
  5
206
  8
0
  6
CONTINUOUS
 62
     7
 10
-594.3783785053549
 20
586.0000000000002
 30
0.0
 11
-594.378378504626
 21
595.5000000000001
 31
0.0
  0
LINE
  5
207
  8
0
  6
CONTINUOUS
 62
     7
 10
-594.378378504626
 20
509.5000000000002
 30
0.0
 11
-594.378378504626
 21
519.0000000000001
 31
0.0
  0
LINE
  5
208
  8
0
  6
CONTINUOUS
 62
     7
 10
-594.8623827906914
 20
519.5000000000002
 30
0.0
 11
-594.3783785046259
 21
519.0000000000001
 31
0.0
  0
LINE
  5
209
  8
0
  6
CONTINUOUS
 62
     7
 10
-675.6216214946451
 20
519.0000000000001
 30
0.0
 11
-675.1376172093085
 21
519.5000000000001
 31
0.0
  0
LINE
  5
20A
  8
0
  6
CONTINUOUS
 62
     7
 10
-675.6216214946451
 20
519.0000000000001
 30
0.0
 11
-675.621621495374
 21
509.5000000000002
 31
0.0
  0
LINE
  5
20B
  8
0
  6
CONTINUOUS
 62
     7
 10
-594.5
 20
508.9041316137333
 30
0.0
 11
-594.378378504626
 21
509.5000000000002
 31
0.0
  0
ARC
  5
20C
  8
0
  6
CONTINUOUS
 62
     7
 10
-558.9999999999999
 20
509.5000000000002
 30
0.0
 40
1.000000000000001
 50
270.0000000000007
 51
0.0000000000000568
  0
LINE
  5
20D
  8
0
  6
CONTINUOUS
 62
     7
 10
-594.5
 20
508.5000000000003
 30
0.0
 11
-559.0
 21
508.5000000000003
 31
0.0
  0
LINE
  5
20E
  8
0
  6
CONTINUOUS
 62
     7
 10
-675.5
 20
596.0958683862666
 30
0.0
 11
-675.621621495374
 21
595.5
 31
0.0
  0
ARC
  5
20F
  8
0
  6
CONTINUOUS
 62
     7
 10
-711.0
 20
595.5
 30
0.0
 40
1.000000000000001
 50
90.0000000000008
 51
180.0
  0
LINE
  5
210
  8
0
  6
CONTINUOUS
 62
     7
 10
-711.0
 20
596.5000000000001
 30
0.0
 11
-675.5
 21
596.5000000000001
 31
0.0
  0
LINE
  5
211
  8
0
  6
CONTINUOUS
 62
     7
 10
-675.5
 20
508.5000000000003
 30
0.0
 11
-711.0
 21
508.5000000000003
 31
0.0
  0
ARC
  5
212
  8
0
  6
CONTINUOUS
 62
     7
 10
-711.0
 20
509.5000000000002
 30
0.0
 40
1.000000000000001
 50
180.0
 51
269.9999999999993
  0
LINE
  5
213
  8
0
  6
CONTINUOUS
 62
     7
 10
-594.378378504626
 20
595.5
 30
0.0
 11
-594.5
 21
596.0958683862664
 31
0.0
  0
LINE
  5
214
  8
0
  6
CONTINUOUS
 62
     7
 10
-675.621621495374
 20
509.5000000000002
 30
0.0
 11
-675.5
 21
508.9041316137333
 31
0.0
  0
LINE
  5
215
  8
0
  6
CONTINUOUS
 62
     7
 10
-558.9999999999999
 20
596.5000000000001
 30
0.0
 11
-594.4999999999999
 21
596.5000000000001
 31
0.0
  0
ARC
  5
216
  8
0
  6
CONTINUOUS
 62
     7
 10
-558.9999999999999
 20
595.5
 30
0.0
 40
1.000000000000001
 50
0.0
 51
89.9999999999992
  0
LINE
  5
217
  8
0
  6
CONTINUOUS
 62
     7
 10
-594.5
 20
508.5000000000003
 30
0.0
 11
-675.5
 21
508.5000000000003
 31
0.0
  0
LINE
  5
218
  8
0
  6
CONTINUOUS
 62
     7
 10
-675.5
 20
596.5000000000001
 30
0.0
 11
-594.5
 21
596.5000000000001
 31
0.0
  0
LINE
  5
219
  8
0
  6
CONTINUOUS
 62
     7
 10
-712.0
 20
564.5000000000001
 30
0.0
 11
-712.0
 21
540.5000000000001
 31
0.0
  0
LINE
  5
21A
  8
0
  6
CONTINUOUS
 62
     7
 10
-558.0
 20
564.5000000000001
 30
0.0
 11
-558.0
 21
540.5000000000001
 31
0.0
  0
LINE
  5
21B
  8
0
  6
CONTINUOUS
 62
     7
 10
-712.0
 20
519.5000000000002
 30
0.0
 11
-712.0
 21
509.5000000000003
 31
0.0
  0
LINE
  5
21C
  8
0
  6
CONTINUOUS
 62
     7
 10
-712.0
 20
595.5
 30
0.0
 11
-712.0
 21
585.5
 31
0.0
  0
LINE
  5
21D
  8
0
  6
CONTINUOUS
 62
     7
 10
-558.0
 20
595.5
 30
0.0
 11
-558.0
 21
585.5
 31
0.0
  0
LINE
  5
21E
  8
0
  6
CONTINUOUS
 62
     7
 10
-558.0
 20
519.5000000000002
 30
0.0
 11
-558.0
 21
509.5000000000003
 31
0.0
  0
LINE
  5
21F
  8
0
  6
CONTINUOUS
 62
     7
 10
-557.8
 20
549.6523449266865
 30
0.0
 11
-557.8
 21
552.7182540175955
 31
0.0
  0
LINE
  5
220
  8
0
  6
CONTINUOUS
 62
     7
 10
-557.8
 20
548.9614358357774
 30
0.0
 11
-557.8
 21
549.6523449266865
 31
0.0
  0
LINE
  5
221
  8
0
  6
CONTINUOUS
 62
     7
 10
-557.9999999999999
 20
548.9614358357774
 30
0.0
 11
-557.8
 21
548.9614358357774
 31
0.0
  0
LINE
  5
222
  8
0
  6
CONTINUOUS
 62
     7
 10
-557.9999999999999
 20
552.7182540175955
 30
0.0
 11
-557.8
 21
552.7182540175955
 31
0.0
  0
LINE
  5
223
  8
0
  6
CONTINUOUS
 62
     7
 10
-557.8
 20
553.4091631085046
 30
0.0
 11
-557.8
 21
557.8137085630501
 31
0.0
  0
LINE
  5
224
  8
0
  6
CONTINUOUS
 62
     7
 10
-557.9999999999999
 20
553.4091631085046
 30
0.0
 11
-557.8
 21
553.4091631085046
 31
0.0
  0
LINE
  5
225
  8
0
  6
CONTINUOUS
 62
     7
 10
-557.8
 20
552.7182540175955
 30
0.0
 11
-557.8
 21
553.4091631085046
 31
0.0
  0
LINE
  5
226
  8
0
  6
CONTINUOUS
 62
     7
 10
-557.8
 20
548.9614358357774
 30
0.0
 11
-557.8
 21
549.6515964663961
 31
0.0
  0
LINE
  5
227
  8
0
  6
CONTINUOUS
 62
     7
 10
-557.8
 20
549.6515964663961
 30
0.0
 11
-557.8
 21
550.0409812903229
 31
0.0
  0
LINE
  5
228
  8
0
  6
CONTINUOUS
 62
     7
 10
-557.8
 20
557.1277257244601
 30
0.0
 11
-557.8
 21
557.8137085630501
 31
0.0
  0
LINE
  5
229
  8
0
  6
CONTINUOUS
 62
     7
 10
-557.9999999999999
 20
557.8137085630501
 30
0.0
 11
-557.8
 21
557.8137085630501
 31
0.0
  0
LINE
  5
22A
  8
0
  6
CONTINUOUS
 62
     7
 10
-557.8
 20
548.8042281798021
 30
0.0
 11
-557.8
 21
548.8923765640288
 31
0.0
  0
LINE
  5
22B
  8
0
  6
CONTINUOUS
 62
     7
 10
-558.0
 20
546.1900712572682
 30
0.0
 11
-557.8000000000001
 21
546.1900712572682
 31
0.0
  0
LINE
  5
22C
  8
0
  6
CONTINUOUS
 62
     7
 10
-557.8
 20
546.1900712572682
 30
0.0
 11
-557.8
 21
545.703326427737
 31
0.0
  0
LINE
  5
22D
  8
0
  6
CONTINUOUS
 62
     7
 10
-558.0
 20
545.703326427737
 30
0.0
 11
-557.8000000000001
 21
545.703326427737
 31
0.0
  0
LINE
  5
22E
  8
0
  6
CONTINUOUS
 62
     7
 10
-558.0
 20
542.7129453709705
 30
0.0
 11
-557.8000000000001
 21
542.7129453709705
 31
0.0
  0
LINE
  5
22F
  8
0
  6
CONTINUOUS
 62
     7
 10
-557.8
 20
545.703326427737
 30
0.0
 11
-557.8
 21
542.7129453709705
 31
0.0
  0
LINE
  5
230
  8
0
  6
CONTINUOUS
 62
     7
 10
-558.0
 20
547.7706803978894
 30
0.0
 11
-557.8000000000001
 21
547.7706803978894
 31
0.0
  0
LINE
  5
231
  8
0
  6
CONTINUOUS
 62
     7
 10
-557.8
 20
548.785204605804
 30
0.0
 11
-557.8
 21
547.7706803978894
 31
0.0
  0
LINE
  5
232
  8
0
  6
CONTINUOUS
 62
     7
 10
-558.0
 20
546.6081783664981
 30
0.0
 11
-557.8000000000001
 21
546.6081783664981
 31
0.0
  0
LINE
  5
233
  8
0
  6
CONTINUOUS
 62
     7
 10
-557.8
 20
546.6081783664981
 30
0.0
 11
-557.8
 21
546.2400812572682
 31
0.0
  0
LINE
  5
234
  8
0
  6
CONTINUOUS
 62
     7
 10
-558.0
 20
546.8638949857491
 30
0.0
 11
-557.8000000000001
 21
546.8638949857491
 31
0.0
  0
LINE
  5
235
  8
0
  6
CONTINUOUS
 62
     7
 10
-557.8
 20
546.8638949857491
 30
0.0
 11
-557.8
 21
546.6081783664982
 31
0.0
  0
LINE
  5
236
  8
0
  6
CONTINUOUS
 62
     7
 10
-558.0
 20
547.6045537461595
 30
0.0
 11
-557.8000000000001
 21
547.6045537461595
 31
0.0
  0
LINE
  5
237
  8
0
  6
CONTINUOUS
 62
     7
 10
-558.0
 20
547.4814718716069
 30
0.0
 11
-557.8000000000001
 21
547.4814718716069
 31
0.0
  0
LINE
  5
238
  8
0
  6
CONTINUOUS
 62
     7
 10
-557.8
 20
547.6045537461595
 30
0.0
 11
-557.8
 21
547.4814718716068
 31
0.0
  0
LINE
  5
239
  8
0
  6
CONTINUOUS
 62
     7
 10
-557.8
 20
547.4814718716069
 30
0.0
 11
-557.8
 21
546.913904985749
 31
0.0
  0
LINE
  5
23A
  8
0
  6
CONTINUOUS
 62
     7
 10
-557.8
 20
558.2129453709704
 30
0.0
 11
-557.8
 21
557.9280718858553
 31
0.0
  0
LINE
  5
23B
  8
0
  6
CONTINUOUS
 62
     7
 10
-557.8
 20
562.7129639721379
 30
0.0
 11
-557.8
 21
562.6962601445183
 31
0.0
  0
LINE
  5
23C
  8
0
  6
CONTINUOUS
 62
     7
 10
-558.0
 20
562.6962601445183
 30
0.0
 11
-557.8000000000001
 21
562.6962601445183
 31
0.0
  0
LINE
  5
23D
  8
0
  6
CONTINUOUS
 62
     7
 10
-557.8
 20
562.6962601445183
 30
0.0
 11
-557.8
 21
558.2129453709705
 31
0.0
  0
LINE
  5
23E
  8
0
  6
CONTINUOUS
 62
     7
 10
-557.7749999999999
 20
549.6523449266865
 30
0.0
 11
-557.9999999999999
 21
549.6523449266865
 31
0.0
  0
LINE
  5
23F
  8
0
  6
CONTINUOUS
 62
     7
 10
-557.8
 20
557.8137085630501
 30
0.0
 11
-557.9999999999999
 21
557.8137085630501
 31
0.0
  0
LINE
  5
240
  8
0
  6
CONTINUOUS
 62
     7
 10
-557.8
 20
548.9614358357774
 30
0.0
 11
-557.7749999999999
 21
548.9614358357774
 31
0.0
  0
LINE
  5
241
  8
0
  6
CONTINUOUS
 62
     7
 10
-557.7749999999999
 20
557.8137085630501
 30
0.0
 11
-557.8
 21
557.8137085630501
 31
0.0
  0
LINE
  5
242
  8
0
  6
CONTINUOUS
 62
     7
 10
-557.8
 20
554.628967283182
 30
0.0
 11
-557.7749999999999
 21
554.628967283182
 31
0.0
  0
LINE
  5
243
  8
0
  6
CONTINUOUS
 62
     7
 10
-557.7749999999999
 20
551.8154660132863
 30
0.0
 11
-557.8
 21
551.8154660132863
 31
0.0
  0
LINE
  5
244
  8
0
  6
CONTINUOUS
 62
     7
 10
-557.8
 20
557.8280766140617
 30
0.0
 11
-557.9999999999999
 21
557.8280766140617
 31
0.0
  0
LINE
  5
245
  8
0
  6
CONTINUOUS
 62
     7
 10
-557.7749999999999
 20
557.804980067231
 30
0.0
 11
-557.8
 21
557.804980067231
 31
0.0
  0
LINE
  5
246
  8
0
  6
CONTINUOUS
 62
     7
 10
-557.9999999999999
 20
548.804228179792
 30
0.0
 11
-557.8
 21
548.804228179792
 31
0.0
  0
LINE
  5
247
  8
0
  6
CONTINUOUS
 62
     7
 10
-557.76875
 20
562.7129639721379
 30
0.0
 11
-557.9999999999999
 21
562.7129639721379
 31
0.0
  0
ENDSEC
  0
EOF
