  0
SECTION
  2
HEADER
  9
$ACADVER
  1
AC1014
  9
$ACADMAINTVER
 70
     9
  9
$DWGCODEPAGE
  3
ANSI_932
  9
$INSBASE
 10
0.0
 20
0.0
 30
0.0
  9
$EXTMIN
 10
24.49999999999998
 20
95.02727272727272
 30
0.0
  9
$EXTMAX
 10
187.0
 20
265.0
 30
0.0
  9
$LIMMIN
 10
0.0
 20
0.0
  9
$LIMMAX
 10
12.0
 20
9.0
  9
$ORTHOMODE
 70
     0
  9
$REGENMODE
 70
     1
  9
$FILLMODE
 70
     1
  9
$QTEXTMODE
 70
     0
  9
$MIRRTEXT
 70
     1
  9
$DRAGMODE
 70
     2
  9
$LTSCALE
 40
1.0
  9
$OSMODE
 70
    37
  9
$ATTMODE
 70
     1
  9
$TEXTSIZE
 40
0.2
  9
$TRACEWID
 40
0.05
  9
$TEXTSTYLE
  7
STANDARD
  9
$CLAYER
  8
0
  9
$CELTYPE
  6
BYLAYER
  9
$CECOLOR
 62
   256
  9
$CELTSCALE
 40
1.0
  9
$DELOBJ
 70
     1
  9
$DISPSILH
 70
     0
  9
$DIMSCALE
 40
1.0
  9
$DIMASZ
 40
3.0
  9
$DIMEXO
 40
0.0625
  9
$DIMDLI
 40
0.38
  9
$DIMRND
 40
0.0
  9
$DIMDLE
 40
0.0
  9
$DIMEXE
 40
1.5
  9
$DIMTP
 40
0.0
  9
$DIMTM
 40
0.0
  9
$DIMTXT
 40
3.0
  9
$DIMCEN
 40
0.09
  9
$DIMTSZ
 40
0.0
  9
$DIMTOL
 70
     0
  9
$DIMLIM
 70
     0
  9
$DIMTIH
 70
     1
  9
$DIMTOH
 70
     1
  9
$DIMSE1
 70
     0
  9
$DIMSE2
 70
     0
  9
$DIMTAD
 70
     1
  9
$DIMZIN
 70
     0
  9
$DIMBLK
  1

  9
$DIMASO
 70
     1
  9
$DIMSHO
 70
     1
  9
$DIMPOST
  1

  9
$DIMAPOST
  1

  9
$DIMALT
 70
     0
  9
$DIMALTD
 70
     2
  9
$DIMALTF
 40
25.4
  9
$DIMLFAC
 40
1.0
  9
$DIMTOFL
 70
     0
  9
$DIMTVP
 40
0.0
  9
$DIMTIX
 70
     0
  9
$DIMSOXD
 70
     0
  9
$DIMSAH
 70
     0
  9
$DIMBLK1
  1

  9
$DIMBLK2
  1

  9
$DIMSTYLE
  2
STANDARD
  9
$DIMCLRD
 70
     0
  9
$DIMCLRE
 70
     0
  9
$DIMCLRT
 70
     0
  9
$DIMTFAC
 40
1.0
  9
$DIMGAP
 40
1.5
  9
$DIMJUST
 70
     0
  9
$DIMSD1
 70
     0
  9
$DIMSD2
 70
     0
  9
$DIMTOLJ
 70
     1
  9
$DIMTZIN
 70
     0
  9
$DIMALTZ
 70
     0
  9
$DIMALTTZ
 70
     0
  9
$DIMFIT
 70
     3
  9
$DIMUPT
 70
     0
  9
$DIMUNIT
 70
     2
  9
$DIMDEC
 70
     2
  9
$DIMTDEC
 70
     4
  9
$DIMALTU
 70
     2
  9
$DIMALTTD
 70
     2
  9
$DIMTXSTY
  7
ＭＳ_ゴシック
  9
$DIMAUNIT
 70
     0
  9
$LUNITS
 70
     2
  9
$LUPREC
 70
     4
  9
$SKETCHINC
 40
0.1
  9
$FILLETRAD
 40
0.5
  9
$AUNITS
 70
     0
  9
$AUPREC
 70
     0
  9
$MENU
  1
.
  9
$ELEVATION
 40
0.0
  9
$PELEVATION
 40
0.0
  9
$THICKNESS
 40
0.0
  9
$LIMCHECK
 70
     0
  9
$CHAMFERA
 40
0.0
  9
$CHAMFERB
 40
0.0
  9
$CHAMFERC
 40
0.0
  9
$CHAMFERD
 40
0.0
  9
$SKPOLY
 70
     0
  9
$TDCREATE
 40
2460830.632695857
  9
$TDUPDATE
 40
2460830.632695926
  9
$TDINDWG
 40
0.0000000116
  9
$TDUSRTIMER
 40
0.0000000116
  9
$USRTIMER
 70
     1
  9
$ANGBASE
 50
0.0
  9
$ANGDIR
 70
     0
  9
$PDMODE
 70
     0
  9
$PDSIZE
 40
0.0
  9
$PLINEWID
 40
0.0
  9
$COORDS
 70
     1
  9
$SPLFRAME
 70
     0
  9
$SPLINETYPE
 70
     6
  9
$SPLINESEGS
 70
     8
  9
$ATTDIA
 70
     0
  9
$ATTREQ
 70
     1
  9
$HANDLING
 70
     1
  9
$HANDSEED
  5
1CE
  9
$SURFTAB1
 70
     6
  9
$SURFTAB2
 70
     6
  9
$SURFTYPE
 70
     6
  9
$SURFU
 70
     6
  9
$SURFV
 70
     6
  9
$UCSNAME
  2

  9
$UCSORG
 10
0.0
 20
0.0
 30
0.0
  9
$UCSXDIR
 10
1.0
 20
0.0
 30
0.0
  9
$UCSYDIR
 10
0.0
 20
1.0
 30
0.0
  9
$PUCSNAME
  2

  9
$PUCSORG
 10
0.0
 20
0.0
 30
0.0
  9
$PUCSXDIR
 10
1.0
 20
0.0
 30
0.0
  9
$PUCSYDIR
 10
0.0
 20
1.0
 30
0.0
  9
$USERI1
 70
     0
  9
$USERI2
 70
     0
  9
$USERI3
 70
     0
  9
$USERI4
 70
     0
  9
$USERI5
 70
     0
  9
$USERR1
 40
0.0
  9
$USERR2
 40
0.0
  9
$USERR3
 40
0.0
  9
$USERR4
 40
0.0
  9
$USERR5
 40
0.0
  9
$WORLDVIEW
 70
     1
  9
$SHADEDGE
 70
     3
  9
$SHADEDIF
 70
    70
  9
$TILEMODE
 70
     1
  9
$MAXACTVP
 70
    64
  9
$PINSBASE
 10
0.0
 20
0.0
 30
0.0
  9
$PLIMCHECK
 70
     0
  9
$PEXTMIN
 10
1.000000000000000E+20
 20
1.000000000000000E+20
 30
1.000000000000000E+20
  9
$PEXTMAX
 10
-1.000000000000000E+20
 20
-1.000000000000000E+20
 30
-1.000000000000000E+20
  9
$PLIMMIN
 10
0.0
 20
0.0
  9
$PLIMMAX
 10
12.0
 20
9.0
  9
$UNITMODE
 70
     0
  9
$VISRETAIN
 70
     1
  9
$PLINEGEN
 70
     0
  9
$PSLTSCALE
 70
     1
  9
$TREEDEPTH
 70
  3020
  9
$PICKSTYLE
 70
     1
  9
$CMLSTYLE
  2
STANDARD
  9
$CMLJUST
 70
     0
  9
$CMLSCALE
 40
1.0
  9
$PROXYGRAPHICS
 70
     1
  9
$MEASUREMENT
 70
     1
  0
ENDSEC
  0
SECTION
  2
CLASSES
  0
CLASS
  1
ACDBDICTIONARYWDFLT
  2
AcDbDictionaryWithDefault
  3
ObjectDBX Classes
 90
        0
280
     0
281
     0
  0
CLASS
  1
VISUALSTYLE
  2
AcDbVisualStyle
  3
ObjectDBX Classes
 90
     4095
280
     0
281
     0
  0
CLASS
  1
MATERIAL
  2
AcDbMaterial
  3
ObjectDBX Classes
 90
     1153
280
     0
281
     0
  0
CLASS
  1
SCALE
  2
AcDbScale
  3
ObjectDBX Classes
 90
     1153
280
     0
281
     0
  0
CLASS
  1
TABLESTYLE
  2
AcDbTableStyle
  3
ObjectDBX Classes
 90
     4095
280
     0
281
     0
  0
CLASS
  1
MLEADERSTYLE
  2
AcDbMLeaderStyle
  3
ACDB_MLEADERSTYLE_CLASS
 90
     4095
280
     0
281
     0
  0
CLASS
  1
SUN
  2
AcDbSun
  3
SCENEOE
 90
     1153
280
     0
281
     0
  0
CLASS
  1
DICTIONARYVAR
  2
AcDbDictionaryVar
  3
ObjectDBX Classes
 90
        0
280
     0
281
     0
  0
CLASS
  1
XRECORD
  2
AcDbXrecord
  3
ObjectDBX Classes
 90
        0
280
     0
281
     0
  0
CLASS
  1
LWPOLYLINE
  2
AcDbPolyline
  3
ObjectDBX Classes
 90
        0
280
     0
281
     1
  0
CLASS
  1
HATCH
  2
AcDbHatch
  3
ObjectDBX Classes
 90
        0
280
     0
281
     1
  0
CLASS
  1
ACDBPLACEHOLDER
  2
AcDbPlaceHolder
  3
ObjectDBX Classes
 90
        0
280
     0
281
     0
  0
CLASS
  1
LAYOUT
  2
AcDbLayout
  3
ObjectDBX Classes
 90
        0
280
     0
281
     0
  0
ENDSEC
  0
SECTION
  2
TABLES
  0
TABLE
  2
VPORT
  5
8
102
{ACAD_XDICTIONARY
360
1C3
102
}
330
0
100
AcDbSymbolTable
 70
     1
  0
VPORT
  5
29
330
8
100
AcDbSymbolTableRecord
100
AcDbViewportTableRecord
  2
*ACTIVE
 70
     0
 10
0.0
 20
0.0
 11
1.0
 21
1.0
 12
105.75
 22
180.0136363636364
 13
0.0
 23
0.0
 14
0.5
 24
0.5
 15
0.5
 25
0.5
 16
0.0
 26
0.0
 36
1.0
 17
0.0
 27
0.0
 37
0.0
 40
169.9727272727273
 41
1.6
 42
50.0
 43
0.0
 44
0.0
 50
0.0
 51
0.0
 71
     0
 72
   100
 73
     1
 74
     3
 75
     0
 76
     0
 77
     0
 78
     0
  0
ENDTAB
  0
TABLE
  2
LTYPE
  5
5
330
0
100
AcDbSymbolTable
 70
     2
  0
LTYPE
  5
14
330
5
100
AcDbSymbolTableRecord
100
AcDbLinetypeTableRecord
  2
BYBLOCK
 70
     0
  3

 72
    65
 73
     0
 40
0.0
  0
LTYPE
  5
15
330
5
100
AcDbSymbolTableRecord
100
AcDbLinetypeTableRecord
  2
BYLAYER
 70
     0
  3

 72
    65
 73
     0
 40
0.0
  0
LTYPE
  5
16
330
5
100
AcDbSymbolTableRecord
100
AcDbLinetypeTableRecord
  2
CONTINUOUS
 70
     0
  3
Solid line
 72
    65
 73
     0
 40
0.0
  0
LTYPE
  5
70
330
5
100
AcDbSymbolTableRecord
100
AcDbLinetypeTableRecord
  2
CENTER
 70
     0
  3

 72
    65
 73
     0
 40
0.0
  0
ENDTAB
  0
TABLE
  2
LAYER
  5
2
330
0
100
AcDbSymbolTable
 70
     1
  0
LAYER
  5
10
330
2
100
AcDbSymbolTableRecord
100
AcDbLayerTableRecord
  2
0
 70
     0
 62
     7
  6
CONTINUOUS
  0
ENDTAB
  0
TABLE
  2
STYLE
  5
3
330
0
100
AcDbSymbolTable
 70
     2
  0
STYLE
  5
11
330
3
100
AcDbSymbolTableRecord
100
AcDbTextStyleTableRecord
  2
STANDARD
 70
     0
 40
0.0
 41
1.0
 50
0.0
 71
     0
 42
0.2
  3
txt
  4

  0
STYLE
  5
6E
330
3
100
AcDbSymbolTableRecord
100
AcDbTextStyleTableRecord
  2
ＭＳ_ゴシック
 70
     0
 40
0.0
 41
1.0
 50
0.0
 71
     0
 42
0.2
  3
ＭＳ ゴシック.shx
  4

  0
ENDTAB
  0
TABLE
  2
VIEW
  5
6
330
0
100
AcDbSymbolTable
 70
     0
  0
ENDTAB
  0
TABLE
  2
UCS
  5
7
330
0
100
AcDbSymbolTable
 70
     0
  0
ENDTAB
  0
TABLE
  2
APPID
  5
9
330
0
100
AcDbSymbolTable
 70
     2
  0
APPID
  5
12
330
9
100
AcDbSymbolTableRecord
100
AcDbRegAppTableRecord
  2
ACAD
 70
     0
  0
APPID
  5
1CD
330
9
100
AcDbSymbolTableRecord
100
AcDbRegAppTableRecord
  2
ACAD_MLEADERVER
 70
     0
  0
ENDTAB
  0
TABLE
  2
DIMSTYLE
  5
A
330
0
100
AcDbSymbolTable
 70
     1
  0
DIMSTYLE
105
27
330
A
100
AcDbSymbolTableRecord
100
AcDbDimStyleTableRecord
  2
STANDARD
 70
     0
  3

  4

  5

  6

  7

 40
1.0
 41
0.18
 42
0.0625
 43
0.38
 44
0.18
 45
0.0
 46
0.0
 47
0.0
 48
0.0
140
0.18
141
0.09
142
0.0
143
25.4
144
1.0
145
0.0
146
1.0
147
0.09
 71
     0
 72
     0
 73
     1
 74
     1
 75
     0
 76
     0
 77
     0
 78
     0
170
     0
171
     2
172
     0
173
     0
174
     0
175
     0
176
     0
177
     0
178
     0
270
     2
271
     4
272
     4
273
     2
274
     2
340
11
275
     0
280
     0
281
     0
282
     0
283
     1
284
     0
285
     0
286
     0
287
     3
288
     0
  0
ENDTAB
  0
TABLE
  2
BLOCK_RECORD
  5
1
330
0
100
AcDbSymbolTable
 70
     3
  0
BLOCK_RECORD
  5
1F
330
1
100
AcDbSymbolTableRecord
100
AcDbBlockTableRecord
  2
*MODEL_SPACE
  0
BLOCK_RECORD
  5
1B
330
1
100
AcDbSymbolTableRecord
100
AcDbBlockTableRecord
  2
*PAPER_SPACE
  0
BLOCK_RECORD
  5
75
330
1
100
AcDbSymbolTableRecord
100
AcDbBlockTableRecord
  2
D_FRAME_VIEW_1490
  0
BLOCK_RECORD
  5
E3
330
1
100
AcDbSymbolTableRecord
100
AcDbBlockTableRecord
  2
D_FRAME_VIEW_2401
  0
BLOCK_RECORD
  5
143
330
1
100
AcDbSymbolTableRecord
100
AcDbBlockTableRecord
  2
D_FRAME_VIEW_2156
  0
ENDTAB
  0
ENDSEC
  0
SECTION
  2
BLOCKS
  0
BLOCK
  5
20
330
1F
100
AcDbEntity
  8
0
100
AcDbBlockBegin
  2
*MODEL_SPACE
 70
     0
 10
0.0
 20
0.0
 30
0.0
  3
*MODEL_SPACE
  1

  0
ENDBLK
  5
21
330
1F
100
AcDbEntity
  8
0
100
AcDbBlockEnd
  0
BLOCK
  5
1C
330
1B
100
AcDbEntity
 67
     1
  8
0
100
AcDbBlockBegin
  2
*PAPER_SPACE
 70
     0
 10
0.0
 20
0.0
 30
0.0
  3
*PAPER_SPACE
  1

  0
ENDBLK
  5
1D
330
1B
100
AcDbEntity
 67
     1
  8
0
100
AcDbBlockEnd
  0
BLOCK
  5
E4
330
75
100
AcDbEntity
  8
0
100
AcDbBlockBegin
  2
D_FRAME_VIEW_1490
 70
     0
 10
0.0
 20
0.0
 30
0.0
  3
D_FRAME_VIEW_1490
  1

  0
LINE
  5
76
330
75
100
AcDbEntity
  8
0
  6
CONTINUOUS
 62
     7
100
AcDbLine
 10
43.44776332223445
 20
112.3224173990924
 30
0.0
 11
44.18400455856268
 21
113.0089734590051
 31
0.0
  0
ARC
  5
77
330
75
100
AcDbEntity
  8
0
  6
CONTINUOUS
 62
     7
100
AcDbCircle
 10
43.50200619850018
 20
113.7403271606242
 30
0.0
 40
1.000000000000003
100
AcDbArc
 50
313.0000000000002
 51
36.14392137729021
  0
ARC
  5
78
330
75
100
AcDbEntity
  8
0
  6
CONTINUOUS
 62
     7
100
AcDbCircle
 10
-54.00000000000002
 20
121.4079295331832
 30
0.0
 40
12.0
210
0.0
220
0.0
230
-1.0
100
AcDbArc
 50
323.8560786227097
 51
0.0
  0
ARC
  5
79
330
75
100
AcDbEntity
  8
0
  6
CONTINUOUS
 62
     7
100
AcDbCircle
 10
54.00000000000002
 20
121.4079295331832
 30
0.0
 40
15.0
100
AcDbArc
 50
180.0
 51
216.6357443809224
  0
ARC
  5
7A
330
75
100
AcDbEntity
  8
0
  6
CONTINUOUS
 62
     7
100
AcDbCircle
 10
42.76576496217196
 20
113.0537711007115
 30
0.0
 40
1.000000000000005
100
AcDbArc
 50
216.6357443809225
 51
312.9999999999999
  0
LINE
  5
7B
330
75
100
AcDbEntity
  8
0
  6
CONTINUOUS
 62
     7
100
AcDbLine
 10
42.00000000000002
 20
121.4079295331832
 30
0.0
 11
41.99999999999999
 21
171.4079295331831
 31
0.0
  0
ARC
  5
7C
330
75
100
AcDbEntity
  8
0
  6
CONTINUOUS
 62
     7
100
AcDbCircle
 10
106.0
 20
121.4079295331832
 30
0.0
 40
12.0
100
AcDbArc
 50
323.8560786227097
 51
0.0000000000001137
  0
LINE
  5
7D
330
75
100
AcDbEntity
  8
0
  6
CONTINUOUS
 62
     7
100
AcDbLine
 10
38.99999999999999
 20
171.4079295331831
 30
0.0
 11
39.00000000000002
 21
121.4079295331832
 31
0.0
  0
LINE
  5
7E
330
75
100
AcDbEntity
  8
0
  6
CONTINUOUS
 62
     7
100
AcDbLine
 10
116.5522366777656
 20
112.3224173990924
 30
0.0
 11
115.8159954414374
 21
113.0089734590051
 31
0.0
  0
ARC
  5
7F
330
75
100
AcDbEntity
  8
0
  6
CONTINUOUS
 62
     7
100
AcDbCircle
 10
-116.4979938014999
 20
113.7403271606243
 30
0.0
 40
1.000000000000001
210
0.0
220
0.0
230
-1.0
100
AcDbArc
 50
0.0
 51
36.14392137729027
  0
ARC
  5
80
330
75
100
AcDbEntity
  8
0
  6
CONTINUOUS
 62
     7
100
AcDbCircle
 10
-116.4979938014999
 20
113.7403271606243
 30
0.0
 40
0.999999999999998
210
0.0
220
0.0
230
-1.0
100
AcDbArc
 50
313.0000000000002
 51
0.0
  0
ARC
  5
81
330
75
100
AcDbEntity
  8
0
  6
CONTINUOUS
 62
     7
100
AcDbCircle
 10
-106.0
 20
121.4079295331832
 30
0.0
 40
15.00000000000001
210
0.0
220
0.0
230
-1.0
100
AcDbArc
 50
179.9999999999999
 51
216.6357443809224
  0
ARC
  5
82
330
75
100
AcDbEntity
  8
0
  6
CONTINUOUS
 62
     7
100
AcDbCircle
 10
-117.2342350378281
 20
113.0537711007116
 30
0.0
 40
1.000000000000005
210
0.0
220
0.0
230
-1.0
100
AcDbArc
 50
216.6357443809222
 51
312.9999999999997
  0
LINE
  5
83
330
75
100
AcDbEntity
  8
0
  6
CONTINUOUS
 62
     7
100
AcDbLine
 10
121.0
 20
171.4079295331832
 30
0.0
 11
121.0
 21
121.4079295331832
 31
0.0
  0
LINE
  5
84
330
75
100
AcDbEntity
  8
0
  6
CONTINUOUS
 62
     7
100
AcDbLine
 10
118.0
 20
121.4079295331832
 30
0.0
 11
118.0
 21
171.4079295331832
 31
0.0
  0
ARC
  5
85
330
75
100
AcDbEntity
  8
0
  6
CONTINUOUS
 62
     7
100
AcDbCircle
 10
-53.99999999999999
 20
171.4079295331831
 30
0.0
 40
12.0
210
0.0
220
0.0
230
-1.0
100
AcDbArc
 50
0.0
 51
89.99999999999994
  0
ARC
  5
86
330
75
100
AcDbEntity
  8
0
  6
CONTINUOUS
 62
     7
100
AcDbCircle
 10
53.99999999999999
 20
171.4079295331831
 30
0.0
 40
15.00000000000001
100
AcDbArc
 50
90.00000000000009
 51
180.0
  0
ARC
  5
87
330
75
100
AcDbEntity
  8
0
  6
CONTINUOUS
 62
     7
100
AcDbCircle
 10
106.0
 20
171.4079295331832
 30
0.0
 40
12.0
100
AcDbArc
 50
0.0000000000000733
 51
89.99999999999996
  0
ARC
  5
88
330
75
100
AcDbEntity
  8
0
  6
CONTINUOUS
 62
     7
100
AcDbCircle
 10
-106.0
 20
171.4079295331832
 30
0.0
 40
15.00000000000001
210
0.0
220
0.0
230
-1.0
100
AcDbArc
 50
90.00000000000001
 51
179.9999999999999
  0
LINE
  5
89
330
75
100
AcDbEntity
  8
0
  6
CONTINUOUS
 62
     7
100
AcDbLine
 10
106.0
 20
186.4079295331832
 30
0.0
 11
53.99999999999998
 21
186.4079295331832
 31
0.0
  0
LINE
  5
8A
330
75
100
AcDbEntity
  8
0
  6
CONTINUOUS
 62
     7
100
AcDbLine
 10
53.99999999999997
 20
183.4079295331831
 30
0.0
 11
106.0
 21
183.4079295331832
 31
0.0
  0
LINE
  5
8B
330
75
100
AcDbEntity
  8
0
  6
CONTINUOUS
 62
     7
100
AcDbLine
 10
119.8963854088138
 20
109.2039482571019
 30
0.0
 11
116.5522366777656
 21
112.3224173990924
 31
0.0
  0
LINE
  5
8C
330
75
100
AcDbEntity
  8
0
  6
CONTINUOUS
 62
     7
100
AcDbLine
 10
40.10361459118629
 20
109.2039482571018
 30
0.0
 11
43.44776332223445
 21
112.3224173990924
 31
0.0
  0
ARC
  5
8D
330
75
100
AcDbEntity
  8
0
  6
CONTINUOUS
 62
     7
100
AcDbCircle
 10
61.53458330855309
 20
186.9079295331832
 30
0.0
 40
0.5000000000000004
100
AcDbArc
 50
270.0
 51
20.00000000000006
  0
LINE
  5
8E
330
75
100
AcDbEntity
  8
0
  6
CONTINUOUS
 62
     7
100
AcDbLine
 10
62.00442961894604
 20
187.078939604846
 30
0.0
 11
61.39623169170171
 21
188.7499496765089
 31
0.0
  0
ARC
  5
8F
330
75
100
AcDbEntity
  8
0
  6
CONTINUOUS
 62
     7
100
AcDbCircle
 10
60.45653907091582
 20
188.4079295331832
 30
0.0
 40
1.000000000000007
100
AcDbArc
 50
20.00000000000214
 51
89.99999999999982
  0
LINE
  5
90
330
75
100
AcDbEntity
  8
0
  6
CONTINUOUS
 62
     7
100
AcDbLine
 10
60.45653907091582
 20
189.4079295331832
 30
0.0
 11
49.23041903505672
 21
189.4079295331832
 31
0.0
  0
ARC
  5
91
330
75
100
AcDbEntity
  8
0
  6
CONTINUOUS
 62
     7
100
AcDbCircle
 10
49.23041903505675
 20
172.4079295331832
 30
0.0
 40
16.99999999999996
100
AcDbArc
 50
90.00000000000009
 51
132.9999999999999
  0
LINE
  5
92
330
75
100
AcDbEntity
  8
0
  6
CONTINUOUS
 62
     7
100
AcDbLine
 10
37.63644691399429
 20
184.8409424607091
 30
0.0
 11
35.90602787893758
 21
183.227300605179
 31
0.0
  0
ARC
  5
93
330
75
100
AcDbEntity
  8
0
  6
CONTINUOUS
 62
     7
100
AcDbCircle
 10
47.49999999999999
 20
170.794287677653
 30
0.0
 40
16.99999999999999
100
AcDbArc
 50
132.9999999999997
 51
180.0
  0
LINE
  5
94
330
75
100
AcDbEntity
  8
0
  6
CONTINUOUS
 62
     7
100
AcDbLine
 10
30.50000000000003
 20
170.794287677653
 30
0.0
 11
30.50000000000005
 21
159.208759686022
 31
0.0
  0
ARC
  5
95
330
75
100
AcDbEntity
  8
0
  6
CONTINUOUS
 62
     7
100
AcDbCircle
 10
31.50000000000004
 20
159.208759686022
 30
0.0
 40
1.000000000000001
100
AcDbArc
 50
180.0000000000005
 51
250.0
  0
LINE
  5
96
330
75
100
AcDbEntity
  8
0
  6
CONTINUOUS
 62
     7
100
AcDbLine
 10
31.15797985667437
 20
158.2690670652361
 30
0.0
 11
33.34202014332571
 21
157.4741414104568
 31
0.0
  0
ARC
  5
97
330
75
100
AcDbEntity
  8
0
  6
CONTINUOUS
 62
     7
100
AcDbCircle
 10
-33.00000000000005
 20
156.5344487896709
 30
0.0
 40
0.9999999999999777
210
0.0
220
0.0
230
-1.0
100
AcDbArc
 50
109.9999999999997
 51
180.0
  0
LINE
  5
98
330
75
100
AcDbEntity
  8
0
  6
CONTINUOUS
 62
     7
100
AcDbLine
 10
34.00000000000004
 20
156.5344487896709
 30
0.0
 11
34.00000000000006
 21
136.2814102766954
 31
0.0
  0
ARC
  5
99
330
75
100
AcDbEntity
  8
0
  6
CONTINUOUS
 62
     7
100
AcDbCircle
 10
-33.00000000000005
 20
136.2814102766955
 30
0.0
 40
1.000000000000001
210
0.0
220
0.0
230
-1.0
100
AcDbArc
 50
180.0000000000013
 51
250.0000000000003
  0
LINE
  5
9A
330
75
100
AcDbEntity
  8
0
  6
CONTINUOUS
 62
     7
100
AcDbLine
 10
33.34202014332571
 20
135.3417176559095
 30
0.0
 11
31.1579798566744
 21
134.5467920011303
 31
0.0
  0
ARC
  5
9B
330
75
100
AcDbEntity
  8
0
  6
CONTINUOUS
 62
     7
100
AcDbCircle
 10
31.50000000000007
 20
133.6070993803444
 30
0.0
 40
1.000000000000008
100
AcDbArc
 50
110.0000000000004
 51
179.9999999999999
  0
LINE
  5
9C
330
75
100
AcDbEntity
  8
0
  6
CONTINUOUS
 62
     7
100
AcDbLine
 10
30.50000000000007
 20
133.6070993803444
 30
0.0
 11
30.5000000000001
 21
117.673447639104
 31
0.0
  0
ARC
  5
9D
330
75
100
AcDbEntity
  8
0
  6
CONTINUOUS
 62
     7
100
AcDbCircle
 10
37.50000000000009
 20
117.673447639104
 30
0.0
 40
6.999999999999992
100
AcDbArc
 50
180.0
 51
227.0000000000001
  0
LINE
  5
9E
330
75
100
AcDbEntity
  8
0
  6
CONTINUOUS
 62
     7
100
AcDbLine
 10
32.72601147956263
 20
112.5539717277698
 30
0.0
 11
33.96562935062394
 21
111.3980093619593
 31
0.0
  0
ARC
  5
9F
330
75
100
AcDbEntity
  8
0
  6
CONTINUOUS
 62
     7
100
AcDbCircle
 10
36.01162443081136
 20
113.5920704668169
 30
0.0
 40
3.000000000000004
100
AcDbArc
 50
227.0000000000022
 51
313.0000000000001
  0
LINE
  5
A0
330
75
100
AcDbEntity
  8
0
  6
CONTINUOUS
 62
     7
100
AcDbLine
 10
38.05761951099885
 20
111.3980093619594
 30
0.0
 11
38.92724146099387
 21
112.2089449495661
 31
0.0
  0
LINE
  5
A1
330
75
100
AcDbEntity
  8
0
  6
CONTINUOUS
 62
     7
100
AcDbLine
 10
38.92724146099387
 20
112.2089449495661
 30
0.0
 11
40.63582015920912
 21
113.8022203615053
 31
0.0
  0
ARC
  5
A2
330
75
100
AcDbEntity
  8
0
  6
CONTINUOUS
 62
     7
100
AcDbCircle
 10
40.29482097917787
 20
114.1678972123149
 30
0.0
 40
0.5000000000000038
100
AcDbArc
 50
313.0000000000006
 51
27.84614141332901
  0
ARC
  5
A3
330
75
100
AcDbEntity
  8
0
  6
CONTINUOUS
 62
     7
100
AcDbCircle
 10
37.50000000000004
 20
117.673447639104
 30
0.0
 40
9.999999999999995
100
AcDbArc
 50
180.0
 51
227.0000000000001
  0
ARC
  5
A4
330
75
100
AcDbEntity
  8
0
  6
CONTINUOUS
 62
     7
100
AcDbCircle
 10
-123.9883755691887
 20
113.5920704668169
 30
0.0
 40
5.99999999999999
210
0.0
220
0.0
230
-1.0
100
AcDbArc
 50
227.0000000000005
 51
312.9999999999999
  0
LINE
  5
A5
330
75
100
AcDbEntity
  8
0
  6
CONTINUOUS
 62
     7
100
AcDbLine
 10
30.68001639937506
 20
110.3599106229123
 30
0.0
 11
31.91963427043637
 21
109.2039482571018
 31
0.0
  0
ARC
  5
A6
330
75
100
AcDbEntity
  8
0
  6
CONTINUOUS
 62
     7
100
AcDbCircle
 10
-119.7051790208222
 20
114.167897212315
 30
0.0
 40
0.499999999999999
210
0.0
220
0.0
230
-1.0
100
AcDbArc
 50
313.0000000000006
 51
27.84614141332901
  0
LINE
  5
A7
330
75
100
AcDbEntity
  8
0
  6
CONTINUOUS
 62
     7
100
AcDbLine
 10
121.0727585390062
 20
112.2089449495662
 30
0.0
 11
119.3641798407909
 21
113.8022203615054
 31
0.0
  0
LINE
  5
A8
330
75
100
AcDbEntity
  8
0
  6
CONTINUOUS
 62
     7
100
AcDbLine
 10
121.9423804890012
 20
111.3980093619594
 30
0.0
 11
121.0727585390062
 21
112.2089449495662
 31
0.0
  0
ARC
  5
A9
330
75
100
AcDbEntity
  8
0
  6
CONTINUOUS
 62
     7
100
AcDbCircle
 10
-123.9883755691887
 20
113.5920704668169
 30
0.0
 40
3.000000000000017
210
0.0
220
0.0
230
-1.0
100
AcDbArc
 50
227.000000000002
 51
312.9999999999999
  0
LINE
  5
AA
330
75
100
AcDbEntity
  8
0
  6
CONTINUOUS
 62
     7
100
AcDbLine
 10
127.2739885204374
 20
112.5539717277699
 30
0.0
 11
126.0343706493761
 21
111.3980093619593
 31
0.0
  0
ARC
  5
AB
330
75
100
AcDbEntity
  8
0
  6
CONTINUOUS
 62
     7
100
AcDbCircle
 10
-122.4999999999999
 20
117.6734476391041
 30
0.0
 40
7.000000000000006
210
0.0
220
0.0
230
-1.0
100
AcDbArc
 50
179.9999999999999
 51
227.0
  0
LINE
  5
AC
330
75
100
AcDbEntity
  8
0
  6
CONTINUOUS
 62
     7
100
AcDbLine
 10
129.4999999999999
 20
133.6070993803444
 30
0.0
 11
129.4999999999999
 21
117.6734476391041
 31
0.0
  0
ARC
  5
AD
330
75
100
AcDbEntity
  8
0
  6
CONTINUOUS
 62
     7
100
AcDbCircle
 10
-128.4999999999999
 20
133.6070993803444
 30
0.0
 40
1.000000000000001
210
0.0
220
0.0
230
-1.0
100
AcDbArc
 50
109.9999999999999
 51
179.9999999999998
  0
LINE
  5
AE
330
75
100
AcDbEntity
  8
0
  6
CONTINUOUS
 62
     7
100
AcDbLine
 10
126.6579798566743
 20
135.3417176559096
 30
0.0
 11
128.8420201433256
 21
134.5467920011303
 31
0.0
  0
ARC
  5
AF
330
75
100
AcDbEntity
  8
0
  6
CONTINUOUS
 62
     7
100
AcDbCircle
 10
126.9999999999999
 20
136.2814102766955
 30
0.0
 40
1.000000000000001
100
AcDbArc
 50
180.0000000000014
 51
250.0000000000004
  0
LINE
  5
B0
330
75
100
AcDbEntity
  8
0
  6
CONTINUOUS
 62
     7
100
AcDbLine
 10
125.9999999999999
 20
156.534448789671
 30
0.0
 11
125.9999999999999
 21
136.2814102766955
 31
0.0
  0
ARC
  5
B1
330
75
100
AcDbEntity
  8
0
  6
CONTINUOUS
 62
     7
100
AcDbCircle
 10
126.9999999999999
 20
156.534448789671
 30
0.0
 40
0.9999999999999846
100
AcDbArc
 50
109.9999999999997
 51
180.0000000000001
  0
LINE
  5
B2
330
75
100
AcDbEntity
  8
0
  6
CONTINUOUS
 62
     7
100
AcDbLine
 10
128.8420201433256
 20
158.2690670652362
 30
0.0
 11
126.6579798566743
 21
157.4741414104568
 31
0.0
  0
ARC
  5
B3
330
75
100
AcDbEntity
  8
0
  6
CONTINUOUS
 62
     7
100
AcDbCircle
 10
-128.4999999999999
 20
159.2087596860221
 30
0.0
 40
1.000000000000001
210
0.0
220
0.0
230
-1.0
100
AcDbArc
 50
180.0000000000004
 51
250.0
  0
LINE
  5
B4
330
75
100
AcDbEntity
  8
0
  6
CONTINUOUS
 62
     7
100
AcDbLine
 10
129.4999999999999
 20
170.794287677653
 30
0.0
 11
129.4999999999999
 21
159.2087596860221
 31
0.0
  0
ARC
  5
B5
330
75
100
AcDbEntity
  8
0
  6
CONTINUOUS
 62
     7
100
AcDbCircle
 10
-112.5
 20
170.794287677653
 30
0.0
 40
16.99999999999997
210
0.0
220
0.0
230
-1.0
100
AcDbArc
 50
132.9999999999996
 51
179.9999999999999
  0
LINE
  5
B6
330
75
100
AcDbEntity
  8
0
  6
CONTINUOUS
 62
     7
100
AcDbLine
 10
122.3635530860057
 20
184.8409424607091
 30
0.0
 11
124.0939721210624
 21
183.227300605179
 31
0.0
  0
ARC
  5
B7
330
75
100
AcDbEntity
  8
0
  6
CONTINUOUS
 62
     7
100
AcDbCircle
 10
-110.7695809649432
 20
172.4079295331832
 30
0.0
 40
16.99999999999999
210
0.0
220
0.0
230
-1.0
100
AcDbArc
 50
90.00000000000001
 51
132.9999999999998
  0
LINE
  5
B8
330
75
100
AcDbEntity
  8
0
  6
CONTINUOUS
 62
     7
100
AcDbLine
 10
99.54346092908413
 20
189.4079295331832
 30
0.0
 11
110.7695809649432
 21
189.4079295331832
 31
0.0
  0
ARC
  5
B9
330
75
100
AcDbEntity
  8
0
  6
CONTINUOUS
 62
     7
100
AcDbCircle
 10
-99.54346092908413
 20
188.4079295331832
 30
0.0
 40
0.9999999999999978
210
0.0
220
0.0
230
-1.0
100
AcDbArc
 50
20.00000000000214
 51
89.99999999999982
  0
LINE
  5
BA
330
75
100
AcDbEntity
  8
0
  6
CONTINUOUS
 62
     7
100
AcDbLine
 10
97.99557038105391
 20
187.078939604846
 30
0.0
 11
98.60376830829823
 21
188.7499496765089
 31
0.0
  0
ARC
  5
BB
330
75
100
AcDbEntity
  8
0
  6
CONTINUOUS
 62
     7
100
AcDbCircle
 10
-98.46541669144688
 20
186.9079295331832
 30
0.0
 40
0.5000000000000004
210
0.0
220
0.0
230
-1.0
100
AcDbArc
 50
270.0
 51
20.00000000000006
  0
ARC
  5
BC
330
75
100
AcDbEntity
  8
0
  6
CONTINUOUS
 62
     7
100
AcDbCircle
 10
36.0116244308113
 20
113.5920704668168
 30
0.0
 40
5.999999999999991
100
AcDbArc
 50
227.0000000000006
 51
312.9999999999999
  0
ARC
  5
BD
330
75
100
AcDbEntity
  8
0
  6
CONTINUOUS
 62
     7
100
AcDbCircle
 10
-122.5
 20
117.6734476391041
 30
0.0
 40
10.00000000000001
210
0.0
220
0.0
230
-1.0
100
AcDbArc
 50
180.0
 51
227.0
  0
LINE
  5
BE
330
75
100
AcDbEntity
  8
0
  6
CONTINUOUS
 62
     7
100
AcDbLine
 10
129.319983600625
 20
110.3599106229124
 30
0.0
 11
128.0803657295637
 21
109.2039482571019
 31
0.0
  0
LINE
  5
BF
330
75
100
AcDbEntity
  8
0
  6
CONTINUOUS
 62
     7
100
AcDbLine
 10
27.50000000000002
 20
135.7077219949734
 30
0.0
 11
27.50000000000006
 21
117.673447639104
 31
0.0
  0
LINE
  5
C0
330
75
100
AcDbEntity
  8
0
  6
CONTINUOUS
 62
     7
100
AcDbLine
 10
132.5
 20
135.7077219949735
 30
0.0
 11
132.5
 21
117.6734476391041
 31
0.0
  0
LINE
  5
C1
330
75
100
AcDbEntity
  8
0
  6
CONTINUOUS
 62
     7
100
AcDbLine
 10
30.99999999999999
 20
154.4338261750418
 30
0.0
 11
31.0
 21
138.3820328913245
 31
0.0
  0
ARC
  5
C2
330
75
100
AcDbEntity
  8
0
  6
CONTINUOUS
 62
     7
100
AcDbCircle
 10
-30.0
 20
138.3820328913245
 30
0.0
 40
1.000000000000001
210
0.0
220
0.0
230
-1.0
100
AcDbArc
 50
180.0
 51
250.0
  0
LINE
  5
C3
330
75
100
AcDbEntity
  8
0
  6
CONTINUOUS
 62
     7
100
AcDbLine
 10
30.34202014332567
 20
137.4423402705386
 30
0.0
 11
28.15797985667436
 21
136.6474146157593
 31
0.0
  0
LINE
  5
C4
330
75
100
AcDbEntity
  8
0
  6
CONTINUOUS
 62
     7
100
AcDbLine
 10
129.0
 20
154.4338261750418
 30
0.0
 11
129.0
 21
138.3820328913246
 31
0.0
  0
ARC
  5
C5
330
75
100
AcDbEntity
  8
0
  6
CONTINUOUS
 62
     7
100
AcDbCircle
 10
130.0
 20
138.3820328913246
 30
0.0
 40
1.000000000000001
100
AcDbArc
 50
180.0000000000001
 51
250.0
  0
LINE
  5
C6
330
75
100
AcDbEntity
  8
0
  6
CONTINUOUS
 62
     7
100
AcDbLine
 10
129.6579798566744
 20
137.4423402705387
 30
0.0
 11
131.8420201433257
 21
136.6474146157594
 31
0.0
  0
ARC
  5
C7
330
75
100
AcDbEntity
  8
0
  6
CONTINUOUS
 62
     7
100
AcDbCircle
 10
-131.5
 20
135.7077219949735
 30
0.0
 40
1.000000000000011
210
0.0
220
0.0
230
-1.0
100
AcDbArc
 50
110.0
 51
179.9999999999999
  0
ARC
  5
C8
330
75
100
AcDbEntity
  8
0
  6
CONTINUOUS
 62
     7
100
AcDbCircle
 10
28.50000000000002
 20
135.7077219949734
 30
0.0
 40
1.000000000000006
100
AcDbArc
 50
110.0000000000001
 51
179.9999999999999
  0
ARC
  5
C9
330
75
100
AcDbEntity
  8
0
  6
CONTINUOUS
 62
     7
100
AcDbCircle
 10
-30.0
 20
154.4338261750418
 30
0.0
 40
0.99999999999998
210
0.0
220
0.0
230
-1.0
100
AcDbArc
 50
110.0000000000001
 51
179.9999999999999
  0
LINE
  5
CA
330
75
100
AcDbEntity
  8
0
  6
CONTINUOUS
 62
     7
100
AcDbLine
 10
28.15797985667436
 20
156.168444450607
 30
0.0
 11
30.34202014332567
 21
155.3735187958276
 31
0.0
  0
LINE
  5
CB
330
75
100
AcDbEntity
  8
0
  6
CONTINUOUS
 62
     7
100
AcDbLine
 10
27.49999999999999
 20
170.794287677653
 30
0.0
 11
27.50000000000002
 21
157.1081370713929
 31
0.0
  0
ARC
  5
CC
330
75
100
AcDbEntity
  8
0
  6
CONTINUOUS
 62
     7
100
AcDbCircle
 10
130.0
 20
154.4338261750418
 30
0.0
 40
1.000000000000011
100
AcDbArc
 50
110.0000000000005
 51
180.0
  0
LINE
  5
CD
330
75
100
AcDbEntity
  8
0
  6
CONTINUOUS
 62
     7
100
AcDbLine
 10
131.8420201433256
 20
156.168444450607
 30
0.0
 11
129.6579798566743
 21
155.3735187958277
 31
0.0
  0
LINE
  5
CE
330
75
100
AcDbEntity
  8
0
  6
CONTINUOUS
 62
     7
100
AcDbLine
 10
132.5
 20
170.794287677653
 30
0.0
 11
132.4999999999999
 21
157.1081370713929
 31
0.0
  0
ARC
  5
CF
330
75
100
AcDbEntity
  8
0
  6
CONTINUOUS
 62
     7
100
AcDbCircle
 10
-131.4999999999999
 20
157.1081370713929
 30
0.0
 40
1.000000000000001
210
0.0
220
0.0
230
-1.0
100
AcDbArc
 50
180.0
 51
250.0
  0
ARC
  5
D0
330
75
100
AcDbEntity
  8
0
  6
CONTINUOUS
 62
     7
100
AcDbCircle
 10
28.50000000000002
 20
157.1081370713929
 30
0.0
 40
1.000000000000001
100
AcDbArc
 50
180.0
 51
250.0
  0
ARC
  5
D1
330
75
100
AcDbEntity
  8
0
  6
CONTINUOUS
 62
     7
100
AcDbCircle
 10
47.49999999999998
 20
170.794287677653
 30
0.0
 40
20.00000000000001
100
AcDbArc
 50
132.9999999999998
 51
179.9999999999999
  0
ARC
  5
D2
330
75
100
AcDbEntity
  8
0
  6
CONTINUOUS
 62
     7
100
AcDbCircle
 10
-112.5
 20
170.794287677653
 30
0.0
 40
19.99999999999999
210
0.0
220
0.0
230
-1.0
100
AcDbArc
 50
132.9999999999997
 51
179.9999999999998
  0
LINE
  5
D3
330
75
100
AcDbEntity
  8
0
  6
CONTINUOUS
 62
     7
100
AcDbLine
 10
35.59045183380676
 20
187.0350035655666
 30
0.0
 11
33.86003279875006
 21
185.4213617100364
 31
0.0
  0
LINE
  5
D4
330
75
100
AcDbEntity
  8
0
  6
CONTINUOUS
 62
     7
100
AcDbLine
 10
65.44119062935187
 20
186.4079295331832
 30
0.0
 11
64.21530955405944
 21
189.7760101064858
 31
0.0
  0
ARC
  5
D5
330
75
100
AcDbEntity
  8
0
  6
CONTINUOUS
 62
     7
100
AcDbCircle
 10
-110.7695809649432
 20
172.4079295331832
 30
0.0
 40
19.99999999999999
210
0.0
220
0.0
230
-1.0
100
AcDbArc
 50
90.00000000000001
 51
132.9999999999999
  0
LINE
  5
D6
330
75
100
AcDbEntity
  8
0
  6
CONTINUOUS
 62
     7
100
AcDbLine
 10
124.4095481661932
 20
187.0350035655666
 30
0.0
 11
126.1399672012499
 21
185.4213617100365
 31
0.0
  0
ARC
  5
D7
330
75
100
AcDbEntity
  8
0
  6
CONTINUOUS
 62
     7
100
AcDbCircle
 10
49.23041903505673
 20
172.4079295331831
 30
0.0
 40
19.99999999999999
100
AcDbArc
 50
90.00000000000009
 51
133.0
  0
ARC
  5
D8
330
75
100
AcDbEntity
  8
0
  6
CONTINUOUS
 62
     7
100
AcDbCircle
 10
60.45653907091583
 20
188.4079295331831
 30
0.0
 40
3.999999999999994
100
AcDbArc
 50
20.00000000000055
 51
90.00000000000009
  0
LINE
  5
D9
330
75
100
AcDbEntity
  8
0
  6
CONTINUOUS
 62
     7
100
AcDbLine
 10
94.55880937064808
 20
186.4079295331832
 30
0.0
 11
95.7846904459405
 21
189.7760101064859
 31
0.0
  0
LINE
  5
DA
330
75
100
AcDbEntity
  8
0
  6
CONTINUOUS
 62
     7
100
AcDbLine
 10
60.45653907091582
 20
192.4079295331831
 30
0.0
 11
49.23041903505671
 21
192.4079295331831
 31
0.0
  0
ARC
  5
DB
330
75
100
AcDbEntity
  8
0
  6
CONTINUOUS
 62
     7
100
AcDbCircle
 10
-99.54346092908412
 20
188.4079295331832
 30
0.0
 40
3.999999999999994
210
0.0
220
0.0
230
-1.0
100
AcDbArc
 50
20.00000000000044
 51
89.99999999999999
  0
LINE
  5
DC
330
75
100
AcDbEntity
  8
0
  6
CONTINUOUS
 62
     7
100
AcDbLine
 10
99.54346092908412
 20
192.4079295331832
 30
0.0
 11
110.7695809649432
 21
192.4079295331832
 31
0.0
  0
LINE
  5
DD
330
75
100
AcDbEntity
  8
0
  6
CONTINUOUS
 62
     7
100
AcDbLine
 10
62.10214165512158
 20
180.4079295331831
 30
0.0
 11
97.89785834487837
 21
180.4079295331832
 31
0.0
  0
LINE
  5
DE
330
75
100
AcDbEntity
  8
0
  6
CONTINUOUS
 62
     7
100
AcDbLine
 10
58.63804003998383
 20
183.4079295331831
 30
0.0
 11
59.50406544376827
 21
181.9079295331831
 31
0.0
  0
ARC
  5
DF
330
75
100
AcDbEntity
  8
0
  6
CONTINUOUS
 62
     7
100
AcDbCircle
 10
97.89785834487837
 20
183.4079295331832
 30
0.0
 40
3.000000000000003
100
AcDbArc
 50
270.0
 51
330.0
  0
LINE
  5
E0
330
75
100
AcDbEntity
  8
0
  6
CONTINUOUS
 62
     7
100
AcDbLine
 10
101.3619599600161
 20
183.4079295331831
 30
0.0
 11
100.4959345562317
 21
181.9079295331832
 31
0.0
  0
ARC
  5
E1
330
75
100
AcDbEntity
  8
0
  6
CONTINUOUS
 62
     7
100
AcDbCircle
 10
-62.10214165512158
 20
183.4079295331831
 30
0.0
 40
3.000000000000003
210
0.0
220
0.0
230
-1.0
100
AcDbArc
 50
269.9999999999999
 51
330.0
  0
ENDBLK
  5
E5
330
75
100
AcDbEntity
  8
0
100
AcDbBlockEnd
  0
BLOCK
  5
144
330
E3
100
AcDbEntity
  8
0
100
AcDbBlockBegin
  2
D_FRAME_VIEW_2401
 70
     0
 10
0.0
 20
0.0
 30
0.0
  3
D_FRAME_VIEW_2401
  1

  0
LINE
  5
E6
330
E3
100
AcDbEntity
  8
0
  6
CONTINUOUS
 62
     7
100
AcDbLine
 10
123.0455514460682
 20
224.5
 30
0.0
 11
110.7695809649432
 21
224.5
 31
0.0
  0
LINE
  5
E7
330
E3
100
AcDbEntity
  8
0
  6
CONTINUOUS
 62
     7
100
AcDbLine
 10
110.7695809649432
 20
224.5
 30
0.0
 11
99.54346092908413
 21
224.5
 31
0.0
  0
LINE
  5
E8
330
E3
100
AcDbEntity
  8
0
  6
CONTINUOUS
 62
     7
100
AcDbLine
 10
110.7695809649432
 20
232.0
 30
0.0
 11
123.0455514460682
 21
232.0
 31
0.0
  0
LINE
  5
E9
330
E3
100
AcDbEntity
  8
0
  6
CONTINUOUS
 62
     7
100
AcDbLine
 10
96.07935931394637
 20
232.0
 30
0.0
 11
110.7695809649432
 21
232.0
 31
0.0
  0
LINE
  5
EA
330
E3
100
AcDbEntity
  8
0
  6
CONTINUOUS
 62
     7
100
AcDbLine
 10
99.54346092908413
 20
224.5
 30
0.0
 11
97.66407568751231
 21
224.5
 31
0.0
  0
LINE
  5
EB
330
E3
100
AcDbEntity
  8
0
  6
CONTINUOUS
 62
     7
100
AcDbLine
 10
95.78469044594051
 20
232.0
 30
0.0
 11
96.07935931394637
 21
232.0
 31
0.0
  0
LINE
  5
EC
330
E3
100
AcDbEntity
  8
0
  6
CONTINUOUS
 62
     7
100
AcDbLine
 10
96.07935931394634
 20
248.0
 30
0.0
 11
110.7695809649432
 21
248.0
 31
0.0
  0
LINE
  5
ED
330
E3
100
AcDbEntity
  8
0
  6
CONTINUOUS
 62
     7
100
AcDbLine
 10
110.7695809649432
 20
248.0
 30
0.0
 11
123.0455514460682
 21
248.0
 31
0.0
  0
LINE
  5
EE
330
E3
100
AcDbEntity
  8
0
  6
CONTINUOUS
 62
     7
100
AcDbLine
 10
110.7695809649432
 20
255.5
 30
0.0
 11
99.54346092908412
 21
255.5
 31
0.0
  0
LINE
  5
EF
330
E3
100
AcDbEntity
  8
0
  6
CONTINUOUS
 62
     7
100
AcDbLine
 10
123.0455514460682
 20
255.5
 30
0.0
 11
110.7695809649432
 21
255.5
 31
0.0
  0
LINE
  5
F0
330
E3
100
AcDbEntity
  8
0
  6
CONTINUOUS
 62
     7
100
AcDbLine
 10
49.23041903505671
 20
224.5
 30
0.0
 11
60.45653907091582
 21
224.5
 31
0.0
  0
LINE
  5
F1
330
E3
100
AcDbEntity
  8
0
  6
CONTINUOUS
 62
     7
100
AcDbLine
 10
95.78469044594048
 20
248.0
 30
0.0
 11
96.07935931394634
 21
248.0
 31
0.0
  0
LINE
  5
F2
330
E3
100
AcDbEntity
  8
0
  6
CONTINUOUS
 62
     7
100
AcDbLine
 10
36.95444855393178
 20
224.5
 30
0.0
 11
49.23041903505671
 21
224.5
 31
0.0
  0
LINE
  5
F3
330
E3
100
AcDbEntity
  8
0
  6
CONTINUOUS
 62
     7
100
AcDbLine
 10
60.45653907091582
 20
224.5
 30
0.0
 11
62.33592431248763
 21
224.5
 31
0.0
  0
LINE
  5
F4
330
E3
100
AcDbEntity
  8
0
  6
CONTINUOUS
 62
     7
100
AcDbLine
 10
64.21530955405943
 20
232.0
 30
0.0
 11
63.92064068605357
 21
232.0
 31
0.0
  0
LINE
  5
F5
330
E3
100
AcDbEntity
  8
0
  6
CONTINUOUS
 62
     7
100
AcDbLine
 10
99.54346092908412
 20
255.5
 30
0.0
 11
97.6640756875123
 21
255.5
 31
0.0
  0
LINE
  5
F6
330
E3
100
AcDbEntity
  8
0
  6
CONTINUOUS
 62
     7
100
AcDbLine
 10
63.92064068605357
 20
232.0
 30
0.0
 11
49.23041903505671
 21
232.0
 31
0.0
  0
LINE
  5
F7
330
E3
100
AcDbEntity
  8
0
  6
CONTINUOUS
 62
     7
100
AcDbLine
 10
49.23041903505671
 20
232.0
 30
0.0
 11
36.95444855393178
 21
232.0
 31
0.0
  0
LINE
  5
F8
330
E3
100
AcDbEntity
  8
0
  6
CONTINUOUS
 62
     7
100
AcDbLine
 10
49.23041903505672
 20
255.5
 30
0.0
 11
60.45653907091584
 21
255.5
 31
0.0
  0
LINE
  5
F9
330
E3
100
AcDbEntity
  8
0
  6
CONTINUOUS
 62
     7
100
AcDbLine
 10
64.21530955405944
 20
248.0
 30
0.0
 11
63.92064068605359
 21
248.0
 31
0.0
  0
LINE
  5
FA
330
E3
100
AcDbEntity
  8
0
  6
CONTINUOUS
 62
     7
100
AcDbLine
 10
60.45653907091584
 20
255.5
 30
0.0
 11
62.33592431248765
 21
255.5
 31
0.0
  0
LINE
  5
FB
330
E3
100
AcDbEntity
  8
0
  6
CONTINUOUS
 62
     7
100
AcDbLine
 10
63.9206406860536
 20
248.0
 30
0.0
 11
49.23041903505672
 21
248.0
 31
0.0
  0
LINE
  5
FC
330
E3
100
AcDbEntity
  8
0
  6
CONTINUOUS
 62
     7
100
AcDbLine
 10
49.23041903505672
 20
248.0
 30
0.0
 11
36.95444855393178
 21
248.0
 31
0.0
  0
LINE
  5
FD
330
E3
100
AcDbEntity
  8
0
  6
CONTINUOUS
 62
     7
100
AcDbLine
 10
36.95444855393177
 20
255.5
 30
0.0
 11
49.23041903505672
 21
255.5
 31
0.0
  0
ELLIPSE
  5
FE
330
E3
100
AcDbEntity
  8
0
  6
CONTINUOUS
 62
     7
100
AcDbEllipse
 10
96.6871649155999
 20
226.5
 30
0.0
 11
-2.128355544951818
 21
0.0
 31
0.0
210
0.0
220
0.0
230
-1.0
 40
0.9396926207859053
 41
4.71238898038469
 42
6.283185307179586
  0
LINE
  5
FF
330
E3
100
AcDbEntity
  8
0
  6
CONTINUOUS
 62
     7
100
AcDbLine
 10
97.66407568751231
 20
224.5
 30
0.0
 11
96.6871649155999
 21
224.5
 31
0.0
  0
LWPOLYLINE
  5
100
330
E3
100
AcDbEntity
  8
0
  6
CONTINUOUS
 62
     7
100
AcDbPolyline
 90
        6
 70
     0
 43
0.0
 10
-94.92277960491427
 20
232.0
 10
-94.81712462293008
 20
232.0430596642678
 10
-94.73566150867337
 20
232.1422713899997
 10
-94.67835213479505
 20
232.259048874645
 10
-94.67835213479505
 20
232.259048874645
 42
0.0895691996254432
 10
-94.55880937064808
 20
233.0
210
0.0
220
0.0
230
-1.0
  0
LINE
  5
101
330
E3
100
AcDbEntity
  8
0
  6
CONTINUOUS
 62
     7
100
AcDbLine
 10
94.55880937064808
 20
226.5
 30
0.0
 11
94.55880937064808
 21
233.0
 31
0.0
  0
LINE
  5
102
330
E3
100
AcDbEntity
  8
0
  6
CONTINUOUS
 62
     7
100
AcDbLine
 10
94.92277960491427
 20
232.0
 30
0.0
 11
95.7846904459405
 21
232.0
 31
0.0
  0
ELLIPSE
  5
103
330
E3
100
AcDbEntity
  8
0
  6
CONTINUOUS
 62
     7
100
AcDbEllipse
 10
96.68716491559988
 20
253.5
 30
0.0
 11
-2.128355544951818
 21
0.0
 31
0.0
210
0.0
220
0.0
230
1.0
 40
0.9396926207859053
 41
4.71238898038469
 42
6.283185307179586
  0
LINE
  5
104
330
E3
100
AcDbEntity
  8
0
  6
CONTINUOUS
 62
     7
100
AcDbLine
 10
97.6640756875123
 20
255.5
 30
0.0
 11
96.68716491559988
 21
255.5
 31
0.0
  0
LWPOLYLINE
  5
105
330
E3
100
AcDbEntity
  8
0
  6
CONTINUOUS
 62
     7
100
AcDbPolyline
 90
        6
 70
     0
 43
0.0
 10
65.07722039508567
 20
232.0
 10
65.18287537706988
 20
232.0430596642678
 10
65.26433849132658
 20
232.1422713899997
 10
65.32164786520491
 20
232.259048874645
 10
65.32164786520491
 20
232.259048874645
 42
0.0895691996254432
 10
65.44119062935187
 20
233.0
  0
LINE
  5
106
330
E3
100
AcDbEntity
  8
0
  6
CONTINUOUS
 62
     7
100
AcDbLine
 10
65.44119062935187
 20
226.5
 30
0.0
 11
65.44119062935187
 21
233.0
 31
0.0
  0
LINE
  5
107
330
E3
100
AcDbEntity
  8
0
  6
CONTINUOUS
 62
     7
100
AcDbLine
 10
65.07722039508567
 20
232.0
 30
0.0
 11
64.21530955405944
 21
232.0
 31
0.0
  0
ELLIPSE
  5
108
330
E3
100
AcDbEntity
  8
0
  6
CONTINUOUS
 62
     7
100
AcDbEllipse
 10
63.31283508440006
 20
226.5
 30
0.0
 11
2.128355544951818
 21
0.0
 31
0.0
210
0.0
220
0.0
230
1.0
 40
0.9396926207859119
 41
4.71238898038469
 42
6.283185307179586
  0
LINE
  5
109
330
E3
100
AcDbEntity
  8
0
  6
CONTINUOUS
 62
     7
100
AcDbLine
 10
62.33592431248763
 20
224.5
 30
0.0
 11
63.31283508440006
 21
224.5
 31
0.0
  0
LWPOLYLINE
  5
10A
330
E3
100
AcDbEntity
  8
0
  6
CONTINUOUS
 62
     7
100
AcDbPolyline
 90
        6
 70
     0
 43
0.0
 10
94.92277960491427
 20
248.0
 10
94.81712462293007
 20
247.9569403357322
 10
94.73566150867335
 20
247.8577286100003
 10
94.67835213479503
 20
247.740951125355
 10
94.67835213479503
 20
247.740951125355
 42
0.0895691996254531
 10
94.55880937064806
 20
247.0
  0
LINE
  5
10B
330
E3
100
AcDbEntity
  8
0
  6
CONTINUOUS
 62
     7
100
AcDbLine
 10
94.55880937064806
 20
253.5
 30
0.0
 11
94.55880937064806
 21
247.0
 31
0.0
  0
LINE
  5
10C
330
E3
100
AcDbEntity
  8
0
  6
CONTINUOUS
 62
     7
100
AcDbLine
 10
94.92277960491425
 20
248.0
 30
0.0
 11
95.78469044594048
 21
248.0
 31
0.0
  0
LWPOLYLINE
  5
10D
330
E3
100
AcDbEntity
  8
0
  6
CONTINUOUS
 62
     7
100
AcDbPolyline
 90
        6
 70
     0
 43
0.0
 10
-65.07722039508569
 20
248.0
 10
-65.18287537706989
 20
247.9569403357322
 10
-65.2643384913266
 20
247.8577286100003
 10
-65.32164786520492
 20
247.740951125355
 10
-65.32164786520492
 20
247.740951125355
 42
0.0895691996254893
 10
-65.44119062935188
 20
247.0
210
0.0
220
0.0
230
-1.0
  0
LINE
  5
10E
330
E3
100
AcDbEntity
  8
0
  6
CONTINUOUS
 62
     7
100
AcDbLine
 10
65.44119062935188
 20
253.5
 30
0.0
 11
65.44119062935188
 21
247.0
 31
0.0
  0
LINE
  5
10F
330
E3
100
AcDbEntity
  8
0
  6
CONTINUOUS
 62
     7
100
AcDbLine
 10
65.07722039508569
 20
248.0
 30
0.0
 11
64.21530955405946
 21
248.0
 31
0.0
  0
ELLIPSE
  5
110
330
E3
100
AcDbEntity
  8
0
  6
CONTINUOUS
 62
     7
100
AcDbEllipse
 10
63.31283508440006
 20
253.5
 30
0.0
 11
2.128355544951832
 21
0.0
 31
0.0
210
0.0
220
0.0
230
-1.0
 40
0.9396926207859058
 41
4.71238898038469
 42
6.283185307179586
  0
LINE
  5
111
330
E3
100
AcDbEntity
  8
0
  6
CONTINUOUS
 62
     7
100
AcDbLine
 10
62.33592431248765
 20
255.5
 30
0.0
 11
63.31283508440006
 21
255.5
 31
0.0
  0
ARC
  5
112
330
E3
100
AcDbEntity
  8
0
  6
CONTINUOUS
 62
     7
100
AcDbCircle
 10
-122.0
 20
233.0
 30
0.0
 40
1.000000000000001
210
0.0
220
0.0
230
-1.0
100
AcDbArc
 50
270.0000000000004
 51
0.0000000000000568
  0
ARC
  5
113
330
E3
100
AcDbEntity
  8
0
  6
CONTINUOUS
 62
     7
100
AcDbCircle
 10
122.0
 20
247.0
 30
0.0
 40
1.000000000000001
100
AcDbArc
 50
90.00000000000043
 51
180.0
  0
ARC
  5
114
330
E3
100
AcDbEntity
  8
0
  6
CONTINUOUS
 62
     7
100
AcDbCircle
 10
37.99999999999999
 20
233.0
 30
0.0
 40
1.000000000000001
100
AcDbArc
 50
270.0000000000004
 51
0.0000000000000568
  0
ARC
  5
115
330
E3
100
AcDbEntity
  8
0
  6
CONTINUOUS
 62
     7
100
AcDbCircle
 10
-37.99999999999999
 20
247.0
 30
0.0
 40
1.000000000000001
210
0.0
220
0.0
230
-1.0
100
AcDbArc
 50
90.0000000000004
 51
180.0
  0
LINE
  5
116
330
E3
100
AcDbEntity
  8
0
  6
CONTINUOUS
 62
     7
100
AcDbLine
 10
123.0455514460682
 20
232.0
 30
0.0
 11
124.7759704811249
 21
232.0
 31
0.0
  0
LINE
  5
117
330
E3
100
AcDbEntity
  8
0
  6
CONTINUOUS
 62
     7
100
AcDbLine
 10
124.7759704811249
 20
224.5
 30
0.0
 11
123.0455514460682
 21
224.5
 31
0.0
  0
LINE
  5
118
330
E3
100
AcDbEntity
  8
0
  6
CONTINUOUS
 62
     7
100
AcDbLine
 10
123.0455514460682
 20
248.0
 30
0.0
 11
124.7759704811249
 21
248.0
 31
0.0
  0
LINE
  5
119
330
E3
100
AcDbEntity
  8
0
  6
CONTINUOUS
 62
     7
100
AcDbLine
 10
124.7759704811249
 20
255.5
 30
0.0
 11
123.0455514460682
 21
255.5
 31
0.0
  0
LINE
  5
11A
330
E3
100
AcDbEntity
  8
0
  6
CONTINUOUS
 62
     7
100
AcDbLine
 10
35.22402951887506
 20
224.5
 30
0.0
 11
36.95444855393176
 21
224.5
 31
0.0
  0
LINE
  5
11B
330
E3
100
AcDbEntity
  8
0
  6
CONTINUOUS
 62
     7
100
AcDbLine
 10
36.95444855393176
 20
232.0
 30
0.0
 11
35.22402951887506
 21
232.0
 31
0.0
  0
LINE
  5
11C
330
E3
100
AcDbEntity
  8
0
  6
CONTINUOUS
 62
     7
100
AcDbLine
 10
35.22402951887507
 20
255.5
 30
0.0
 11
36.95444855393178
 21
255.5
 31
0.0
  0
LINE
  5
11D
330
E3
100
AcDbEntity
  8
0
  6
CONTINUOUS
 62
     7
100
AcDbLine
 10
36.95444855393178
 20
248.0
 30
0.0
 11
35.22402951887508
 21
248.0
 31
0.0
  0
ARC
  5
11E
330
E3
100
AcDbEntity
  8
0
  6
CONTINUOUS
 62
     7
100
AcDbCircle
 10
-120.0
 20
219.0
 30
0.0
 40
1.000000000000001
210
0.0
220
0.0
230
-1.0
100
AcDbArc
 50
180.0
 51
269.9999999999996
  0
LINE
  5
11F
330
E3
100
AcDbEntity
  8
0
  6
CONTINUOUS
 62
     7
100
AcDbLine
 10
120.0
 20
218.0
 30
0.0
 11
106.0
 21
218.0
 31
0.0
  0
LINE
  5
120
330
E3
100
AcDbEntity
  8
0
  6
CONTINUOUS
 62
     7
100
AcDbLine
 10
121.0
 20
219.0
 30
0.0
 11
121.0
 21
224.5
 31
0.0
  0
LINE
  5
121
330
E3
100
AcDbEntity
  8
0
  6
CONTINUOUS
 62
     7
100
AcDbLine
 10
53.99999999999996
 20
218.0
 30
0.0
 11
106.0
 21
218.0
 31
0.0
  0
LINE
  5
122
330
E3
100
AcDbEntity
  8
0
  6
CONTINUOUS
 62
     7
100
AcDbLine
 10
121.0
 20
247.0
 30
0.0
 11
121.0
 21
233.0
 31
0.0
  0
LINE
  5
123
330
E3
100
AcDbEntity
  8
0
  6
CONTINUOUS
 62
     7
100
AcDbLine
 10
121.0
 20
261.0
 30
0.0
 11
121.0
 21
255.4999999999999
 31
0.0
  0
LINE
  5
124
330
E3
100
AcDbEntity
  8
0
  6
CONTINUOUS
 62
     7
100
AcDbLine
 10
39.99999999999998
 20
218.0
 30
0.0
 11
53.99999999999998
 21
218.0
 31
0.0
  0
ARC
  5
125
330
E3
100
AcDbEntity
  8
0
  6
CONTINUOUS
 62
     7
100
AcDbCircle
 10
39.99999999999999
 20
219.0
 30
0.0
 40
1.000000000000001
100
AcDbArc
 50
180.0
 51
269.9999999999996
  0
LINE
  5
126
330
E3
100
AcDbEntity
  8
0
  6
CONTINUOUS
 62
     7
100
AcDbLine
 10
120.0
 20
262.0
 30
0.0
 11
106.0
 21
262.0
 31
0.0
  0
ARC
  5
127
330
E3
100
AcDbEntity
  8
0
  6
CONTINUOUS
 62
     7
100
AcDbCircle
 10
120.0
 20
261.0
 30
0.0
 40
1.000000000000001
100
AcDbArc
 50
0.0000000000000035
 51
89.99999999999962
  0
LINE
  5
128
330
E3
100
AcDbEntity
  8
0
  6
CONTINUOUS
 62
     7
100
AcDbLine
 10
38.99999999999999
 20
219.0
 30
0.0
 11
38.99999999999999
 21
224.5
 31
0.0
  0
LINE
  5
129
330
E3
100
AcDbEntity
  8
0
  6
CONTINUOUS
 62
     7
100
AcDbLine
 10
53.99999999999998
 20
262.0
 30
0.0
 11
106.0
 21
262.0
 31
0.0
  0
LINE
  5
12A
330
E3
100
AcDbEntity
  8
0
  6
CONTINUOUS
 62
     7
100
AcDbLine
 10
38.99999999999999
 20
247.0
 30
0.0
 11
38.99999999999999
 21
233.0
 31
0.0
  0
LINE
  5
12B
330
E3
100
AcDbEntity
  8
0
  6
CONTINUOUS
 62
     7
100
AcDbLine
 10
38.99999999999999
 20
261.0
 30
0.0
 11
38.99999999999999
 21
255.4999999999999
 31
0.0
  0
ARC
  5
12C
330
E3
100
AcDbEntity
  8
0
  6
CONTINUOUS
 62
     7
100
AcDbCircle
 10
-39.99999999999999
 20
261.0
 30
0.0
 40
1.000000000000001
210
0.0
220
0.0
230
-1.0
100
AcDbArc
 50
0.0
 51
89.99999999999962
  0
LINE
  5
12D
330
E3
100
AcDbEntity
  8
0
  6
CONTINUOUS
 62
     7
100
AcDbLine
 10
39.99999999999998
 20
262.0
 30
0.0
 11
53.99999999999998
 21
262.0
 31
0.0
  0
ARC
  5
12E
330
E3
100
AcDbEntity
  8
0
  6
CONTINUOUS
 62
     7
100
AcDbCircle
 10
130.4999999999999
 20
226.5
 30
0.0
 40
2.000000000000002
100
AcDbArc
 50
270.000000000001
 51
359.9999999999999
  0
LINE
  5
12F
330
E3
100
AcDbEntity
  8
0
  6
CONTINUOUS
 62
     7
100
AcDbLine
 10
130.5
 20
224.5
 30
0.0
 11
124.7759704811249
 21
224.5
 31
0.0
  0
ARC
  5
130
330
E3
100
AcDbEntity
  8
0
  6
CONTINUOUS
 62
     7
100
AcDbCircle
 10
130.4999999999999
 20
230.0
 30
0.0
 40
2.000000000000002
100
AcDbArc
 50
359.9999999999999
 51
89.99999999999898
  0
LINE
  5
131
330
E3
100
AcDbEntity
  8
0
  6
CONTINUOUS
 62
     7
100
AcDbLine
 10
124.7759704811249
 20
232.0
 30
0.0
 11
130.5
 21
232.0
 31
0.0
  0
LINE
  5
132
330
E3
100
AcDbEntity
  8
0
  6
CONTINUOUS
 62
     7
100
AcDbLine
 10
132.5
 20
226.5
 30
0.0
 11
132.5
 21
230.0
 31
0.0
  0
ARC
  5
133
330
E3
100
AcDbEntity
  8
0
  6
CONTINUOUS
 62
     7
100
AcDbCircle
 10
-130.4999999999999
 20
250.0
 30
0.0
 40
2.000000000000002
210
0.0
220
0.0
230
-1.0
100
AcDbArc
 50
179.9999999999999
 51
269.999999999999
  0
LINE
  5
134
330
E3
100
AcDbEntity
  8
0
  6
CONTINUOUS
 62
     7
100
AcDbLine
 10
124.7759704811249
 20
248.0
 30
0.0
 11
130.5
 21
248.0
 31
0.0
  0
ARC
  5
135
330
E3
100
AcDbEntity
  8
0
  6
CONTINUOUS
 62
     7
100
AcDbCircle
 10
-130.4999999999999
 20
253.5
 30
0.0
 40
2.000000000000002
210
0.0
220
0.0
230
-1.0
100
AcDbArc
 50
90.000000000001
 51
179.9999999999999
  0
LINE
  5
136
330
E3
100
AcDbEntity
  8
0
  6
CONTINUOUS
 62
     7
100
AcDbLine
 10
130.5
 20
255.5
 30
0.0
 11
124.7759704811249
 21
255.5
 31
0.0
  0
LINE
  5
137
330
E3
100
AcDbEntity
  8
0
  6
CONTINUOUS
 62
     7
100
AcDbLine
 10
132.5
 20
253.5
 30
0.0
 11
132.5
 21
250.0
 31
0.0
  0
ARC
  5
138
330
E3
100
AcDbEntity
  8
0
  6
CONTINUOUS
 62
     7
100
AcDbCircle
 10
-29.50000000000002
 20
226.5
 30
0.0
 40
2.000000000000002
210
0.0
220
0.0
230
-1.0
100
AcDbArc
 50
270.000000000001
 51
359.9999999999999
  0
LINE
  5
139
330
E3
100
AcDbEntity
  8
0
  6
CONTINUOUS
 62
     7
100
AcDbLine
 10
29.49999999999998
 20
224.5
 30
0.0
 11
35.22402951887506
 21
224.5
 31
0.0
  0
ARC
  5
13A
330
E3
100
AcDbEntity
  8
0
  6
CONTINUOUS
 62
     7
100
AcDbCircle
 10
-29.50000000000002
 20
230.0
 30
0.0
 40
2.000000000000002
210
0.0
220
0.0
230
-1.0
100
AcDbArc
 50
359.9999999999999
 51
89.99999999999898
  0
LINE
  5
13B
330
E3
100
AcDbEntity
  8
0
  6
CONTINUOUS
 62
     7
100
AcDbLine
 10
35.22402951887506
 20
232.0
 30
0.0
 11
29.49999999999998
 21
232.0
 31
0.0
  0
LINE
  5
13C
330
E3
100
AcDbEntity
  8
0
  6
CONTINUOUS
 62
     7
100
AcDbLine
 10
27.49999999999999
 20
226.5
 30
0.0
 11
27.49999999999999
 21
230.0
 31
0.0
  0
ARC
  5
13D
330
E3
100
AcDbEntity
  8
0
  6
CONTINUOUS
 62
     7
100
AcDbCircle
 10
29.50000000000001
 20
253.5
 30
0.0
 40
2.000000000000002
100
AcDbArc
 50
90.00000000000102
 51
179.9999999999999
  0
LINE
  5
13E
330
E3
100
AcDbEntity
  8
0
  6
CONTINUOUS
 62
     7
100
AcDbLine
 10
29.49999999999998
 20
255.5
 30
0.0
 11
35.22402951887506
 21
255.5
 31
0.0
  0
ARC
  5
13F
330
E3
100
AcDbEntity
  8
0
  6
CONTINUOUS
 62
     7
100
AcDbCircle
 10
29.50000000000001
 20
250.0
 30
0.0
 40
2.000000000000002
100
AcDbArc
 50
179.9999999999999
 51
269.999999999999
  0
LINE
  5
140
330
E3
100
AcDbEntity
  8
0
  6
CONTINUOUS
 62
     7
100
AcDbLine
 10
35.22402951887506
 20
248.0
 30
0.0
 11
29.49999999999998
 21
248.0
 31
0.0
  0
LINE
  5
141
330
E3
100
AcDbEntity
  8
0
  6
CONTINUOUS
 62
     7
100
AcDbLine
 10
27.49999999999998
 20
253.5
 30
0.0
 11
27.49999999999998
 21
250.0
 31
0.0
  0
ENDBLK
  5
145
330
E3
100
AcDbEntity
  8
0
100
AcDbBlockEnd
  0
BLOCK
  5
1C1
330
143
100
AcDbEntity
  8
0
100
AcDbBlockBegin
  2
D_FRAME_VIEW_2156
 70
     0
 10
0.0
 20
0.0
 30
0.0
  3
D_FRAME_VIEW_2156
  1

  0
LINE
  5
146
330
143
100
AcDbEntity
  8
0
  6
CONTINUOUS
 62
     7
100
AcDbLine
 10
173.0
 20
135.0075144567637
 30
0.0
 11
173.0
 21
117.673447639104
 31
0.0
  0
LINE
  5
147
330
143
100
AcDbEntity
  8
0
  6
CONTINUOUS
 62
     7
100
AcDbLine
 10
180.5
 20
111.8226180261507
 30
0.0
 11
180.5
 21
117.673447639104
 31
0.0
  0
LINE
  5
148
330
143
100
AcDbEntity
  8
0
  6
CONTINUOUS
 62
     7
100
AcDbLine
 10
180.5
 20
117.673447639104
 30
0.0
 11
180.5
 21
135.0075144567638
 31
0.0
  0
LINE
  5
149
330
143
100
AcDbEntity
  8
0
  6
CONTINUOUS
 62
     7
100
AcDbLine
 10
173.0
 20
117.673447639104
 30
0.0
 11
173.0
 21
111.8226180261507
 31
0.0
  0
LINE
  5
14A
330
143
100
AcDbEntity
  8
0
  6
CONTINUOUS
 62
     7
100
AcDbLine
 10
157.0
 20
117.6734476391041
 30
0.0
 11
157.0
 21
111.8226180261507
 31
0.0
  0
LINE
  5
14B
330
143
100
AcDbEntity
  8
0
  6
CONTINUOUS
 62
     7
100
AcDbLine
 10
149.5
 20
111.8226180261507
 30
0.0
 11
149.5
 21
117.6734476391041
 31
0.0
  0
LINE
  5
14C
330
143
100
AcDbEntity
  8
0
  6
CONTINUOUS
 62
     7
100
AcDbLine
 10
173.0
 20
170.794287677653
 30
0.0
 11
173.0
 21
157.8083446096026
 31
0.0
  0
LINE
  5
14D
330
143
100
AcDbEntity
  8
0
  6
CONTINUOUS
 62
     7
100
AcDbLine
 10
149.5
 20
170.794287677653
 30
0.0
 11
149.5
 21
183.9586543067981
 31
0.0
  0
LINE
  5
14E
330
143
100
AcDbEntity
  8
0
  6
CONTINUOUS
 62
     7
100
AcDbLine
 10
180.5
 20
157.8083446096026
 30
0.0
 11
180.5
 21
170.794287677653
 31
0.0
  0
LINE
  5
14F
330
143
100
AcDbEntity
  8
0
  6
CONTINUOUS
 62
     7
100
AcDbLine
 10
157.0
 20
183.9586543067981
 30
0.0
 11
157.0
 21
170.794287677653
 31
0.0
  0
LINE
  5
150
330
143
100
AcDbEntity
  8
0
  6
CONTINUOUS
 62
     7
100
AcDbLine
 10
157.0
 20
135.0075144567638
 30
0.0
 11
157.0
 21
117.6734476391041
 31
0.0
  0
LINE
  5
151
330
143
100
AcDbEntity
  8
0
  6
CONTINUOUS
 62
     7
100
AcDbLine
 10
149.5
 20
117.6734476391041
 30
0.0
 11
149.5
 21
135.0075144567638
 31
0.0
  0
LINE
  5
152
330
143
100
AcDbEntity
  8
0
  6
CONTINUOUS
 62
     7
100
AcDbLine
 10
157.0
 20
170.794287677653
 30
0.0
 11
157.0
 21
157.8083446096026
 31
0.0
  0
LINE
  5
153
330
143
100
AcDbEntity
  8
0
  6
CONTINUOUS
 62
     7
100
AcDbLine
 10
180.5
 20
170.794287677653
 30
0.0
 11
180.5
 21
183.9586543067981
 31
0.0
  0
LINE
  5
154
330
143
100
AcDbEntity
  8
0
  6
CONTINUOUS
 62
     7
100
AcDbLine
 10
149.5
 20
157.8083446096026
 30
0.0
 11
149.5
 21
170.794287677653
 31
0.0
  0
LINE
  5
155
330
143
100
AcDbEntity
  8
0
  6
CONTINUOUS
 62
     7
100
AcDbLine
 10
173.0
 20
183.9586543067981
 30
0.0
 11
173.0
 21
170.794287677653
 31
0.0
  0
LINE
  5
156
330
143
100
AcDbEntity
  8
0
  6
CONTINUOUS
 62
     7
100
AcDbLine
 10
173.0
 20
135.5629550289669
 30
0.0
 11
173.0
 21
135.0075144567637
 31
0.0
  0
LINE
  5
157
330
143
100
AcDbEntity
  8
0
  6
CONTINUOUS
 62
     7
100
AcDbLine
 10
180.5
 20
135.0075144567638
 30
0.0
 11
180.5
 21
135.5629550289669
 31
0.0
  0
LINE
  5
158
330
143
100
AcDbEntity
  8
0
  6
CONTINUOUS
 62
     7
100
AcDbLine
 10
173.0
 20
157.8083446096026
 30
0.0
 11
173.0
 21
157.2529040373995
 31
0.0
  0
LINE
  5
159
330
143
100
AcDbEntity
  8
0
  6
CONTINUOUS
 62
     7
100
AcDbLine
 10
149.5
 20
135.0075144567638
 30
0.0
 11
149.5
 21
135.5629550289669
 31
0.0
  0
LINE
  5
15A
330
143
100
AcDbEntity
  8
0
  6
CONTINUOUS
 62
     7
100
AcDbLine
 10
157.0
 20
135.5629550289669
 30
0.0
 11
157.0
 21
135.0075144567638
 31
0.0
  0
LINE
  5
15B
330
143
100
AcDbEntity
  8
0
  6
CONTINUOUS
 62
     7
100
AcDbLine
 10
180.5
 20
157.2529040373995
 30
0.0
 11
180.5
 21
157.8083446096026
 31
0.0
  0
LINE
  5
15C
330
143
100
AcDbEntity
  8
0
  6
CONTINUOUS
 62
     7
100
AcDbLine
 10
157.0
 20
157.8083446096026
 30
0.0
 11
157.0
 21
157.2529040373995
 31
0.0
  0
LINE
  5
15D
330
143
100
AcDbEntity
  8
0
  6
CONTINUOUS
 62
     7
100
AcDbLine
 10
149.5
 20
157.2529040373995
 30
0.0
 11
149.5
 21
157.8083446096026
 31
0.0
  0
LINE
  5
15E
330
143
100
AcDbEntity
  8
0
  6
CONTINUOUS
 62
     7
100
AcDbLine
 10
173.0
 20
135.5629550289669
 30
0.0
 11
173.0
 21
138.3820328913246
 31
0.0
  0
LINE
  5
15F
330
143
100
AcDbEntity
  8
0
  6
CONTINUOUS
 62
     7
100
AcDbLine
 10
180.5
 20
138.3820328913246
 30
0.0
 11
180.5
 21
135.5629550289669
 31
0.0
  0
LINE
  5
160
330
143
100
AcDbEntity
  8
0
  6
CONTINUOUS
 62
     7
100
AcDbLine
 10
149.5
 20
138.3820328913246
 30
0.0
 11
149.5
 21
135.5629550289669
 31
0.0
  0
LINE
  5
161
330
143
100
AcDbEntity
  8
0
  6
CONTINUOUS
 62
     7
100
AcDbLine
 10
157.0
 20
135.5629550289669
 30
0.0
 11
157.0
 21
138.3820328913246
 31
0.0
  0
LINE
  5
162
330
143
100
AcDbEntity
  8
0
  6
CONTINUOUS
 62
     7
100
AcDbLine
 10
173.0
 20
154.4338261750418
 30
0.0
 11
173.0
 21
157.2529040373995
 31
0.0
  0
LINE
  5
163
330
143
100
AcDbEntity
  8
0
  6
CONTINUOUS
 62
     7
100
AcDbLine
 10
180.5
 20
157.2529040373995
 30
0.0
 11
180.5
 21
154.4338261750418
 31
0.0
  0
LINE
  5
164
330
143
100
AcDbEntity
  8
0
  6
CONTINUOUS
 62
     7
100
AcDbLine
 10
157.0
 20
154.4338261750418
 30
0.0
 11
157.0
 21
157.2529040373995
 31
0.0
  0
LINE
  5
165
330
143
100
AcDbEntity
  8
0
  6
CONTINUOUS
 62
     7
100
AcDbLine
 10
149.5
 20
157.2529040373995
 30
0.0
 11
149.5
 21
154.4338261750418
 31
0.0
  0
LINE
  5
166
330
143
100
AcDbEntity
  8
0
  6
CONTINUOUS
 62
     7
100
AcDbLine
 10
173.0
 20
107.616666273054
 30
0.0
 11
173.0380325306029
 21
107.5920704674136
 31
0.0
  0
LINE
  5
167
330
143
100
AcDbEntity
  8
0
  6
CONTINUOUS
 62
     7
100
AcDbLine
 10
173.0
 20
111.8226180261507
 30
0.0
 11
173.0
 21
107.616666273054
 31
0.0
  0
LINE
  5
168
330
143
100
AcDbEntity
  8
0
  6
CONTINUOUS
 62
     7
100
AcDbLine
 10
180.5
 20
110.6666556603402
 30
0.0
 11
180.5
 21
111.8226180261507
 31
0.0
  0
LINE
  5
169
330
143
100
AcDbEntity
  8
0
  6
CONTINUOUS
 62
     7
100
AcDbLine
 10
157.0
 20
107.616666273054
 30
0.0
 11
156.9619674693971
 21
107.5920704674136
 31
0.0
  0
LINE
  5
16A
330
143
100
AcDbEntity
  8
0
  6
CONTINUOUS
 62
     7
100
AcDbLine
 10
157.0
 20
111.8226180261507
 30
0.0
 11
157.0
 21
107.616666273054
 31
0.0
  0
LINE
  5
16B
330
143
100
AcDbEntity
  8
0
  6
CONTINUOUS
 62
     7
100
AcDbLine
 10
149.5
 20
110.6666556603402
 30
0.0
 11
149.5
 21
111.8226180261507
 31
0.0
  0
LINE
  5
16C
330
143
100
AcDbEntity
  8
0
  6
CONTINUOUS
 62
     7
100
AcDbLine
 10
173.0
 20
154.4338261750418
 30
0.0
 11
173.0
 21
138.3820328913246
 31
0.0
  0
LINE
  5
16D
330
143
100
AcDbEntity
  8
0
  6
CONTINUOUS
 62
     7
100
AcDbLine
 10
180.5
 20
138.3820328913246
 30
0.0
 11
180.5
 21
154.4338261750418
 31
0.0
  0
LINE
  5
16E
330
143
100
AcDbEntity
  8
0
  6
CONTINUOUS
 62
     7
100
AcDbLine
 10
157.0
 20
154.4338261750418
 30
0.0
 11
157.0
 21
138.3820328913246
 31
0.0
  0
LINE
  5
16F
330
143
100
AcDbEntity
  8
0
  6
CONTINUOUS
 62
     7
100
AcDbLine
 10
149.5
 20
138.3820328913246
 30
0.0
 11
149.5
 21
154.4338261750418
 31
0.0
  0
LINE
  5
170
330
143
100
AcDbEntity
  8
0
  6
CONTINUOUS
 62
     7
100
AcDbLine
 10
180.5
 20
109.5920704668169
 30
0.0
 11
180.5
 21
110.6666556603402
 31
0.0
  0
LINE
  5
171
330
143
100
AcDbEntity
  8
0
  6
CONTINUOUS
 62
     7
100
AcDbLine
 10
149.5
 20
109.5920704668169
 30
0.0
 11
149.5
 21
110.6666556603402
 31
0.0
  0
LINE
  5
172
330
143
100
AcDbEntity
  8
0
  6
CONTINUOUS
 62
     7
100
AcDbLine
 10
149.5
 20
183.9586543067981
 30
0.0
 11
149.5
 21
185.5722961623283
 31
0.0
  0
LINE
  5
173
330
143
100
AcDbEntity
  8
0
  6
CONTINUOUS
 62
     7
100
AcDbLine
 10
157.0
 20
185.5722961623283
 30
0.0
 11
157.0
 21
183.9586543067981
 31
0.0
  0
LINE
  5
174
330
143
100
AcDbEntity
  8
0
  6
CONTINUOUS
 62
     7
100
AcDbLine
 10
173.0
 20
185.5722961623282
 30
0.0
 11
173.0
 21
183.9586543067981
 31
0.0
  0
LINE
  5
175
330
143
100
AcDbEntity
  8
0
  6
CONTINUOUS
 62
     7
100
AcDbLine
 10
180.5
 20
183.9586543067981
 30
0.0
 11
180.5
 21
185.5722961623282
 31
0.0
  0
ARC
  5
176
330
143
100
AcDbEntity
  8
0
  6
CONTINUOUS
 62
     7
100
AcDbCircle
 10
-151.5
 20
190.4079295331832
 30
0.0
 40
2.000000000000002
210
0.0
220
0.0
230
-1.0
100
AcDbArc
 50
0.0000000000001988
 51
90.00000000000001
  0
LINE
  5
177
330
143
100
AcDbEntity
  8
0
  6
CONTINUOUS
 62
     7
100
AcDbLine
 10
149.5
 20
185.5722961623283
 30
0.0
 11
149.5
 21
190.4079295331831
 31
0.0
  0
LINE
  5
178
330
143
100
AcDbEntity
  8
0
  6
CONTINUOUS
 62
     7
100
AcDbLine
 10
151.5
 20
192.4079295331832
 30
0.0
 11
155.0
 21
192.4079295331832
 31
0.0
  0
ARC
  5
179
330
143
100
AcDbEntity
  8
0
  6
CONTINUOUS
 62
     7
100
AcDbCircle
 10
155.0
 20
190.4079295331832
 30
0.0
 40
2.000000000000002
100
AcDbArc
 50
0.0
 51
90.00000000000006
  0
LINE
  5
17A
330
143
100
AcDbEntity
  8
0
  6
CONTINUOUS
 62
     7
100
AcDbLine
 10
157.0
 20
190.4079295331832
 30
0.0
 11
157.0
 21
185.5722961623283
 31
0.0
  0
ARC
  5
17B
330
143
100
AcDbEntity
  8
0
  6
CONTINUOUS
 62
     7
100
AcDbCircle
 10
-175.0
 20
190.4079295331831
 30
0.0
 40
2.000000000000002
210
0.0
220
0.0
230
-1.0
100
AcDbArc
 50
0.0
 51
90.00000000000011
  0
LINE
  5
17C
330
143
100
AcDbEntity
  8
0
  6
CONTINUOUS
 62
     7
100
AcDbLine
 10
173.0
 20
190.4079295331831
 30
0.0
 11
173.0
 21
185.5722961623282
 31
0.0
  0
ARC
  5
17D
330
143
100
AcDbEntity
  8
0
  6
CONTINUOUS
 62
     7
100
AcDbCircle
 10
178.5
 20
190.4079295331831
 30
0.0
 40
2.000000000000002
100
AcDbArc
 50
0.0000000000001988
 51
89.99999999999996
  0
LINE
  5
17E
330
143
100
AcDbEntity
  8
0
  6
CONTINUOUS
 62
     7
100
AcDbLine
 10
180.5
 20
185.5722961623282
 30
0.0
 11
180.5
 21
190.4079295331832
 31
0.0
  0
LINE
  5
17F
330
143
100
AcDbEntity
  8
0
  6
CONTINUOUS
 62
     7
100
AcDbLine
 10
178.5
 20
192.4079295331831
 30
0.0
 11
175.0
 21
192.4079295331831
 31
0.0
  0
LWPOLYLINE
  5
180
330
143
100
AcDbEntity
  8
0
  6
CONTINUOUS
 62
     7
100
AcDbPolyline
 90
       10
 70
     0
 43
0.0
 10
-172.0
 20
111.5885037849995
 42
0.1134630870132418
 10
-172.5903985624167
 20
111.4568663871588
 10
-172.7093712417999
 20
111.387068017251
 10
-172.7990958322667
 20
111.3163458452366
 10
-172.8789510689477
 20
111.2315250486095
 10
-172.9393000365935
 20
111.1402061178115
 10
-172.9811703320524
 20
111.0378755937161
 10
-172.999610363105
 20
110.9251182172521
 10
-173.0
 20
110.9060722595618
 10
-173.0
 20
110.9060722595618
210
0.0
220
0.0
230
-1.0
  0
LWPOLYLINE
  5
181
330
143
100
AcDbEntity
  8
0
  6
CONTINUOUS
 62
     7
100
AcDbPolyline
 90
       10
 70
     0
 43
0.0
 10
158.0
 20
111.5885037849995
 42
0.1134630870132787
 10
157.4096014375833
 20
111.4568663871588
 10
157.2906287582001
 20
111.387068017251
 10
157.2009041677333
 20
111.3163458452367
 10
157.1210489310523
 20
111.2315250486096
 10
157.0606999634065
 20
111.1402061178116
 10
157.0188296679476
 20
111.0378755937161
 10
157.0003896368949
 20
110.9251182172522
 10
157.0
 20
110.9060722595618
 10
157.0
 20
110.9060722595618
  0
ARC
  5
182
330
143
100
AcDbEntity
  8
0
  6
CONTINUOUS
 62
     7
100
AcDbCircle
 10
158.0
 20
187.4079295331832
 30
0.0
 40
1.000000000000001
100
AcDbArc
 50
180.0
 51
270.0
  0
ARC
  5
183
330
143
100
AcDbEntity
  8
0
  6
CONTINUOUS
 62
     7
100
AcDbCircle
 10
-172.0
 20
187.4079295331832
 30
0.0
 40
1.000000000000001
210
0.0
220
0.0
230
-1.0
100
AcDbArc
 50
180.0
 51
270.0000000000001
  0
LINE
  5
184
330
143
100
AcDbEntity
  8
0
  6
CONTINUOUS
 62
     7
100
AcDbLine
 10
187.0
 20
113.0537711007115
 30
0.0
 11
187.0
 21
121.4079295331832
 31
0.0
  0
LINE
  5
185
330
143
100
AcDbEntity
  8
0
  6
CONTINUOUS
 62
     7
100
AcDbLine
 10
172.0
 20
111.5885037849995
 30
0.0
 11
158.0
 21
111.5885037849995
 31
0.0
  0
LINE
  5
186
330
143
100
AcDbEntity
  8
0
  6
CONTINUOUS
 62
     7
100
AcDbLine
 10
187.0
 20
121.4079295331832
 30
0.0
 11
187.0
 21
171.4079295331832
 31
0.0
  0
LINE
  5
187
330
143
100
AcDbEntity
  8
0
  6
CONTINUOUS
 62
     7
100
AcDbLine
 10
143.0
 20
113.0537711007116
 30
0.0
 11
143.0
 21
121.4079295331832
 31
0.0
  0
LINE
  5
188
330
143
100
AcDbEntity
  8
0
  6
CONTINUOUS
 62
     7
100
AcDbLine
 10
143.0
 20
121.4079295331832
 30
0.0
 11
143.0
 21
171.4079295331832
 31
0.0
  0
LINE
  5
189
330
143
100
AcDbEntity
  8
0
  6
CONTINUOUS
 62
     7
100
AcDbLine
 10
144.0
 20
186.4079295331832
 30
0.0
 11
149.5000000000001
 21
186.4079295331832
 31
0.0
  0
LINE
  5
18A
330
143
100
AcDbEntity
  8
0
  6
CONTINUOUS
 62
     7
100
AcDbLine
 10
143.0
 20
171.4079295331832
 30
0.0
 11
143.0
 21
185.4079295331832
 31
0.0
  0
ARC
  5
18B
330
143
100
AcDbEntity
  8
0
  6
CONTINUOUS
 62
     7
100
AcDbCircle
 10
144.0
 20
185.4079295331832
 30
0.0
 40
1.000000000000001
100
AcDbArc
 50
90.0
 51
180.0000000000004
  0
LINE
  5
18C
330
143
100
AcDbEntity
  8
0
  6
CONTINUOUS
 62
     7
100
AcDbLine
 10
172.0
 20
186.4079295331832
 30
0.0
 11
158.0
 21
186.4079295331832
 31
0.0
  0
LINE
  5
18D
330
143
100
AcDbEntity
  8
0
  6
CONTINUOUS
 62
     7
100
AcDbLine
 10
187.0
 20
171.4079295331832
 30
0.0
 11
187.0
 21
185.4079295331832
 31
0.0
  0
ARC
  5
18E
330
143
100
AcDbEntity
  8
0
  6
CONTINUOUS
 62
     7
100
AcDbCircle
 10
-186.0
 20
185.4079295331832
 30
0.0
 40
1.000000000000001
210
0.0
220
0.0
230
-1.0
100
AcDbArc
 50
90.0
 51
180.0000000000004
  0
LINE
  5
18F
330
143
100
AcDbEntity
  8
0
  6
CONTINUOUS
 62
     7
100
AcDbLine
 10
186.0
 20
186.4079295331832
 30
0.0
 11
180.5
 21
186.4079295331832
 31
0.0
  0
LINE
  5
190
330
143
100
AcDbEntity
  8
0
  6
CONTINUOUS
 62
     7
100
AcDbLine
 10
173.0386929858748
 20
107.5920704668169
 30
0.0
 11
178.5
 21
107.5920704668169
 31
0.0
  0
ARC
  5
191
330
143
100
AcDbEntity
  8
0
  6
CONTINUOUS
 62
     7
100
AcDbCircle
 10
178.5
 20
109.5920704668169
 30
0.0
 40
2.000000000000002
100
AcDbArc
 50
270.0
 51
0.0
  0
ARC
  5
192
330
143
100
AcDbEntity
  8
0
  6
CONTINUOUS
 62
     7
100
AcDbCircle
 10
151.5
 20
109.5920704668169
 30
0.0
 40
2.000000000000002
100
AcDbArc
 50
180.0
 51
269.9999999999999
  0
LINE
  5
193
330
143
100
AcDbEntity
  8
0
  6
CONTINUOUS
 62
     7
100
AcDbLine
 10
151.5
 20
107.5920704668169
 30
0.0
 11
156.9613070141251
 21
107.5920704668169
 31
0.0
  0
LINE
  5
194
330
143
100
AcDbEntity
  8
0
  6
CONTINUOUS
 62
     7
100
AcDbLine
 10
180.5
 20
112.0537711007116
 30
0.0
 11
186.0
 21
112.0537711007116
 31
0.0
  0
LINE
  5
195
330
143
100
AcDbEntity
  8
0
  6
CONTINUOUS
 62
     7
100
AcDbLine
 10
144.0
 20
112.0537711007116
 30
0.0
 11
149.5
 21
112.0537711007116
 31
0.0
  0
ARC
  5
196
330
143
100
AcDbEntity
  8
0
  6
CONTINUOUS
 62
     7
100
AcDbCircle
 10
186.0
 20
113.0537711007116
 30
0.0
 40
1.000000000000001
100
AcDbArc
 50
270.0
 51
0.0000000000003979
  0
ARC
  5
197
330
143
100
AcDbEntity
  8
0
  6
CONTINUOUS
 62
     7
100
AcDbCircle
 10
144.0
 20
113.0537711007116
 30
0.0
 40
1.000000000000001
100
AcDbArc
 50
180.0
 51
270.0
  0
ENDBLK
  5
1C2
330
143
100
AcDbEntity
  8
0
100
AcDbBlockEnd
  0
ENDSEC
  0
SECTION
  2
ENTITIES
  0
LINE
  5
6F
330
1F
100
AcDbEntity
  8
0
  6
CENTER
 62
     1
100
AcDbLine
 10
24.49999999999998
 20
240.0
 30
0.0
 11
135.5
 21
240.0
 31
0.0
  0
LINE
  5
71
330
1F
100
AcDbEntity
  8
0
  6
CENTER
 62
     1
100
AcDbLine
 10
80.0
 20
215.0
 30
0.0
 11
80.0
 21
265.0
 31
0.0
  0
LINE
  5
72
330
1F
100
AcDbEntity
  8
0
  6
CENTER
 62
     1
100
AcDbLine
 10
80.0
 20
104.5920704668168
 30
0.0
 11
80.0
 21
195.4079295331832
 31
0.0
  0
LINE
  5
73
330
1F
100
AcDbEntity
  8
0
  6
CENTER
 62
     1
100
AcDbLine
 10
165.4436125218644
 20
104.5920704668169
 30
0.0
 11
165.4436125218644
 21
195.4079295331832
 31
0.0
  0
MTEXT
  5
74
330
1F
100
AcDbEntity
  8
0
 62
     7
100
AcDbMText
 10
110.2045454545455
 20
97.68636363636364
 30
0.0
 40
3.0
 41
0.0
 71
     1
 72
     1
  1
{\fＭＳ ゴシック;KPRC-81E}
  0
INSERT
  5
E2
330
1F
100
AcDbEntity
  8
0
  6
CENTER
 62
     7
100
AcDbBlockReference
  2
D_FRAME_VIEW_1490
 10
0.0
 20
0.0
 30
0.0
  0
INSERT
  5
142
330
1F
100
AcDbEntity
  8
0
  6
CENTER
 62
     7
100
AcDbBlockReference
  2
D_FRAME_VIEW_2401
 10
0.0
 20
0.0
 30
0.0
  0
INSERT
  5
198
330
1F
100
AcDbEntity
  8
0
  6
CENTER
 62
     7
100
AcDbBlockReference
  2
D_FRAME_VIEW_2156
 10
0.0
 20
0.0
 30
0.0
  0
ENDSEC
  0
SECTION
  2
OBJECTS
  0
DICTIONARY
  5
C
330
0
100
AcDbDictionary
  3
ACAD_GROUP
350
D
  3
ACAD_LAYOUT
350
1A
  3
ACAD_MATERIAL
350
43
  3
ACAD_MLEADERSTYLE
350
6B
  3
ACAD_MLINESTYLE
350
17
  3
ACAD_PLOTSETTINGS
350
19
  3
ACAD_SCALELIST
350
47
  3
ACAD_VISUALSTYLE
350
2A
  3
ACDBHEADERROUNDTRIPXREC
350
199
  3
ACDBVARIABLEDICTIONARY
350
1BA
  0
DICTIONARY
  5
1C3
330
8
100
AcDbDictionary
280
     1
  3
ACAD_XREC_ROUNDTRIP
360
1C4
  0
DICTIONARY
  5
D
102
{ACAD_REACTORS
330
C
102
}
330
C
100
AcDbDictionary
  0
DICTIONARY
  5
1A
102
{ACAD_REACTORS
330
C
102
}
330
C
100
AcDbDictionary
  0
DICTIONARY
  5
43
102
{ACAD_REACTORS
330
C
102
}
330
C
100
AcDbDictionary
  3
BYBLOCK
350
45
  3
BYLAYER
350
44
  3
GLOBAL
350
46
  0
DICTIONARY
  5
6B
102
{ACAD_REACTORS
330
C
102
}
330
C
100
AcDbDictionary
  3
STANDARD
350
6C
  0
DICTIONARY
  5
17
102
{ACAD_REACTORS
330
C
102
}
330
C
100
AcDbDictionary
  3
STANDARD
350
18
  0
DICTIONARY
  5
19
102
{ACAD_REACTORS
330
C
102
}
330
C
100
AcDbDictionary
  0
DICTIONARY
  5
47
102
{ACAD_REACTORS
330
C
102
}
330
C
100
AcDbDictionary
  3
A0
350
48
  3
A1
350
49
  3
A2
350
4A
  3
A3
350
4B
  3
A4
350
4C
  3
A5
350
4D
  3
A6
350
4E
  3
A7
350
4F
  3
A8
350
50
  3
A9
350
51
  3
B0
350
52
  3
B1
350
53
  3
B2
350
54
  3
B3
350
55
  3
B4
350
56
  3
B5
350
57
  3
B6
350
58
  3
B7
350
59
  3
B8
350
5A
  3
B9
350
5B
  3
C0
350
5C
  3
C1
350
5D
  3
C2
350
5E
  3
C3
350
5F
  3
C4
350
60
  3
C5
350
61
  3
C6
350
62
  3
C7
350
63
  3
C8
350
64
  3
C9
350
65
  3
D0
350
66
  3
D1
350
67
  3
D2
350
68
  0
DICTIONARY
  5
2A
102
{ACAD_REACTORS
330
C
102
}
330
C
100
AcDbDictionary
  3
2DWIREFRAME
350
2F
  3
BASIC
350
32
  3
BRIGHTEN
350
36
  3
COLORCHANGE
350
3A
  3
CONCEPTUAL
350
34
  3
DIM
350
35
  3
EDGECOLOROFF
350
3D
  3
FACEPATTERN
350
39
  3
FLAT
350
2B
  3
FLATWITHEDGES
350
2C
  3
GOURAUD
350
2D
  3
GOURAUDWITHEDGES
350
2E
  3
HIDDEN
350
31
  3
JITTEROFF
350
3B
  3
LINEPATTERN
350
38
  3
OVERHANGOFF
350
3C
  3
REALISTIC
350
33
  3
SHADED
350
42
  3
SHADED_WITH_EDGES
350
41
  3
SHADES_OF_GRAY
350
3E
  3
SKETCHY
350
3F
  3
THICKEN
350
37
  3
WIREFRAME
350
30
  3
X-RAY
350
40
  0
DICTIONARY
  5
199
102
{ACAD_REACTORS
330
C
102
}
330
C
100
AcDbDictionary
  3
CEPSNID
350
1A3
  3
CEPSNTYPE
350
1A2
  3
DIMSTYLEDATA
350
1B9
  3
FINGERPRINTGUID
350
1A4
  3
HYPERLINKBASE
350
19C
  3
INSUNITS
350
1A1
  3
LAYOUTDICT
350
19E
  3
LWETCUNION
350
1A0
  3
PLOTSETDICT
350
19F
  3
PSVPSCALE
350
1A6
  3
PUCSBASE
350
1A9
  3
PUCSORGBACK
350
1AF
  3
PUCSORGBOTTOM
350
1AB
  3
PUCSORGFRONT
350
1AE
  3
PUCSORGLEFT
350
1AC
  3
PUCSORGRIGHT
350
1AD
  3
PUCSORGTOP
350
1AA
  3
PUCSORTHOREF
350
1A7
  3
PUCSORTHOVIEW
350
1A8
  3
STYLESHEET
350
19D
  3
TSTACKALIGN
350
19A
  3
TSTACKSIZE
350
19B
  3
UCSBASE
350
1B2
  3
UCSORGBACK
350
1B8
  3
UCSORGBOTTOM
350
1B4
  3
UCSORGFRONT
350
1B7
  3
UCSORGLEFT
350
1B5
  3
UCSORGRIGHT
350
1B6
  3
UCSORGTOP
350
1B3
  3
UCSORTHOREF
350
1B0
  3
UCSORTHOVIEW
350
1B1
  3
VERSIONGUID
350
1A5
  0
DICTIONARY
  5
1BA
102
{ACAD_REACTORS
330
C
102
}
330
C
100
AcDbDictionary
  3
CANNOSCALE
350
1C5
  3
CMLEADERSTYLE
350
1BC
  3
CTABLESTYLE
350
1BB
  3
DIMASSOC
350
1BF
  3
HIDETEXT
350
1C0
  3
MSLTSCALE
350
1C6
  0
XRECORD
  5
1C4
102
{ACAD_REACTORS
330
1C3
102
}
330
1C3
100
AcDbXrecord
102
VTR_0.000_0.000_1.000_1.000_VISUALSTYLE
340
2F
102
VTR_0.000_0.000_1.000_1.000_GRIDDISPLAY
 70
     3
102
VTR_0.000_0.000_1.000_1.000_GRIDMAJOR
 70
     5
102
VTR_0.000_0.000_1.000_1.000_DEFAULTLIGHTING
280
     1
102
VTR_0.000_0.000_1.000_1.000_DEFAULTLIGHTINGTYPE
 70
     1
102
VTR_0.000_0.000_1.000_1.000_BRIGHTNESS
141
0.0
102
VTR_0.000_0.000_1.000_1.000_CONTRAST
142
0.0
  0
MATERIAL
  5
45
102
{ACAD_REACTORS
330
43
102
}
102
{ACAD_XDICTIONARY
360
1C9
102
}
330
43
100
AcDbMaterial
  1
BYBLOCK
  0
MATERIAL
  5
44
102
{ACAD_REACTORS
330
43
102
}
102
{ACAD_XDICTIONARY
360
1C7
102
}
330
43
100
AcDbMaterial
  1
BYLAYER
  0
MATERIAL
  5
46
102
{ACAD_REACTORS
330
43
102
}
102
{ACAD_XDICTIONARY
360
1CB
102
}
330
43
100
AcDbMaterial
  1
GLOBAL
  0
ACAD_PROXY_OBJECT
  5
6C
102
{ACAD_REACTORS
330
6B
102
}
330
6B
100
AcDbProxyObject
 90
      499
 91
      505
 93
      610
310
40901902A4063FBFFFFFE056BD1B81E855B9FC0AD7A3703D0AD73F4214DD185B99185C9900AD7A3703D0AC73F90141901A02B5E8DC0F42B1CFC02B5E8DC0F42B1CFE5764000000000000300FC0
340
14
340
0
340
11
340
0
 94
        0
1001
ACAD_MLEADERVER
1070
     2
  0
MLINESTYLE
  5
18
102
{ACAD_REACTORS
330
17
102
}
330
17
100
AcDbMlineStyle
  2
Standard
 70
     0
  3

 62
   256
 51
90.0
 52
90.0
 71
     2
 49
0.5
 62
   256
  6
BYLAYER
 49
-0.5
 62
   256
  6
BYLAYER
  0
ACAD_PROXY_OBJECT
  5
48
102
{ACAD_REACTORS
330
47
102
}
330
47
100
AcDbProxyObject
 90
      499
 91
      503
 93
       41
310
903313A31580
  0
ACAD_PROXY_OBJECT
  5
49
102
{ACAD_REACTORS
330
47
102
}
330
47
100
AcDbProxyObject
 90
      499
 91
      503
 93
      105
310
903313A324000000000000004000
  0
ACAD_PROXY_OBJECT
  5
4A
102
{ACAD_REACTORS
330
47
102
}
330
47
100
AcDbProxyObject
 90
      499
 91
      503
 93
      105
310
903313A344000000000000104000
  0
ACAD_PROXY_OBJECT
  5
4B
102
{ACAD_REACTORS
330
47
102
}
330
47
100
AcDbProxyObject
 90
      499
 91
      503
 93
      105
310
903313A354000000000000144000
  0
ACAD_PROXY_OBJECT
  5
4C
102
{ACAD_REACTORS
330
47
102
}
330
47
100
AcDbProxyObject
 90
      499
 91
      503
 93
      105
310
903313A384000000000000204000
  0
ACAD_PROXY_OBJECT
  5
4D
102
{ACAD_REACTORS
330
47
102
}
330
47
100
AcDbProxyObject
 90
      499
 91
      503
 93
      113
310
904313A31304000000000000244000
  0
ACAD_PROXY_OBJECT
  5
4E
102
{ACAD_REACTORS
330
47
102
}
330
47
100
AcDbProxyObject
 90
      499
 91
      503
 93
      113
310
904313A31364000000000000304000
  0
ACAD_PROXY_OBJECT
  5
4F
102
{ACAD_REACTORS
330
47
102
}
330
47
100
AcDbProxyObject
 90
      499
 91
      503
 93
      113
310
904313A32304000000000000344000
  0
ACAD_PROXY_OBJECT
  5
50
102
{ACAD_REACTORS
330
47
102
}
330
47
100
AcDbProxyObject
 90
      499
 91
      503
 93
      113
310
904313A333040000000000003E4000
  0
ACAD_PROXY_OBJECT
  5
51
102
{ACAD_REACTORS
330
47
102
}
330
47
100
AcDbProxyObject
 90
      499
 91
      503
 93
      113
310
904313A34304000000000000444000
  0
ACAD_PROXY_OBJECT
  5
52
102
{ACAD_REACTORS
330
47
102
}
330
47
100
AcDbProxyObject
 90
      499
 91
      503
 93
      113
310
904313A35304000000000000494000
  0
ACAD_PROXY_OBJECT
  5
53
102
{ACAD_REACTORS
330
47
102
}
330
47
100
AcDbProxyObject
 90
      499
 91
      503
 93
      121
310
905313A3130304000000000000594000
  0
ACAD_PROXY_OBJECT
  5
54
102
{ACAD_REACTORS
330
47
102
}
330
47
100
AcDbProxyObject
 90
      499
 91
      503
 93
      105
310
903323A310000000000000010100
  0
ACAD_PROXY_OBJECT
  5
55
102
{ACAD_REACTORS
330
47
102
}
330
47
100
AcDbProxyObject
 90
      499
 91
      503
 93
      105
310
903343A310000000000000410100
  0
ACAD_PROXY_OBJECT
  5
56
102
{ACAD_REACTORS
330
47
102
}
330
47
100
AcDbProxyObject
 90
      499
 91
      503
 93
      105
310
903383A310000000000000810100
  0
ACAD_PROXY_OBJECT
  5
57
102
{ACAD_REACTORS
330
47
102
}
330
47
100
AcDbProxyObject
 90
      499
 91
      503
 93
      113
310
90431303A310000000000000910100
  0
ACAD_PROXY_OBJECT
  5
58
102
{ACAD_REACTORS
330
47
102
}
330
47
100
AcDbProxyObject
 90
      499
 91
      503
 93
      121
310
9053130303A310000000000001650100
  0
ACAD_PROXY_OBJECT
  5
59
102
{ACAD_REACTORS
330
47
102
}
330
47
100
AcDbProxyObject
 90
      499
 91
      503
 93
      257
310
90E312F31323822203D2031272D3022000000000000200FC000000000000284000
  0
ACAD_PROXY_OBJECT
  5
5A
102
{ACAD_REACTORS
330
47
102
}
330
47
100
AcDbProxyObject
 90
      499
 91
      503
 93
      249
310
90D312F363422203D2031272D3022000000000000240FC000000000000284000
  0
ACAD_PROXY_OBJECT
  5
5B
102
{ACAD_REACTORS
330
47
102
}
330
47
100
AcDbProxyObject
 90
      499
 91
      503
 93
      249
310
90D312F333222203D2031272D3022000000000000280FC000000000000284000
  0
ACAD_PROXY_OBJECT
  5
5C
102
{ACAD_REACTORS
330
47
102
}
330
47
100
AcDbProxyObject
 90
      499
 91
      503
 93
      249
310
90D312F313622203D2031272D30220000000000002C0FC000000000000284000
  0
ACAD_PROXY_OBJECT
  5
5D
102
{ACAD_REACTORS
330
47
102
}
330
47
100
AcDbProxyObject
 90
      499
 91
      503
 93
      249
310
90D332F333222203D2031272D30220000000000002E0FC000000000000284000
  0
ACAD_PROXY_OBJECT
  5
5E
102
{ACAD_REACTORS
330
47
102
}
330
47
100
AcDbProxyObject
 90
      499
 91
      503
 93
      241
310
90C312F3822203D2031272D3022000000000000300FC000000000000284000
  0
ACAD_PROXY_OBJECT
  5
5F
102
{ACAD_REACTORS
330
47
102
}
330
47
100
AcDbProxyObject
 90
      499
 91
      503
 93
      249
310
90D332F313622203D2031272D3022000000000000320FC000000000000284000
  0
ACAD_PROXY_OBJECT
  5
60
102
{ACAD_REACTORS
330
47
102
}
330
47
100
AcDbProxyObject
 90
      499
 91
      503
 93
      241
310
90C312F3422203D2031272D3022000000000000340FC000000000000284000
  0
ACAD_PROXY_OBJECT
  5
61
102
{ACAD_REACTORS
330
47
102
}
330
47
100
AcDbProxyObject
 90
      499
 91
      503
 93
      241
310
90C332F3822203D2031272D3022000000000000360FC000000000000284000
  0
ACAD_PROXY_OBJECT
  5
62
102
{ACAD_REACTORS
330
47
102
}
330
47
100
AcDbProxyObject
 90
      499
 91
      503
 93
      241
310
90C312F3222203D2031272D3022000000000000380FC000000000000284000
  0
ACAD_PROXY_OBJECT
  5
63
102
{ACAD_REACTORS
330
47
102
}
330
47
100
AcDbProxyObject
 90
      499
 91
      503
 93
      241
310
90C332F3422203D2031272D30220000000000003A0FC000000000000284000
  0
ACAD_PROXY_OBJECT
  5
64
102
{ACAD_REACTORS
330
47
102
}
330
47
100
AcDbProxyObject
 90
      499
 91
      503
 93
      161
310
90A3122203D2031272D30224000000000000284000
  0
ACAD_PROXY_OBJECT
  5
65
102
{ACAD_REACTORS
330
47
102
}
330
47
100
AcDbProxyObject
 90
      499
 91
      503
 93
      257
310
90E312D312F3222203D2031272D30220000000000003E0FC000000000000284000
  0
ACAD_PROXY_OBJECT
  5
66
102
{ACAD_REACTORS
330
47
102
}
330
47
100
AcDbProxyObject
 90
      499
 91
      503
 93
      225
310
90A3322203D2031272D302200000000000002100000000000000284000
  0
ACAD_PROXY_OBJECT
  5
67
102
{ACAD_REACTORS
330
47
102
}
330
47
100
AcDbProxyObject
 90
      499
 91
      503
 93
      225
310
90A3622203D2031272D302200000000000006100000000000000284000
  0
ACAD_PROXY_OBJECT
  5
68
102
{ACAD_REACTORS
330
47
102
}
330
47
100
AcDbProxyObject
 90
      499
 91
      503
 93
      249
310
90D31272D3022203D2031272D30220000000000000A100000000000000284000
  0
ACAD_PROXY_OBJECT
  5
2F
102
{ACAD_REACTORS
330
2A
102
}
330
2A
100
AcDbProxyObject
 90
      499
 91
      501
 93
      436
310
42CC9915DA5C99599C985B595049028333333333333E33F0000000000000F90107901411070040501600405405064090741402480A0340
1001
ACAD
1000
AcDbSavedByObjectVersion
1070
     0
  0
ACAD_PROXY_OBJECT
  5
32
102
{ACAD_REACTORS
330
2A
102
}
330
2A
100
AcDbProxyObject
 90
      499
 91
      501
 93
      388
310
4150985CDA58D07406404333333333333E33F0000000000000F90107A41107004050150841D405064090741402480A0350
1001
ACAD
1000
AcDbSavedByObjectVersion
1070
     0
  0
ACAD_PROXY_OBJECT
  5
36
102
{ACAD_REACTORS
330
2A
102
}
330
2A
100
AcDbProxyObject
 90
      499
 91
      501
 93
      428
310
42109C9A59DA1D195B90C409028333333333333E33F0000000000000F9010790141107004050150841D405064090741402480A029950
1001
ACAD
1000
AcDbSavedByObjectVersion
1070
     0
  0
ACAD_PROXY_OBJECT
  5
3A
102
{ACAD_REACTORS
330
2A
102
}
330
2A
100
AcDbProxyObject
 90
      499
 91
      501
 93
      452
310
42D0DBDB1BDC90DA185B99D95104090240C333333333333E33F0000000000000F90108901411070040501508421405064090741402480A0350
1001
ACAD
1000
AcDbSavedByObjectVersion
1070
     0
  0
ACAD_PROXY_OBJECT
  5
34
102
{ACAD_REACTORS
330
2A
102
}
330
2A
100
AcDbProxyObject
 90
      499
 91
      501
 93
      500
310
4290DBDB98D95C1D1D585B10940D028333333333333E33F0000000000000F90107902409070040501000000000018199010841D405064090740C02480A0340
1001
ACAD
1000
AcDbSavedByObjectVersion
1070
     0
  0
ACAD_PROXY_OBJECT
  5
35
102
{ACAD_REACTORS
330
2A
102
}
330
2A
100
AcDbProxyObject
 90
      499
 91
      501
 93
      412
310
40D11A5B50B409028333333333333E33F0000000000000F9010790141107004050150841D405064090741402480A02677FFFFFD0
1001
ACAD
1000
AcDbSavedByObjectVersion
1070
     0
  0
ACAD_PROXY_OBJECT
  5
3D
102
{ACAD_REACTORS
330
2A
102
}
330
2A
100
AcDbProxyObject
 90
      499
 91
      501
 93
      452
310
43115919D950DBDB1BDC93D999916409028333333333333E33F0000000000000F9010790141107004050150841D405064090741402480A0350
1001
ACAD
1000
AcDbSavedByObjectVersion
1070
     0
  0
ACAD_PROXY_OBJECT
  5
39
102
{ACAD_REACTORS
330
2A
102
}
330
2A
100
AcDbProxyObject
 90
      499
 91
      501
 93
      444
310
42D19858D95C185D1D195C9B90F409028333333333333E33F0000000000000F9010790141107004050150841D405064090741402480A0350
1001
ACAD
1000
AcDbSavedByObjectVersion
1070
     0
  0
ACAD_PROXY_OBJECT
  5
2B
102
{ACAD_REACTORS
330
2A
102
}
330
2A
100
AcDbProxyObject
 90
      499
 91
      501
 93
      380
310
41119B185D240901404333333333333E33F0000000000000F9010740A907004050150841D405064090741402480A1B50
1001
ACAD
1000
AcDbSavedByObjectVersion
1070
     0
  0
ACAD_PROXY_OBJECT
  5
2C
102
{ACAD_REACTORS
330
2A
102
}
330
2A
100
AcDbProxyObject
 90
      499
 91
      501
 93
      468
310
43519B185D15DA5D1A115919D95CD0140901404333333333333E33F0000000000000F90107409019070040501600405405064090741402480A1B50
1001
ACAD
1000
AcDbSavedByObjectVersion
1070
     0
  0
ACAD_PROXY_OBJECT
  5
2D
102
{ACAD_REACTORS
330
2A
102
}
330
2A
100
AcDbProxyObject
 90
      499
 91
      501
 93
      404
310
41D1DBDD5C985D5910240902404333333333333E33F0000000000000F9010740A9070040501641D405064090741402480A1B50
1001
ACAD
1000
AcDbSavedByObjectVersion
1070
     0
  0
ACAD_PROXY_OBJECT
  5
2E
102
{ACAD_REACTORS
330
2A
102
}
330
2A
100
AcDbProxyObject
 90
      499
 91
      501
 93
      492
310
4411DBDD5C985D5915DA5D1A115919D95CD0340902404333333333333E33F0000000000000F90107409019070040501600405405064090741402480A1B50
1001
ACAD
1000
AcDbSavedByObjectVersion
1070
     0
  0
ACAD_PROXY_OBJECT
  5
31
102
{ACAD_REACTORS
330
2A
102
}
330
2A
100
AcDbProxyObject
 90
      499
 91
      501
 93
      476
310
41921A5919195B90640502408333333333333E33F0000000000000F901079024090700405020000000000001110200405405064090740C02480A0340
1001
ACAD
1000
AcDbSavedByObjectVersion
1070
     0
  0
ACAD_PROXY_OBJECT
  5
3B
102
{ACAD_REACTORS
330
2A
102
}
330
2A
100
AcDbProxyObject
 90
      499
 91
      501
 93
      428
310
42529A5D1D195C93D999914409028333333333333E33F0000000000000F9010790141107004050150A41D405064090741402480A0350
1001
ACAD
1000
AcDbSavedByObjectVersion
1070
     0
  0
ACAD_PROXY_OBJECT
  5
38
102
{ACAD_REACTORS
330
2A
102
}
330
2A
100
AcDbProxyObject
 90
      499
 91
      501
 93
      444
310
42D31A5B995C185D1D195C9B90E409028333333333333E33F0000000000000F9010790141107004050750841D405064090741402483A0350
1001
ACAD
1000
AcDbSavedByObjectVersion
1070
     0
  0
ACAD_PROXY_OBJECT
  5
3C
102
{ACAD_REACTORS
330
2A
102
}
330
2A
100
AcDbProxyObject
 90
      499
 91
      501
 93
      444
310
42D3DD995C9A185B99D3D999915409028333333333333E33F0000000000000F9010790141107004050150941D405064090741402480A0350
1001
ACAD
1000
AcDbSavedByObjectVersion
1070
     0
  0
ACAD_PROXY_OBJECT
  5
33
102
{ACAD_REACTORS
330
2A
102
}
330
2A
100
AcDbProxyObject
 90
      499
 91
      501
 93
      428
310
425499585B1A5CDD1A58D08409038333333333333E33F0000000000000F9010740A907004050150800405405064090740C02480A1B40
1001
ACAD
1000
AcDbSavedByObjectVersion
1070
     0
  0
ACAD_PROXY_OBJECT
  5
42
102
{ACAD_REACTORS
330
2A
102
}
330
2A
100
AcDbProxyObject
 90
      499
 91
      501
 93
      420
310
4194DA1859195911B40902404333333333333E33F0000000000000F9010740A41107004050150800405405064090840C02480A0B40
1001
ACAD
1000
AcDbSavedByObjectVersion
1070
     0
  0
ACAD_PROXY_OBJECT
  5
41
102
{ACAD_REACTORS
330
2A
102
}
330
2A
100
AcDbProxyObject
 90
      499
 91
      501
 93
      516
310
4454DA18591959081DDA5D1A08195919D95CD1A40902404333333333333E33F0000000000000F901074090142907004050250800405405064090740C02480A0B40
1001
ACAD
1000
AcDbSavedByObjectVersion
1070
     0
  0
ACAD_PROXY_OBJECT
  5
3E
102
{ACAD_REACTORS
330
2A
102
}
330
2A
100
AcDbProxyObject
 90
      499
 91
      501
 93
      532
310
4394DA1859195CC81BD98811DC985E5174090240C333333333333E33F0000000000000F901079024090741D01000000000000111010841D405064090740C02480A0340
1001
ACAD
1000
AcDbSavedByObjectVersion
1070
     0
  0
ACAD_PROXY_OBJECT
  5
3F
102
{ACAD_REACTORS
330
2A
102
}
330
2A
100
AcDbProxyObject
 90
      499
 91
      501
 93
      476
310
41D4DAD95D18DA1E51840502408333333333333E33F0000000000000F901079024090741D01000000000000111010B41D405064090741802480A0340
1001
ACAD
1000
AcDbSavedByObjectVersion
1070
     0
  0
ACAD_PROXY_OBJECT
  5
37
102
{ACAD_REACTORS
330
2A
102
}
330
2A
100
AcDbProxyObject
 90
      499
 91
      501
 93
      412
310
41D51A1A58DAD95B90D409028333333333333E33F0000000000000F9010790141107004050150C41D405064090741402480A0350
1001
ACAD
1000
AcDbSavedByObjectVersion
1070
     0
  0
ACAD_PROXY_OBJECT
  5
30
102
{ACAD_REACTORS
330
2A
102
}
330
2A
100
AcDbProxyObject
 90
      499
 91
      501
 93
      420
310
4255DA5C99599C985B595059028333333333333E33F0000000000000F90107901411070040501600405405064090740C02480A0340
1001
ACAD
1000
AcDbSavedByObjectVersion
1070
     0
  0
ACAD_PROXY_OBJECT
  5
40
102
{ACAD_REACTORS
330
2A
102
}
330
2A
100
AcDbProxyObject
 90
      499
 91
      501
 93
      404
310
41560B54985E51940902404000000000000E03F0000000000000F9010740501907004050150841D405064090740C02480A1B40
1001
ACAD
1000
AcDbSavedByObjectVersion
1070
     0
  0
XRECORD
  5
1A3
102
{ACAD_REACTORS
330
199
102
}
330
199
100
AcDbXrecord
340
0
  0
XRECORD
  5
1A2
102
{ACAD_REACTORS
330
199
102
}
330
199
100
AcDbXrecord
 90
        0
  0
XRECORD
  5
1B9
102
{ACAD_REACTORS
330
199
102
}
330
199
100
AcDbXrecord
1000
DSTYLE
1002
{
1070
   179
 70
     2
1070
   171
 70
     2
1070
   143
 40
25.4
1070
   274
 70
     2
1070
    41
 40
3.0
1070
   141
 40
0.09
1070
    43
 40
0.38
1070
   278
 70
    46
1070
    44
 40
1.5
1070
    42
 40
0.0625
1070
   147
 40
1.5
1070
   272
 70
     4
1070
    73
 70
     1
1070
   172
 70
     0
1070
    74
 70
     1
1070
   283
 70
     1
1070
   340
340
6E
1070
   140
 40
3.0
1070
   284
 70
     0
1070
    78
 70
     0
1002
}
  0
XRECORD
  5
1A4
102
{ACAD_REACTORS
330
199
102
}
330
199
100
AcDbXrecord
  1
{426BD6F6-D234-4E9B-841E-F1564898F430}
  0
XRECORD
  5
19C
102
{ACAD_REACTORS
330
199
102
}
330
199
100
AcDbXrecord
  1

  0
XRECORD
  5
1A1
102
{ACAD_REACTORS
330
199
102
}
330
199
100
AcDbXrecord
 90
        4
  0
XRECORD
  5
19E
102
{ACAD_REACTORS
330
199
102
}
330
199
100
AcDbXrecord
340
1A
  0
XRECORD
  5
1A0
102
{ACAD_REACTORS
330
199
102
}
330
199
100
AcDbXrecord
 90
    10269
  0
XRECORD
  5
19F
102
{ACAD_REACTORS
330
199
102
}
330
199
100
AcDbXrecord
340
19
  0
XRECORD
  5
1A6
102
{ACAD_REACTORS
330
199
102
}
330
199
100
AcDbXrecord
 40
0.0
  0
XRECORD
  5
1A9
102
{ACAD_REACTORS
330
199
102
}
330
199
100
AcDbXrecord
340
0
  0
XRECORD
  5
1AF
102
{ACAD_REACTORS
330
199
102
}
330
199
100
AcDbXrecord
 10
0.0
 20
0.0
 30
0.0
  0
XRECORD
  5
1AB
102
{ACAD_REACTORS
330
199
102
}
330
199
100
AcDbXrecord
 10
0.0
 20
0.0
 30
0.0
  0
XRECORD
  5
1AE
102
{ACAD_REACTORS
330
199
102
}
330
199
100
AcDbXrecord
 10
0.0
 20
0.0
 30
0.0
  0
XRECORD
  5
1AC
102
{ACAD_REACTORS
330
199
102
}
330
199
100
AcDbXrecord
 10
0.0
 20
0.0
 30
0.0
  0
XRECORD
  5
1AD
102
{ACAD_REACTORS
330
199
102
}
330
199
100
AcDbXrecord
 10
0.0
 20
0.0
 30
0.0
  0
XRECORD
  5
1AA
102
{ACAD_REACTORS
330
199
102
}
330
199
100
AcDbXrecord
 10
0.0
 20
0.0
 30
0.0
  0
XRECORD
  5
1A7
102
{ACAD_REACTORS
330
199
102
}
330
199
100
AcDbXrecord
340
0
  0
XRECORD
  5
1A8
102
{ACAD_REACTORS
330
199
102
}
330
199
100
AcDbXrecord
 70
     0
  0
XRECORD
  5
19D
102
{ACAD_REACTORS
330
199
102
}
330
199
100
AcDbXrecord
  1

  0
XRECORD
  5
19A
102
{ACAD_REACTORS
330
199
102
}
330
199
100
AcDbXrecord
 90
        1
  0
XRECORD
  5
19B
102
{ACAD_REACTORS
330
199
102
}
330
199
100
AcDbXrecord
 90
       70
  0
XRECORD
  5
1B2
102
{ACAD_REACTORS
330
199
102
}
330
199
100
AcDbXrecord
340
0
  0
XRECORD
  5
1B8
102
{ACAD_REACTORS
330
199
102
}
330
199
100
AcDbXrecord
 10
0.0
 20
0.0
 30
0.0
  0
XRECORD
  5
1B4
102
{ACAD_REACTORS
330
199
102
}
330
199
100
AcDbXrecord
 10
0.0
 20
0.0
 30
0.0
  0
XRECORD
  5
1B7
102
{ACAD_REACTORS
330
199
102
}
330
199
100
AcDbXrecord
 10
0.0
 20
0.0
 30
0.0
  0
XRECORD
  5
1B5
102
{ACAD_REACTORS
330
199
102
}
330
199
100
AcDbXrecord
 10
0.0
 20
0.0
 30
0.0
  0
XRECORD
  5
1B6
102
{ACAD_REACTORS
330
199
102
}
330
199
100
AcDbXrecord
 10
0.0
 20
0.0
 30
0.0
  0
XRECORD
  5
1B3
102
{ACAD_REACTORS
330
199
102
}
330
199
100
AcDbXrecord
 10
0.0
 20
0.0
 30
0.0
  0
XRECORD
  5
1B0
102
{ACAD_REACTORS
330
199
102
}
330
199
100
AcDbXrecord
340
0
  0
XRECORD
  5
1B1
102
{ACAD_REACTORS
330
199
102
}
330
199
100
AcDbXrecord
 70
     0
  0
XRECORD
  5
1A5
102
{ACAD_REACTORS
330
199
102
}
330
199
100
AcDbXrecord
  1
{FAEB1C32-E019-11D5-929B-00C0DF256EC4}
  0
DICTIONARYVAR
  5
1C5
102
{ACAD_REACTORS
330
1BA
102
}
330
1BA
100
DictionaryVariables
280
     0
  1
1:1
  0
DICTIONARYVAR
  5
1BC
102
{ACAD_REACTORS
330
1BA
102
}
330
1BA
100
DictionaryVariables
280
     0
  1
Standard
  0
DICTIONARYVAR
  5
1BB
102
{ACAD_REACTORS
330
1BA
102
}
330
1BA
100
DictionaryVariables
280
     0
  1
Standard
  0
DICTIONARYVAR
  5
1BF
102
{ACAD_REACTORS
330
1BA
102
}
330
1BA
100
DictionaryVariables
280
     0
  1
2
  0
DICTIONARYVAR
  5
1C0
102
{ACAD_REACTORS
330
1BA
102
}
330
1BA
100
DictionaryVariables
280
     0
  1
1
  0
DICTIONARYVAR
  5
1C6
102
{ACAD_REACTORS
330
1BA
102
}
330
1BA
100
DictionaryVariables
280
     0
  1
1
  0
DICTIONARY
  5
1C9
330
45
100
AcDbDictionary
280
     1
  3
ACAD_XREC_ROUNDTRIP
360
1CA
  0
DICTIONARY
  5
1C7
330
44
100
AcDbDictionary
280
     1
  3
ACAD_XREC_ROUNDTRIP
360
1C8
  0
DICTIONARY
  5
1CB
330
46
100
AcDbDictionary
280
     1
  3
ACAD_XREC_ROUNDTRIP
360
1CC
  0
XRECORD
  5
1CA
102
{ACAD_REACTORS
330
1C9
102
}
330
1C9
100
AcDbXrecord
102
MATERIAL
148
0.0
149
0.0
149
0.0
 93
        0
 94
      127
282
     0
 72
     1
 77
     1
171
     1
175
     1
179
     1
273
     0
  0
XRECORD
  5
1C8
102
{ACAD_REACTORS
330
1C7
102
}
330
1C7
100
AcDbXrecord
102
MATERIAL
148
0.0
149
0.0
149
0.0
 93
        0
 94
      127
282
     0
 72
     1
 77
     1
171
     1
175
     1
179
     1
273
     0
  0
XRECORD
  5
1CC
102
{ACAD_REACTORS
330
1CB
102
}
330
1CB
100
AcDbXrecord
102
MATERIAL
148
0.0
149
0.0
149
0.0
 93
        0
 94
      127
282
     0
 72
     1
 77
     1
171
     1
175
     1
179
     1
273
     0
  0
ENDSEC
  0
EOF
