  0
SECTION
  2
HEADER
  9
$ACADVER
  1
AC1006
  9
$DWGCODEPAGE
  3
ansi_932
  9
$INSBASE
 10
0.0
 20
0.0
 30
0.0
  9
$EXTMIN
 10
0.0
 20
-99.99999999999997
  9
$EXTMAX
 10
481.3333333333334
 20
410.0
  9
$LIMMIN
 10
0.0
 20
0.0
  9
$LIMMAX
 10
12.0
 20
9.0
  9
$ORTHOMODE
 70
     0
  9
$REGENMODE
 70
     1
  9
$FILLMODE
 70
     1
  9
$QTEXTMODE
 70
     0
  9
$MIRRTEXT
 70
     1
  9
$DRAGMODE
 70
     2
  9
$LTSCALE
 40
1.0
  9
$OSMODE
 70
    37
  9
$ATTMODE
 70
     1
  9
$TEXTSIZE
 40
0.2
  9
$TRACEWID
 40
0.05
  9
$TEXTSTYLE
  7
STANDARD
  9
$CLAYER
  8
0
  9
$CELTYPE
  6
BYLAYER
  9
$CECOLOR
 62
   256
  9
$DIMSCALE
 40
1.0
  9
$DIMASZ
 40
3.0
  9
$DIMEXO
 40
0.0625
  9
$DIMDLI
 40
0.38
  9
$DIMRND
 40
0.0
  9
$DIMDLE
 40
0.0
  9
$DIMEXE
 40
1.5
  9
$DIMTP
 40
0.0
  9
$DIMTM
 40
0.0
  9
$DIMTXT
 40
3.0
  9
$DIMCEN
 40
0.09
  9
$DIMTSZ
 40
0.0
  9
$DIMTOL
 70
     0
  9
$DIMLIM
 70
     0
  9
$DIMTIH
 70
     1
  9
$DIMTOH
 70
     1
  9
$DIMSE1
 70
     0
  9
$DIMSE2
 70
     0
  9
$DIMTAD
 70
     1
  9
$DIMZIN
 70
     0
  9
$DIMBLK
  1

  9
$DIMASO
 70
     1
  9
$DIMSHO
 70
     1
  9
$DIMPOST
  1

  9
$DIMAPOST
  1

  9
$DIMALT
 70
     0
  9
$DIMALTD
 70
     2
  9
$DIMALTF
 40
25.4
  9
$DIMLFAC
 40
1.0
  9
$DIMTOFL
 70
     0
  9
$DIMTVP
 40
0.0
  9
$DIMTIX
 70
     0
  9
$DIMSOXD
 70
     0
  9
$DIMSAH
 70
     0
  9
$DIMBLK1
  1

  9
$DIMBLK2
  1

  9
$LUNITS
 70
     2
  9
$LUPREC
 70
     4
  9
$SKETCHINC
 40
0.1
  9
$FILLETRAD
 40
0.5
  9
$AUNITS
 70
     0
  9
$AUPREC
 70
     0
  9
$MENU
  1
.
  9
$ELEVATION
 40
0.0
  9
$THICKNESS
 40
0.0
  9
$LIMCHECK
 70
     0
  9
$CHAMFERA
 40
0.0
  9
$CHAMFERB
 40
0.0
  9
$SKPOLY
 70
     0
  9
$TDCREATE
 40
2460762.610424884
  9
$TDUPDATE
 40
2460762.610425104
  9
$TDINDWG
 40
0.0000000116
  9
$TDUSRTIMER
 40
0.0000000116
  9
$USRTIMER
 70
     1
  9
$ANGBASE
 50
0.0
  9
$ANGDIR
 70
     0
  9
$PDMODE
 70
     0
  9
$PDSIZE
 40
0.0
  9
$PLINEWID
 40
0.0
  9
$COORDS
 70
     1
  9
$SPLFRAME
 70
     0
  9
$SPLINETYPE
 70
     6
  9
$SPLINESEGS
 70
     8
  9
$ATTDIA
 70
     0
  9
$ATTREQ
 70
     1
  9
$HANDLING
 70
     1
  9
$HANDSEED
  5
92
  9
$SURFTAB1
 70
     6
  9
$SURFTAB2
 70
     6
  9
$SURFTYPE
 70
     6
  9
$SURFU
 70
     6
  9
$SURFV
 70
     6
  9
$UCSNAME
  2

  9
$UCSORG
 10
0.0
 20
0.0
 30
0.0
  9
$UCSXDIR
 10
1.0
 20
0.0
 30
0.0
  9
$UCSYDIR
 10
0.0
 20
1.0
 30
0.0
  9
$USERI1
 70
     0
  9
$USERI2
 70
     0
  9
$USERI3
 70
     0
  9
$USERI4
 70
     0
  9
$USERI5
 70
     0
  9
$USERR1
 40
0.0
  9
$USERR2
 40
0.0
  9
$USERR3
 40
0.0
  9
$USERR4
 40
0.0
  9
$USERR5
 40
0.0
  9
$WORLDVIEW
 70
     1
  0
ENDSEC
  0
SECTION
  2
TABLES
  0
TABLE
  2
VPORT
 70
     1
  0
VPORT
  2
*ACTIVE
 70
     0
 10
0.0
 20
0.0
 11
1.0
 21
1.0
 12
240.6666666666667
 22
155.0
 13
0.0
 23
0.0
 14
0.5
 24
0.5
 15
0.5
 25
0.5
 16
0.0
 26
0.0
 36
1.0
 17
0.0
 27
0.0
 37
0.0
 40
510.0
 41
1.6
 42
50.0
 43
0.0
 44
0.0
 50
0.0
 51
0.0
 71
     0
 72
   100
 73
     1
 74
     3
 75
     0
 76
     0
 77
     0
 78
     0
  0
ENDTAB
  0
TABLE
  2
LTYPE
 70
     2
  0
LTYPE
  2
CONTINUOUS
 70
     0
  3
Solid line
 72
    65
 73
     0
 40
0.0
  0
LTYPE
  2
CENTER
 70
     0
  3

 72
    65
 73
     0
 40
0.0
  0
ENDTAB
  0
TABLE
  2
LAYER
 70
     2
  0
LAYER
  2
0
 70
     0
 62
     7
  6
CONTINUOUS
  0
LAYER
  2
1
 70
     0
 62
     7
  6
CONTINUOUS
  0
ENDTAB
  0
TABLE
  2
STYLE
 70
     2
  0
STYLE
  2
STANDARD
 70
     0
 40
0.0
 41
1.0
 50
0.0
 71
     0
 42
0.2
  3
txt
  4

  0
STYLE
  2
ＭＳ_ゴシック
 70
     0
 40
0.0
 41
1.0
 50
0.0
 71
     0
 42
0.2
  3
ＭＳ ゴシック.shx
  4

  0
ENDTAB
  0
TABLE
  2
VIEW
 70
     0
  0
ENDTAB
  0
TABLE
  2
UCS
 70
     0
  0
ENDTAB
  0
ENDSEC
  0
SECTION
  2
BLOCKS
  0
ENDSEC
  0
SECTION
  2
ENTITIES
  0
TEXT
  5
70
  8
1
  6
CONTINUOUS
 62
     7
 10
420.3762869409363
 20
186.7038097619941
 30
0.0
 40
3.0
  1
KPRH-150
  0
LINE
  5
71
  8
0
  6
CENTER
 62
     1
 10
356.3333333333334
 20
170.0
 30
0.0
 11
356.3333333333334
 21
370.0
 31
0.0
  0
LINE
  5
73
  8
1
  6
CONTINUOUS
 62
     7
 10
276.8333333333334
 20
196.2193000151204
 30
0.0
 11
266.8333333333334
 21
196.2193000151204
 31
0.0
  0
LINE
  5
74
  8
1
  6
CONTINUOUS
 62
     7
 10
435.8333333333334
 20
196.2193000151204
 30
0.0
 11
445.8333333333334
 21
196.2193000151204
 31
0.0
  0
ARC
  5
75
  8
1
  6
CONTINUOUS
 62
     7
 10
435.8333333333334
 20
326.8735619222216
 30
0.0
 40
10.00000000000001
 50
359.9999999999998
 51
71.99999999999989
  0
LINE
  5
76
  8
1
  6
CONTINUOUS
 62
     7
 10
357.8784183052081
 20
352.2026492330221
 30
0.0
 11
435.8333333333334
 21
326.8735619222216
 31
0.0
  0
LINE
  5
77
  8
1
  6
CONTINUOUS
 62
     7
 10
438.9235032770829
 20
336.3841270851732
 30
0.0
 11
360.9685882489576
 21
361.7132143959737
 31
0.0
  0
LINE
  5
78
  8
1
  6
CONTINUOUS
 62
     7
 10
276.8333333333334
 20
196.2193000151204
 30
0.0
 11
276.8333333333334
 21
326.8735619222217
 31
0.0
  0
LINE
  5
79
  8
1
  6
CONTINUOUS
 62
     7
 10
266.8333333333334
 20
326.8735619222217
 30
0.0
 11
266.8333333333334
 21
196.2193000151204
 31
0.0
  0
LINE
  5
7A
  8
1
  6
CONTINUOUS
 62
     7
 10
276.8333333333334
 20
326.8735619222217
 30
0.0
 11
354.7882483614586
 21
352.2026492330221
 31
0.0
  0
LINE
  5
7B
  8
1
  6
CONTINUOUS
 62
     7
 10
351.6980784177092
 20
361.7132143959737
 30
0.0
 11
273.743163389584
 21
336.3841270851732
 31
0.0
  0
ARC
  5
7C
  8
1
  6
CONTINUOUS
 62
     7
 10
276.8333333333334
 20
326.8735619222217
 30
0.0
 40
10.00000000000001
 50
107.9999999999999
 51
180.0
  0
LINE
  5
7D
  8
1
  6
CONTINUOUS
 62
     7
 10
435.8333333333334
 20
326.8735619222216
 30
0.0
 11
435.8333333333334
 21
196.2193000151204
 31
0.0
  0
LINE
  5
7E
  8
1
  6
CONTINUOUS
 62
     7
 10
445.8333333333334
 20
196.2193000151204
 30
0.0
 11
445.8333333333334
 21
326.8735619222216
 31
0.0
  0
ARC
  5
7F
  8
1
  6
CONTINUOUS
 62
     7
 10
356.3333333333334
 20
347.4473666515464
 30
0.0
 40
5.000000000000016
 50
72.0
 51
108.0
  0
ARC
  5
80
  8
1
  6
CONTINUOUS
 62
     7
 10
356.3333333333334
 20
347.4473666515464
 30
0.0
 40
15.00000000000002
 50
72.00000000000006
 51
108.0
  0
LINE
  5
81
  8
1
  6
CONTINUOUS
 62
     7
 10
471.3333333333334
 20
196.2193000151204
 30
0.0
 11
481.3333333333334
 21
196.2193000151204
 31
0.0
  0
LINE
  5
82
  8
1
  6
CONTINUOUS
 62
     7
 10
481.3333333333334
 20
326.8735619222216
 30
0.0
 11
481.3333333333334
 21
331.6288445036974
 31
0.0
  0
LINE
  5
83
  8
1
  6
CONTINUOUS
 62
     7
 10
471.3333333333334
 20
331.6288445036974
 30
0.0
 11
471.3333333333334
 21
326.8735619222216
 31
0.0
  0
LINE
  5
84
  8
1
  6
CONTINUOUS
 62
     7
 10
471.3333333333334
 20
326.8735619222216
 30
0.0
 11
471.3333333333334
 21
196.2193000151204
 31
0.0
  0
LINE
  5
85
  8
1
  6
CONTINUOUS
 62
     7
 10
481.3333333333334
 20
196.2193000151204
 30
0.0
 11
481.3333333333334
 21
326.8735619222216
 31
0.0
  0
LINE
  5
86
  8
1
  6
CONTINUOUS
 62
     7
 10
471.3333333333334
 20
356.957931814498
 30
0.0
 11
471.3333333333334
 21
331.6288445036975
 31
0.0
  0
LINE
  5
87
  8
1
  6
CONTINUOUS
 62
     7
 10
481.3333333333334
 20
331.6288445036975
 30
0.0
 11
481.3333333333334
 21
356.957931814498
 31
0.0
  0
ARC
  5
88
  8
1
  6
CONTINUOUS
 62
     7
 10
476.3333333333334
 20
357.4473666515464
 30
0.0
 40
5.000000000000004
 50
0.0
 51
180.0
  0
LINE
  5
89
  8
1
  6
CONTINUOUS
 62
     7
 10
481.3333333333334
 20
356.9579318144979
 30
0.0
 11
481.3333333333334
 21
357.4473666515464
 31
0.0
  0
LINE
  5
8A
  8
1
  6
CONTINUOUS
 62
     7
 10
471.3333333333334
 20
357.4473666515464
 30
0.0
 11
471.3333333333334
 21
356.9579318144979
 31
0.0
  0
ENDSEC
  0
EOF
