  0
SECTION
  2
HEADER
  9
$ACADVER
  1
AC1004
  9
$INSBASE
 10
0.0
 20
0.0
  9
$EXTMIN
 10
67.50356044166898
 20
166.8663858212116
  9
$EXTMAX
 10
151.3290086098233
 20
241.0902711339848
  9
$LIMMIN
 10
0.0
 20
0.0
  9
$LIMMAX
 10
12.0
 20
9.0
  9
$ORTHOMODE
 70
     0
  9
$REGENMODE
 70
     1
  9
$FILLMODE
 70
     1
  9
$QTEXTMODE
 70
     0
  9
$DRAGMODE
 70
     2
  9
$LTSCALE
 40
1.0
  9
$OSMODE
 70
    37
  9
$ATTMODE
 70
     1
  9
$TEXTSIZE
 40
0.2
  9
$TRACEWID
 40
0.05
  9
$TEXTSTYLE
  7
STANDARD
  9
$CLAYER
  8
0
  9
$CELTYPE
  6
BYLAYER
  9
$CECOLOR
 62
   256
  9
$DIMSCALE
 40
1.0
  9
$DIMASZ
 40
3.0
  9
$DIMEXO
 40
0.0625
  9
$DIMDLI
 40
0.38
  9
$DIMRND
 40
0.0
  9
$DIMDLE
 40
0.0
  9
$DIMEXE
 40
1.5
  9
$DIMTP
 40
0.0
  9
$DIMTM
 40
0.0
  9
$DIMTXT
 40
3.0
  9
$DIMCEN
 40
0.09
  9
$DIMTSZ
 40
0.0
  9
$DIMTOL
 70
     0
  9
$DIMLIM
 70
     0
  9
$DIMTIH
 70
     1
  9
$DIMTOH
 70
     1
  9
$DIMSE1
 70
     0
  9
$DIMSE2
 70
     0
  9
$DIMTAD
 70
     1
  9
$DIMZIN
 70
     0
  9
$DIMBLK
  1

  9
$DIMASO
 70
     1
  9
$DIMSHO
 70
     1
  9
$DIMPOST
  1

  9
$DIMAPOST
  1

  9
$DIMALT
 70
     0
  9
$DIMALTD
 70
     2
  9
$DIMALTF
 40
25.4
  9
$DIMLFAC
 40
1.0
  9
$DIMTOFL
 70
     0
  9
$DIMTVP
 40
0.0
  9
$DIMTIX
 70
     0
  9
$DIMSOXD
 70
     0
  9
$DIMSAH
 70
     0
  9
$DIMBLK1
  1

  9
$DIMBLK2
  1

  9
$LUNITS
 70
     2
  9
$LUPREC
 70
     4
  9
$SKETCHINC
 40
0.1
  9
$FILLETRAD
 40
0.5
  9
$AUNITS
 70
     0
  9
$AUPREC
 70
     0
  9
$MENU
  1
.
  9
$ELEVATION
 40
0.0
  9
$THICKNESS
 40
0.0
  9
$LIMCHECK
 70
     0
  9
$CHAMFERA
 40
0.0
  9
$CHAMFERB
 40
0.0
  9
$SKPOLY
 70
     0
  9
$TDCREATE
 40
2460774.324148067
  9
$TDUPDATE
 40
2460774.324148148
  9
$TDINDWG
 40
0.0000000116
  9
$TDUSRTIMER
 40
0.0000000116
  9
$USRTIMER
 70
     1
  9
$ANGBASE
 50
0.0
  9
$ANGDIR
 70
     0
  9
$PDMODE
 70
     0
  9
$PDSIZE
 40
0.0
  9
$PLINEWID
 40
0.0
  9
$COORDS
 70
     1
  9
$SPLFRAME
 70
     0
  9
$SPLINETYPE
 70
     6
  9
$SPLINESEGS
 70
     8
  9
$ATTDIA
 70
     0
  9
$ATTREQ
 70
     1
  9
$SURFTAB1
 70
     6
  9
$SURFTAB2
 70
     6
  9
$SURFTYPE
 70
     6
  9
$SURFU
 70
     6
  9
$SURFV
 70
     6
  9
$UCSNAME
  2

  9
$UCSORG
 10
0.0
 20
0.0
 30
0.0
  9
$UCSXDIR
 10
1.0
 20
0.0
 30
0.0
  9
$UCSYDIR
 10
0.0
 20
1.0
 30
0.0
  9
$USERI1
 70
     0
  9
$USERI2
 70
     0
  9
$USERI3
 70
     0
  9
$USERI4
 70
     0
  9
$USERI5
 70
     0
  9
$USERR1
 40
0.0
  9
$USERR2
 40
0.0
  9
$USERR3
 40
0.0
  9
$USERR4
 40
0.0
  9
$USERR5
 40
0.0
  9
$WORLDVIEW
 70
     1
  0
ENDSEC
  0
SECTION
  2
TABLES
  0
TABLE
  2
LTYPE
 70
     2
  0
LTYPE
  2
CONTINUOUS
 70
     0
  3
Solid line
 72
    65
 73
     0
 40
0.0
  0
LTYPE
  2
CENTER
 70
     0
  3

 72
    65
 73
     0
 40
0.0
  0
ENDTAB
  0
TABLE
  2
LAYER
 70
     2
  0
LAYER
  2
0
 70
     0
 62
     7
  6
CONTINUOUS
  0
LAYER
  2
2
 70
     0
 62
     7
  6
CONTINUOUS
  0
ENDTAB
  0
TABLE
  2
STYLE
 70
     2
  0
STYLE
  2
STANDARD
 70
     0
 40
0.0
 41
1.0
 50
0.0
 71
     0
 42
0.2
  3
txt
  4

  0
STYLE
  2
ＭＳ_ゴシック
 70
     0
 40
0.0
 41
1.0
 50
0.0
 71
     0
 42
0.2
  3
ＭＳ ゴシック.shx
  4

  0
ENDTAB
  0
TABLE
  2
VIEW
 70
     0
  0
ENDTAB
  0
ENDSEC
  0
SECTION
  2
BLOCKS
  0
BLOCK
  8
0
  2
D_FRAME_VIEW_2324
 70
     0
 10
0.0
 20
0.0
  0
LINE
  8
2
  6
CONTINUOUS
 62
     7
 10
115.353560441669
 20
179.0552967095818
 11
113.353560441669
 21
180.2552967095818
  0
LINE
  8
2
  6
CONTINUOUS
 62
     7
 10
113.353560441669
 20
180.2552967095818
 11
109.3535604416689
 21
180.2552967095818
  0
LINE
  8
2
  6
CONTINUOUS
 62
     7
 10
115.353560441669
 20
181.7552967095818
 11
115.353560441669
 21
179.0552967095818
  0
LINE
  8
2
  6
CONTINUOUS
 62
     7
 10
98.20356044166896
 20
180.2552967095818
 11
109.3535604416689
 21
180.2552967095818
  0
ARC
  8
2
  6
CONTINUOUS
 62
     7
 10
98.20356044166896
 20
181.7552967095818
 40
1.500000000000001
 50
180.0
 51
270.0
  0
LINE
  8
2
  6
CONTINUOUS
 62
     7
 10
96.70356044166896
 20
184.2552967095818
 11
96.70356044166896
 21
181.7552967095818
  0
ARC
  8
2
  6
CONTINUOUS
 62
     7
 10
90.21079853606051
 20
174.2552967095818
 40
3.000000000000003
 50
90.00000000000001
 51
111.1466793767755
  0
LINE
  8
2
  6
CONTINUOUS
 62
     7
 10
97.35356044166898
 20
177.2552967095818
 11
90.21079853606051
 21
177.2552967095818
  0
LINE
  8
2
  6
CONTINUOUS
 62
     7
 10
99.35356044166896
 20
175.7552967095818
 11
97.35356044166898
 21
177.2552967095818
  0
LINE
  8
2
  6
CONTINUOUS
 62
     7
 10
99.35356044166896
 20
177.2552967095818
 11
99.35356044166896
 21
175.7552967095818
  0
LINE
  8
2
  6
CONTINUOUS
 62
     7
 10
101.353560441669
 20
175.7552967095818
 11
99.35356044166896
 21
177.2552967095818
  0
LINE
  8
2
  6
CONTINUOUS
 62
     7
 10
101.353560441669
 20
177.2552967095818
 11
101.353560441669
 21
175.7552967095818
  0
LINE
  8
2
  6
CONTINUOUS
 62
     7
 10
103.353560441669
 20
175.7552967095818
 11
101.353560441669
 21
177.2552967095818
  0
LINE
  8
2
  6
CONTINUOUS
 62
     7
 10
103.353560441669
 20
177.2552967095818
 11
103.353560441669
 21
175.7552967095818
  0
LINE
  8
2
  6
CONTINUOUS
 62
     7
 10
105.353560441669
 20
175.7552967095818
 11
103.353560441669
 21
177.2552967095818
  0
LINE
  8
2
  6
CONTINUOUS
 62
     7
 10
105.353560441669
 20
177.2552967095818
 11
105.353560441669
 21
175.7552967095818
  0
LINE
  8
2
  6
CONTINUOUS
 62
     7
 10
107.353560441669
 20
175.7552967095818
 11
105.353560441669
 21
177.2552967095818
  0
LINE
  8
2
  6
CONTINUOUS
 62
     7
 10
107.3535604416689
 20
177.2552967095818
 11
107.353560441669
 21
175.7552967095818
  0
LINE
  8
2
  6
CONTINUOUS
 62
     7
 10
109.3535604416689
 20
175.7552967095818
 11
107.3535604416689
 21
177.2552967095818
  0
ARC
  8
2
  6
CONTINUOUS
 62
     7
 10
84.85356044166896
 20
188.1052967095818
 40
11.85
 50
193.3423637970883
 51
291.1466793767755
  0
LINE
  8
2
  6
CONTINUOUS
 62
     7
 10
98.20356044166896
 20
188.1052967095818
 11
98.20356044166896
 21
184.2552967095818
  0
LINE
  8
2
  6
CONTINUOUS
 62
     7
 10
96.70356044166896
 20
188.1052967095818
 11
96.70356044166896
 21
184.2552967095818
  0
LINE
  8
2
  6
CONTINUOUS
 62
     7
 10
99.20356044166896
 20
183.2552967095818
 11
109.3535604416689
 21
183.2552967095818
  0
ARC
  8
2
  6
CONTINUOUS
 62
     7
 10
85.48601597370268
 20
188.2552967095818
 40
14.00000000000007
 50
193.3423637970885
 51
269.9999999999998
  0
ARC
  8
2
  6
CONTINUOUS
 62
     7
 10
84.85356044166896
 20
188.1052967095818
 40
13.35
 50
359.9999999999998
 51
193.3423637970884
  0
ARC
  8
2
  6
CONTINUOUS
 62
     7
 10
84.85356044166898
 20
188.1052967095818
 40
11.85
 50
0.0
 51
193.3423637970882
  0
POLYLINE
  8
2
  6
CONTINUOUS
 62
     7
 66
     1
  0
VERTEX
  8
2
  6
CONTINUOUS
 62
     7
 10
98.20356044166896
 20
184.2552967095818
  0
VERTEX
  8
2
  6
CONTINUOUS
 62
     7
 10
98.20476498546378
 20
184.2062290352544
  0
VERTEX
  8
2
  6
CONTINUOUS
 62
     7
 10
98.20837571499675
 20
184.1572795692522
  0
VERTEX
  8
2
  6
CONTINUOUS
 62
     7
 10
98.21438393170418
 20
184.1085662351264
  0
VERTEX
  8
2
  6
CONTINUOUS
 62
     7
 10
98.22277516126572
 20
184.0602063875656
  0
VERTEX
  8
2
  6
CONTINUOUS
 62
     7
 10
98.23352918847442
 20
184.0123165296785
  0
VERTEX
  8
2
  6
CONTINUOUS
 62
     7
 10
98.24662010593676
 20
183.9650120323273
  0
VERTEX
  8
2
  6
CONTINUOUS
 62
     7
 10
98.26201637648593
 20
183.9184068561896
  0
VERTEX
  8
2
  6
CONTINUOUS
 62
     7
 10
98.27968090915768
 20
183.8726132772167
  0
VERTEX
  8
2
  6
CONTINUOUS
 62
     7
 10
98.29740023144767
 20
183.8323621124965
  0
VERTEX
  8
2
  6
CONTINUOUS
 62
     7
 10
98.3168721859684
 20
183.7929289585408
  0
VERTEX
  8
2
  6
CONTINUOUS
 62
     7
 10
98.33805911141593
 20
183.7543900842211
  0
VERTEX
  8
2
  6
CONTINUOUS
 62
     7
 10
98.36092002950852
 20
183.7168200287551
  0
VERTEX
  8
2
  6
CONTINUOUS
 62
     7
 10
98.38541072424394
 20
183.6802914575385
  0
VERTEX
  8
2
  6
CONTINUOUS
 62
     7
 10
98.41100464769197
 20
183.6454973053237
  0
VERTEX
  8
2
  6
CONTINUOUS
 62
     7
 10
98.43807722817587
 20
183.611840844848
  0
VERTEX
  8
2
  6
CONTINUOUS
 62
     7
 10
98.466577956871
 20
183.5793848683621
  0
VERTEX
  8
2
  6
CONTINUOUS
 62
     7
 10
98.49645366048242
 20
183.5481899283953
  0
VERTEX
  8
2
  6
CONTINUOUS
 62
     7
 10
98.52822763354793
 20
183.5177835922236
  0
VERTEX
  8
2
  6
CONTINUOUS
 62
     7
 10
98.56130778849237
 20
183.4888037027724
  0
VERTEX
  8
2
  6
CONTINUOUS
 62
     7
 10
98.59563014397435
 20
183.461306310934
  0
VERTEX
  8
2
  6
CONTINUOUS
 62
     7
 10
98.63112831607435
 20
183.4353446002563
  0
VERTEX
  8
2
  6
CONTINUOUS
 62
     7
 10
98.66773364668995
 20
183.4109687840798
  0
VERTEX
  8
2
  6
CONTINUOUS
 62
     7
 10
98.70469449431606
 20
183.3886175494702
  0
VERTEX
  8
2
  6
CONTINUOUS
 62
     7
 10
98.7425860671335
 20
183.3678832625225
  0
VERTEX
  8
2
  6
CONTINUOUS
 62
     7
 10
98.78133767151898
 20
183.3488046068214
  0
VERTEX
  8
2
  6
CONTINUOUS
 62
     7
 10
98.82087700930386
 20
183.3314171770705
  0
VERTEX
  8
2
  6
CONTINUOUS
 62
     7
 10
98.86186833377748
 20
183.3154847584954
  0
VERTEX
  8
2
  6
CONTINUOUS
 62
     7
 10
98.90352053542767
 20
183.3013700590144
  0
VERTEX
  8
2
  6
CONTINUOUS
 62
     7
 10
98.94575305345491
 20
183.2891003783001
  0
VERTEX
  8
2
  6
CONTINUOUS
 62
     7
 10
98.98848420465185
 20
183.278699447518
  0
VERTEX
  8
2
  6
CONTINUOUS
 62
     7
 10
99.03163134138954
 20
183.270187383427
  0
VERTEX
  8
2
  6
CONTINUOUS
 62
     7
 10
99.07433215919355
 20
183.2636818392776
  0
VERTEX
  8
2
  6
CONTINUOUS
 62
     7
 10
99.11727407587104
 20
183.2590263330889
  0
VERTEX
  8
2
  6
CONTINUOUS
 62
     7
 10
99.16037697546336
 20
183.2562295505547
  0
VERTEX
  8
2
  6
CONTINUOUS
 62
     7
 10
99.20356044166896
 20
183.2552967095818
  0
SEQEND
  8
2
  6
CONTINUOUS
 62
     7
  0
LINE
  8
2
  6
CONTINUOUS
 62
     7
 10
109.3535604416689
 20
183.2552967095818
 11
113.853560441669
 21
183.2552967095818
  0
ARC
  8
2
  6
CONTINUOUS
 62
     7
 10
113.853560441669
 20
181.7552967095818
 40
1.499999999999987
 50
359.9999999999989
 51
90.0000000000005
  0
LINE
  8
2
  6
CONTINUOUS
 62
     7
 10
109.3535604416689
 20
177.2552967095818
 11
109.3535604416689
 21
175.7552967095818
  0
LINE
  8
2
  6
CONTINUOUS
 62
     7
 10
109.3535604416689
 20
177.2552967095818
 11
111.3535604416689
 21
175.7552967095818
  0
LINE
  8
2
  6
CONTINUOUS
 62
     7
 10
111.3535604416689
 20
175.7552967095818
 11
111.3535604416689
 21
177.2552967095818
  0
LINE
  8
2
  6
CONTINUOUS
 62
     7
 10
111.3535604416689
 20
177.2552967095818
 11
113.353560441669
 21
175.7552967095818
  0
LINE
  8
2
  6
CONTINUOUS
 62
     7
 10
113.353560441669
 20
175.7552967095818
 11
113.353560441669
 21
177.2552967095818
  0
LINE
  8
2
  6
CONTINUOUS
 62
     7
 10
113.353560441669
 20
177.2552967095818
 11
115.353560441669
 21
175.7552967095818
  0
LINE
  8
2
  6
CONTINUOUS
 62
     7
 10
115.353560441669
 20
175.7552967095818
 11
115.353560441669
 21
174.2552967095818
  0
LINE
  8
2
  6
CONTINUOUS
 62
     7
 10
115.353560441669
 20
174.2552967095818
 11
109.3535604416689
 21
174.2552967095818
  0
LINE
  8
2
  6
CONTINUOUS
 62
     7
 10
106.3535604416689
 20
184.2552967095818
 11
111.3535604416689
 21
184.2552967095818
  0
ARC
  8
2
  6
CONTINUOUS
 62
     7
 10
111.3535604416689
 20
183.2552967095818
 40
1.000000000000001
 50
0.0
 51
90.0
  0
LINE
  8
2
  6
CONTINUOUS
 62
     7
 10
99.50178172301601
 20
184.2552967095818
 11
106.3535604416689
 21
184.2552967095818
  0
ARC
  8
2
  6
CONTINUOUS
 62
     7
 10
84.35356044166896
 20
188.1052967095818
 40
13.84999999999996
 50
180.0
 51
270.0
  0
LINE
  8
2
  6
CONTINUOUS
 62
     7
 10
99.20356044166894
 20
185.2552967095818
 11
99.20356044166893
 21
188.1052967095818
  0
ARC
  8
2
  6
CONTINUOUS
 62
     7
 10
84.85356044166896
 20
188.1052967095818
 40
14.34999999999996
 50
0.000000000000007
 51
180.0
  0
ARC
  8
2
  6
CONTINUOUS
 62
     7
 10
100.2035604416689
 20
185.2552967095818
 40
1.000000000000001
 50
180.0000000000004
 51
270.0
  0
ENDBLK
  8
0
  0
BLOCK
  8
0
  2
D_FRAME_VIEW_2416
 70
     0
 10
0.0
 20
0.0
  0
LINE
  8
2
  6
CONTINUOUS
 62
     7
 10
71.50356044166898
 20
235.0902709629543
 11
98.20356044166893
 21
235.0902709629543
  0
ARC
  8
2
  6
CONTINUOUS
 62
     7
 10
74.20356044166819
 20
228.0902709629542
 40
25.00000000000072
 50
343.7397952916886
 51
16.26020470831145
  0
LINE
  8
2
  6
CONTINUOUS
 62
     7
 10
71.50356044166897
 20
221.0902709629542
 11
98.20356044166894
 21
221.0902709629542
  0
ARC
  8
2
  6
CONTINUOUS
 62
     7
 10
95.50356044166978
 20
228.0902709629542
 40
25.00000000000078
 50
163.7397952916886
 51
196.2602047083114
  0
ARC
  8
2
  6
CONTINUOUS
 62
     7
 10
96.7035604416689
 20
236.5902709629542
 40
1.500000000000057
 50
0.0000000000021032
 51
89.9999999999979
  0
LINE
  8
2
  6
CONTINUOUS
 62
     7
 10
73.32340958843965
 20
218.0902709629542
 11
73.00641874716634
 21
218.0902709629542
  0
ARC
  8
2
  6
CONTINUOUS
 62
     7
 10
96.70356044166897
 20
219.5902709629542
 40
1.499999999999974
 50
269.9999999999994
 51
0.0000000000010232
  0
LINE
  8
2
  6
CONTINUOUS
 62
     7
 10
98.20356044166896
 20
219.5902709629542
 11
98.20356044166896
 21
221.0902709629542
  0
LINE
  8
2
  6
CONTINUOUS
 62
     7
 10
98.20356044166896
 20
235.0902709629543
 11
98.20356044166896
 21
236.5902709629543
  0
LINE
  8
2
  6
CONTINUOUS
 62
     7
 10
73.00356044166898
 20
218.0902709629542
 11
96.70356044166896
 21
218.0902709629542
  0
LINE
  8
2
  6
CONTINUOUS
 62
     7
 10
73.00356044166898
 20
238.0902709629543
 11
96.70356044166896
 21
238.0902709629543
  0
LINE
  8
2
  6
CONTINUOUS
 62
     7
 10
98.94258265454405
 20
235.0896702913183
 11
98.20477696576856
 21
235.2412030812837
  0
LINE
  8
2
  6
CONTINUOUS
 62
     7
 10
98.94258265454407
 20
221.0908716345902
 11
98.2512961755414
 21
220.922176823879
  0
LINE
  8
2
  6
CONTINUOUS
 62
     7
 10
98.2512961755414
 20
220.922176823879
 11
98.20356044166896
 21
220.9535490723806
  0
LINE
  8
2
  6
CONTINUOUS
 62
     7
 10
98.94258265454407
 20
221.0908716345902
 11
99.20356044166896
 21
221.0902709629542
  0
LINE
  8
2
  6
CONTINUOUS
 62
     7
 10
99.20356044166896
 20
235.0902709629543
 11
98.94258265454405
 21
235.0896702913183
  0
LINE
  8
2
  6
CONTINUOUS
 62
     7
 10
99.20356044166896
 20
218.0902709629542
 11
96.7181716479233
 21
218.0902709629542
  0
LINE
  8
2
  6
CONTINUOUS
 62
     7
 10
96.7181716479233
 20
218.0902709629542
 11
96.70356044166896
 21
218.0902709629542
  0
LINE
  8
2
  6
CONTINUOUS
 62
     7
 10
96.70356044166896
 20
238.0902709629543
 11
96.71870649956462
 21
238.0902709629543
  0
LINE
  8
2
  6
CONTINUOUS
 62
     7
 10
96.71870649956462
 20
238.0902709629543
 11
99.20356044166896
 21
238.0902709629543
  0
LINE
  8
2
  6
CONTINUOUS
 62
     7
 10
106.853560441669
 20
226.0902709629542
 11
105.353560441669
 21
226.0902709629542
  0
ARC
  8
2
  6
CONTINUOUS
 62
     7
 10
106.853560441669
 20
228.0902709629542
 40
2.000000000000002
 50
270.0000000000001
 51
90.0
  0
LINE
  8
2
  6
CONTINUOUS
 62
     7
 10
105.353560441669
 20
230.0902709629542
 11
106.853560441669
 21
230.0902709629542
  0
ARC
  8
2
  6
CONTINUOUS
 62
     7
 10
105.353560441669
 20
228.0902709629542
 40
2.000000000000002
 50
90.0
 51
270.0000000000002
  0
ARC
  8
2
  6
CONTINUOUS
 62
     7
 10
106.3535604416689
 20
229.0902709629542
 40
6.000000000000005
 50
0.0
 51
90.0
  0
ARC
  8
2
  6
CONTINUOUS
 62
     7
 10
106.3535604416689
 20
227.0902709629542
 40
6.000000000000005
 50
269.9999999999998
 51
0.0
  0
LINE
  8
2
  6
CONTINUOUS
 62
     7
 10
106.3535604416689
 20
235.0902709629543
 11
99.20356044166896
 21
235.0902709629543
  0
LINE
  8
2
  6
CONTINUOUS
 62
     7
 10
112.353560441669
 20
227.0902709629542
 11
112.353560441669
 21
229.0902709629542
  0
LINE
  8
2
  6
CONTINUOUS
 62
     7
 10
99.20356044166896
 20
221.0902709629542
 11
106.3535604416689
 21
221.0902709629542
  0
LINE
  8
2
  6
CONTINUOUS
 62
     7
 10
115.353560441669
 20
232.0902709629543
 11
115.353560441669
 21
224.0902709629542
  0
LINE
  8
2
  6
CONTINUOUS
 62
     7
 10
109.3535604416689
 20
218.0902709629542
 11
99.20356044166896
 21
218.0902709629542
  0
LINE
  8
2
  6
CONTINUOUS
 62
     7
 10
99.20356044166896
 20
238.0902709629543
 11
109.3535604416689
 21
238.0902709629543
  0
ARC
  8
2
  6
CONTINUOUS
 62
     7
 10
109.3535604416689
 20
232.0902709629543
 40
6.000000000000005
 50
0.0
 51
89.9999999999999
  0
ARC
  8
2
  6
CONTINUOUS
 62
     7
 10
109.3535604416689
 20
224.0902709629542
 40
6.000000000000019
 50
270.0000000000001
 51
0.0
  0
LINE
  8
2
  6
CONTINUOUS
 62
     7
 10
108.4148099412686
 20
226.8402709629542
 11
103.7923109420694
 21
226.8402709629542
  0
LINE
  8
2
  6
CONTINUOUS
 62
     7
 10
108.4148099412686
 20
229.3402709629542
 11
103.7923109420694
 21
229.3402709629542
  0
LINE
  8
2
  6
CONTINUOUS
 62
     7
 10
107.3535604416689
 20
226.8402709629542
 11
107.3535604416689
 21
229.3402709629542
  0
LINE
  8
2
  6
CONTINUOUS
 62
     7
 10
105.3535604416689
 20
226.8402709629542
 11
105.3535604416689
 21
226.852736953532
  0
POLYLINE
  8
2
  6
CONTINUOUS
 62
     7
 66
     1
  0
VERTEX
  8
2
  6
CONTINUOUS
 62
     7
 10
105.353560441669
 20
226.852736953532
  0
VERTEX
  8
2
  6
CONTINUOUS
 62
     7
 10
105.5923653438242
 20
226.8600305969083
  0
VERTEX
  8
2
  6
CONTINUOUS
 62
     7
 10
105.8253595945439
 20
226.912783362076
  0
VERTEX
  8
2
  6
CONTINUOUS
 62
     7
 10
106.0439337266766
 20
227.0090459597395
  0
VERTEX
  8
2
  6
CONTINUOUS
 62
     7
 10
106.2400111168505
 20
227.1452613507446
  0
VERTEX
  8
2
  6
CONTINUOUS
 62
     7
 10
106.4063464281328
 20
227.3163961837068
  0
VERTEX
  8
2
  6
CONTINUOUS
 62
     7
 10
106.536793335478
 20
227.5161267844654
  0
VERTEX
  8
2
  6
CONTINUOUS
 62
     7
 10
106.6265316411329
 20
227.7370728247885
  0
VERTEX
  8
2
  6
CONTINUOUS
 62
     7
 10
106.6722453877621
 20
227.9710700359418
  0
VERTEX
  8
2
  6
CONTINUOUS
 62
     7
 10
106.6722453877621
 20
228.2094718899667
  0
VERTEX
  8
2
  6
CONTINUOUS
 62
     7
 10
106.6265316411329
 20
228.4434691011199
  0
VERTEX
  8
2
  6
CONTINUOUS
 62
     7
 10
106.536793335478
 20
228.6644151414431
  0
VERTEX
  8
2
  6
CONTINUOUS
 62
     7
 10
106.4063464281328
 20
228.8641457422016
  0
VERTEX
  8
2
  6
CONTINUOUS
 62
     7
 10
106.2400111168505
 20
229.0352805751639
  0
VERTEX
  8
2
  6
CONTINUOUS
 62
     7
 10
106.0439337266766
 20
229.1714959661689
  0
VERTEX
  8
2
  6
CONTINUOUS
 62
     7
 10
105.8253595945439
 20
229.2677585638324
  0
VERTEX
  8
2
  6
CONTINUOUS
 62
     7
 10
105.5923653438241
 20
229.3205113290001
  0
VERTEX
  8
2
  6
CONTINUOUS
 62
     7
 10
105.3535604416689
 20
229.3278049723764
  0
SEQEND
  8
2
  6
CONTINUOUS
 62
     7
  0
LINE
  8
2
  6
CONTINUOUS
 62
     7
 10
105.3535604416689
 20
229.3278049723764
 11
105.3535604416689
 21
229.3402709629542
  0
ARC
  8
2
  6
CONTINUOUS
 62
     7
 10
73.00664122778497
 20
236.5885190381047
 40
1.501752095880089
 50
89.97265516530001
 51
179.9331594589092
  0
ARC
  8
2
  6
CONTINUOUS
 62
     7
 10
73.00654726387705
 20
219.5919287693067
 40
1.501658025181314
 50
180.0632536336169
 51
270.0309317422311
  0
LINE
  8
2
  6
CONTINUOUS
 62
     7
 10
71.50356044166895
 20
221.0902709629542
 11
71.50356044166895
 21
219.5902709629542
  0
LINE
  8
2
  6
CONTINUOUS
 62
     7
 10
71.50356044166895
 20
236.5902709629542
 11
71.50356044166895
 21
235.0902709629542
  0
ENDBLK
  8
0
  0
BLOCK
  8
0
  2
D_FRAME_VIEW_2501
 70
     0
 10
0.0
 20
0.0
  0
LINE
  8
2
  6
CONTINUOUS
 62
     7
 10
137.3287586389352
 20
183.2552967095818
 11
145.3287586389352
 21
183.2552967095818
  0
LINE
  8
2
  6
CONTINUOUS
 62
     7
 10
151.3287586389353
 20
180.2552967095818
 11
149.8008945939348
 21
180.2552967095818
  0
POLYLINE
  8
2
  6
CONTINUOUS
 62
     7
 66
     1
  0
VERTEX
  8
2
  6
CONTINUOUS
 62
     7
 10
145.3287586389352
 20
179.0552967095818
  0
VERTEX
  8
2
  6
CONTINUOUS
 62
     7
 10
146.5810857826341
 20
179.1345860396948
  0
VERTEX
  8
2
  6
CONTINUOUS
 62
     7
 10
147.7782483817184
 20
179.3689613645508
  0
VERTEX
  8
2
  6
CONTINUOUS
 62
     7
 10
148.8675118692338
 20
179.7480985383147
  0
VERTEX
  8
2
  6
CONTINUOUS
 62
     7
 10
149.8008945939348
 20
180.2552967095818
  0
SEQEND
  8
2
  6
CONTINUOUS
 62
     7
  0
LINE
  8
2
  6
CONTINUOUS
 62
     7
 10
151.3287586389353
 20
181.7552967095818
 11
151.3287586389353
 21
180.2552967095818
  0
LINE
  8
2
  6
CONTINUOUS
 62
     7
 10
137.3287586389352
 20
179.0552967095818
 11
145.3287586389352
 21
179.0552967095818
  0
POLYLINE
  8
2
  6
CONTINUOUS
 62
     7
 66
     1
  0
VERTEX
  8
2
  6
CONTINUOUS
 62
     7
 10
132.8566226839357
 20
180.2552967095818
  0
VERTEX
  8
2
  6
CONTINUOUS
 62
     7
 10
133.7900054086367
 20
179.7480985383147
  0
VERTEX
  8
2
  6
CONTINUOUS
 62
     7
 10
134.879268896152
 20
179.3689613645508
  0
VERTEX
  8
2
  6
CONTINUOUS
 62
     7
 10
136.0764314952363
 20
179.1345860396948
  0
VERTEX
  8
2
  6
CONTINUOUS
 62
     7
 10
137.3287586389352
 20
179.0552967095818
  0
SEQEND
  8
2
  6
CONTINUOUS
 62
     7
  0
LINE
  8
2
  6
CONTINUOUS
 62
     7
 10
132.8566226839357
 20
180.2552967095818
 11
131.3287586389352
 21
180.2552967095818
  0
LINE
  8
2
  6
CONTINUOUS
 62
     7
 10
131.3287586389352
 20
180.2552967095818
 11
131.3287586389352
 21
181.7552967095818
  0
LINE
  8
2
  6
CONTINUOUS
 62
     7
 10
145.3287586389352
 20
183.2552967095818
 11
149.8287586389352
 21
183.2552967095818
  0
ARC
  8
2
  6
CONTINUOUS
 62
     7
 10
149.8287586389353
 20
181.7552967095818
 40
1.499999999999974
 50
359.9999999999989
 51
90.00000000000102
  0
ARC
  8
2
  6
CONTINUOUS
 62
     7
 10
132.8287586389353
 20
181.7552967095818
 40
1.500000000000029
 50
90.00000000000102
 51
179.999999999999
  0
LINE
  8
2
  6
CONTINUOUS
 62
     7
 10
132.8287586389352
 20
183.2552967095818
 11
137.3287586389352
 21
183.2552967095818
  0
LINE
  8
2
  6
CONTINUOUS
 62
     7
 10
151.3287586389353
 20
174.2552967095818
 11
145.3287586389352
 21
174.2552967095818
  0
POLYLINE
  8
2
  6
CONTINUOUS
 62
     7
 66
     1
  0
VERTEX
  8
2
  6
CONTINUOUS
 62
     7
 10
145.3287586389352
 20
175.7552967095818
  0
VERTEX
  8
2
  6
CONTINUOUS
 62
     7
 10
146.5810857826341
 20
175.8544083722231
  0
VERTEX
  8
2
  6
CONTINUOUS
 62
     7
 10
147.7782483817184
 20
176.147377528293
  0
VERTEX
  8
2
  6
CONTINUOUS
 62
     7
 10
148.8675118692338
 20
176.6212989954979
  0
VERTEX
  8
2
  6
CONTINUOUS
 62
     7
 10
149.8008945939348
 20
177.2552967095818
  0
SEQEND
  8
2
  6
CONTINUOUS
 62
     7
  0
LINE
  8
2
  6
CONTINUOUS
 62
     7
 10
149.8008945939348
 20
177.2552967095818
 11
149.8008945939348
 21
175.7552967095818
  0
POLYLINE
  8
2
  6
CONTINUOUS
 62
     7
 66
     1
  0
VERTEX
  8
2
  6
CONTINUOUS
 62
     7
 10
149.8008945939348
 20
175.7552967095818
  0
VERTEX
  8
2
  6
CONTINUOUS
 62
     7
 10
150.4910362991036
 20
176.4618549151119
  0
VERTEX
  8
2
  6
CONTINUOUS
 62
     7
 10
150.9856128884276
 20
177.2552967095818
  0
SEQEND
  8
2
  6
CONTINUOUS
 62
     7
  0
LINE
  8
2
  6
CONTINUOUS
 62
     7
 10
150.9856128884277
 20
177.2552967095818
 11
150.9856128884277
 21
175.7552967095818
  0
POLYLINE
  8
2
  6
CONTINUOUS
 62
     7
 66
     1
  0
VERTEX
  8
2
  6
CONTINUOUS
 62
     7
 10
150.9856128884276
 20
175.7552967095818
  0
VERTEX
  8
2
  6
CONTINUOUS
 62
     7
 10
151.2423499968561
 20
176.4943378053158
  0
VERTEX
  8
2
  6
CONTINUOUS
 62
     7
 10
151.3287586389352
 20
177.2552967095818
  0
SEQEND
  8
2
  6
CONTINUOUS
 62
     7
  0
LINE
  8
2
  6
CONTINUOUS
 62
     7
 10
151.3287586389353
 20
177.2552967095818
 11
151.3287586389353
 21
175.7552967095818
  0
LINE
  8
2
  6
CONTINUOUS
 62
     7
 10
151.3287586389353
 20
175.7552967095818
 11
151.3287586389353
 21
174.2552967095818
  0
LINE
  8
2
  6
CONTINUOUS
 62
     7
 10
131.3287586389352
 20
174.2552967095818
 11
131.3287586389352
 21
175.7552967095818
  0
LINE
  8
2
  6
CONTINUOUS
 62
     7
 10
131.3287586389352
 20
177.2552967095818
 11
131.3287586389352
 21
175.7552967095818
  0
POLYLINE
  8
2
  6
CONTINUOUS
 62
     7
 66
     1
  0
VERTEX
  8
2
  6
CONTINUOUS
 62
     7
 10
131.3287586389352
 20
177.2552967095818
  0
VERTEX
  8
2
  6
CONTINUOUS
 62
     7
 10
131.4151672810143
 20
176.4943378053159
  0
VERTEX
  8
2
  6
CONTINUOUS
 62
     7
 10
131.6719043894428
 20
175.7552967095818
  0
SEQEND
  8
2
  6
CONTINUOUS
 62
     7
  0
LINE
  8
2
  6
CONTINUOUS
 62
     7
 10
131.6719043894429
 20
175.7552967095818
 11
131.6719043894429
 21
177.2552967095818
  0
POLYLINE
  8
2
  6
CONTINUOUS
 62
     7
 66
     1
  0
VERTEX
  8
2
  6
CONTINUOUS
 62
     7
 10
131.6719043894429
 20
177.2552967095818
  0
VERTEX
  8
2
  6
CONTINUOUS
 62
     7
 10
132.1664809787669
 20
176.4618549151119
  0
VERTEX
  8
2
  6
CONTINUOUS
 62
     7
 10
132.8566226839357
 20
175.7552967095818
  0
SEQEND
  8
2
  6
CONTINUOUS
 62
     7
  0
LINE
  8
2
  6
CONTINUOUS
 62
     7
 10
132.8566226839357
 20
175.7552967095818
 11
132.8566226839357
 21
177.2552967095818
  0
POLYLINE
  8
2
  6
CONTINUOUS
 62
     7
 66
     1
  0
VERTEX
  8
2
  6
CONTINUOUS
 62
     7
 10
132.8566226839357
 20
177.2552967095818
  0
VERTEX
  8
2
  6
CONTINUOUS
 62
     7
 10
133.7900054086367
 20
176.6212989954979
  0
VERTEX
  8
2
  6
CONTINUOUS
 62
     7
 10
134.879268896152
 20
176.147377528293
  0
VERTEX
  8
2
  6
CONTINUOUS
 62
     7
 10
136.0764314952363
 20
175.8544083722231
  0
VERTEX
  8
2
  6
CONTINUOUS
 62
     7
 10
137.3287586389352
 20
175.7552967095818
  0
SEQEND
  8
2
  6
CONTINUOUS
 62
     7
  0
LINE
  8
2
  6
CONTINUOUS
 62
     7
 10
137.3287586389352
 20
174.2552967095818
 11
131.3287586389352
 21
174.2552967095818
  0
LINE
  8
2
  6
CONTINUOUS
 62
     7
 10
137.3287586389352
 20
175.7552967095818
 11
145.3287586389352
 21
175.7552967095818
  0
LINE
  8
2
  6
CONTINUOUS
 62
     7
 10
132.8566226839357
 20
177.2552967095818
 11
149.8008945939348
 21
177.2552967095818
  0
LINE
  8
2
  6
CONTINUOUS
 62
     7
 10
137.3287586389352
 20
174.2552967095818
 11
145.3287586389352
 21
174.2552967095818
  0
LINE
  8
2
  6
CONTINUOUS
 62
     7
 10
131.6719043894429
 20
177.2552967095818
 11
132.8566226839357
 21
177.2552967095818
  0
LINE
  8
2
  6
CONTINUOUS
 62
     7
 10
149.8008945939348
 20
177.2552967095818
 11
150.9856128884276
 21
177.2552967095818
  0
LINE
  8
2
  6
CONTINUOUS
 62
     7
 10
142.3287586389352
 20
184.2552967095818
 11
147.3287586389352
 21
184.2552967095818
  0
ARC
  8
2
  6
CONTINUOUS
 62
     7
 10
147.3287586389352
 20
183.2552967095818
 40
1.000000000000001
 50
359.9999999999997
 51
89.99999999999972
  0
ARC
  8
2
  6
CONTINUOUS
 62
     7
 10
135.3287586389352
 20
183.2552967095818
 40
1.000000000000001
 50
90.0
 51
180.0
  0
LINE
  8
2
  6
CONTINUOUS
 62
     7
 10
135.3287586389352
 20
184.2552967095818
 11
140.3287586389352
 21
184.2552967095818
  0
LINE
  8
2
  6
CONTINUOUS
 62
     7
 10
140.3287586389352
 20
184.2552967095818
 11
142.3287586389352
 21
184.2552967095818
  0
LINE
  8
2
  6
CONTINUOUS
 62
     7
 10
131.3287586389352
 20
177.2552967095818
 11
131.6719043894428
 21
177.2552967095818
  0
LINE
  8
2
  6
CONTINUOUS
 62
     7
 10
150.9856128884277
 20
177.2552967095818
 11
151.3287586389353
 21
177.2552967095818
  0
LINE
  8
2
  6
CONTINUOUS
 62
     7
 10
148.3281579672993
 20
183.2899519035008
 11
148.3516906053186
 21
183.3939272803362
  0
ARC
  8
2
  6
CONTINUOUS
 62
     7
 10
146.0064024738619
 20
184.3069967378319
 40
2.516758282744615
 50
338.7280017249793
 51
351.4977305321729
  0
POLYLINE
  8
2
  6
CONTINUOUS
 62
     7
 66
     1
  0
VERTEX
  8
2
  6
CONTINUOUS
 62
     7
 10
148.4955016029659
 20
183.9348975853774
  0
VERTEX
  8
2
  6
CONTINUOUS
 62
     7
 10
148.4996282874752
 20
184.0586379270683
  0
VERTEX
  8
2
  6
CONTINUOUS
 62
     7
 10
148.4852227819611
 20
184.1814800700058
  0
VERTEX
  8
2
  6
CONTINUOUS
 62
     7
 10
148.465480529514
 20
184.2552967095818
  0
SEQEND
  8
2
  6
CONTINUOUS
 62
     7
  0
LINE
  8
2
  6
CONTINUOUS
 62
     7
 10
148.3287586389352
 20
184.7920465265657
 11
148.4654805295139
 21
184.2552967095818
  0
LINE
  8
2
  6
CONTINUOUS
 62
     7
 10
134.3293593105712
 20
183.2899519035008
 11
134.3058266725516
 21
183.3939272803369
  0
ARC
  8
2
  6
CONTINUOUS
 62
     7
 10
136.6511148046965
 20
184.3069967380652
 40
2.516758283470222
 50
188.5022694707564
 51
201.2719982742711
  0
POLYLINE
  8
2
  6
CONTINUOUS
 62
     7
 66
     1
  0
VERTEX
  8
2
  6
CONTINUOUS
 62
     7
 10
134.1620156748939
 20
183.9348975853761
  0
VERTEX
  8
2
  6
CONTINUOUS
 62
     7
 10
134.1578889903953
 20
184.0586379270683
  0
VERTEX
  8
2
  6
CONTINUOUS
 62
     7
 10
134.1722944959095
 20
184.1814800700058
  0
VERTEX
  8
2
  6
CONTINUOUS
 62
     7
 10
134.1920367483565
 20
184.2552967095818
  0
SEQEND
  8
2
  6
CONTINUOUS
 62
     7
  0
LINE
  8
2
  6
CONTINUOUS
 62
     7
 10
134.1920367483565
 20
184.2552967095818
 11
134.3287586389353
 21
184.7920465265657
  0
LINE
  8
2
  6
CONTINUOUS
 62
     7
 10
151.3287586389353
 20
184.2552967095818
 11
151.3287586389353
 21
181.7699079158357
  0
LINE
  8
2
  6
CONTINUOUS
 62
     7
 10
151.3287586389353
 20
181.7699079158357
 11
151.3287586389353
 21
181.7552967095818
  0
LINE
  8
2
  6
CONTINUOUS
 62
     7
 10
131.3287586389352
 20
181.7552967095818
 11
131.3287586389352
 21
181.770442767477
  0
LINE
  8
2
  6
CONTINUOUS
 62
     7
 10
131.3287586389352
 20
181.770442767477
 11
131.3287586389352
 21
184.2552967095818
  0
LINE
  8
2
  6
CONTINUOUS
 62
     7
 10
148.3287586389352
 20
188.1052967095818
 11
148.3287586389353
 21
184.7920465265657
  0
LINE
  8
2
  6
CONTINUOUS
 62
     7
 10
134.3287586389353
 20
188.1052967095818
 11
134.3287586389353
 21
184.7920465265657
  0
LINE
  8
2
  6
CONTINUOUS
 62
     7
 10
148.3287586389352
 20
201.4552967095817
 11
148.3287586389352
 21
188.1052967095818
  0
LINE
  8
2
  6
CONTINUOUS
 62
     7
 10
134.3287586389352
 20
201.4552967095817
 11
134.3287586389352
 21
188.1052967095818
  0
LINE
  8
2
  6
CONTINUOUS
 62
     7
 10
131.3287586389352
 20
188.1052967095818
 11
131.3287586389352
 21
184.2552967095818
  0
LINE
  8
2
  6
CONTINUOUS
 62
     7
 10
151.3287586389353
 20
188.1052967095818
 11
151.3287586389353
 21
184.2552967095818
  0
LINE
  8
2
  6
CONTINUOUS
 62
     7
 10
131.3287586389352
 20
199.9024601409742
 11
131.3287586389352
 21
188.1052967095818
  0
LINE
  8
2
  6
CONTINUOUS
 62
     7
 10
151.3287586389353
 20
199.9024601409742
 11
151.3287586389353
 21
188.1052967095818
  0
LINE
  8
2
  6
CONTINUOUS
 62
     7
 10
151.3287586389353
 20
180.2552967095818
 11
151.3287586389353
 21
177.2552967095818
  0
LINE
  8
2
  6
CONTINUOUS
 62
     7
 10
131.3287586389352
 20
180.2552967095818
 11
131.3287586389352
 21
177.2552967095818
  0
ARC
  8
2
  6
CONTINUOUS
 62
     7
 10
141.3287586389352
 20
177.455296709581
 40
25.00000000000077
 50
73.73979529168855
 51
106.2602047083115
  0
LINE
  8
2
  6
CONTINUOUS
 62
     7
 10
149.8287586389352
 20
201.4552967095818
 11
148.3287586389352
 21
201.4552967095818
  0
LINE
  8
2
  6
CONTINUOUS
 62
     7
 10
134.3287586389352
 20
201.4552967095818
 11
132.8287586389352
 21
201.4552967095818
  0
ARC
  8
2
  6
CONTINUOUS
 62
     7
 10
132.8542133311946
 20
199.9291055935624
 40
1.525704663147373
 50
90.95596096628853
 51
181.0371773873619
  0
ARC
  8
2
  6
CONTINUOUS
 62
     7
 10
149.8033039466757
 20
199.9291055935621
 40
1.525704663147543
 50
358.9628226126248
 51
89.0440390337053
  0
ENDBLK
  8
0
  0
ENDSEC
  0
SECTION
  2
ENTITIES
  0
LINE
  8
2
  6
CENTER
 62
     1
 10
68.503560441669
 20
188.1052967095818
 11
101.2035604416689
 21
188.1052967095818
  0
LINE
  8
2
  6
CENTER
 62
     1
 10
84.85356044166896
 20
171.7552967095818
 11
84.85356044166896
 21
204.4552967095817
  0
TEXT
  8
2
  6
CONTINUOUS
 62
     7
 10
136.6227763877508
 20
166.5243513082693
 40
3.0
  1
KTK-16
  0
LINE
  8
2
  6
CENTER
 62
     1
 10
141.3287586389352
 20
171.2552967095818
 11
141.3287586389352
 21
205.4552967095818
  0
LINE
  8
2
  6
CENTER
 62
     1
 10
67.50356044166898
 20
228.0902709629542
 11
118.353560441669
 21
228.0902709629542
  0
LINE
  8
2
  6
CENTER
 62
     1
 10
85.14751893192438
 20
215.0902707441254
 11
85.14751893192438
 21
241.0902711339848
  0
INSERT
  8
2
  6
CONTINUOUS
 62
     7
  2
D_FRAME_VIEW_2324
 10
0.0
 20
0.0
 30
0.0
  0
LINE
  8
2
  6
CONTINUOUS
 62
     7
 10
84.35356044166896
 20
174.2552967095818
 11
109.3535604416689
 21
174.2552967095818
  0
INSERT
  8
2
  6
CONTINUOUS
 62
     7
  2
D_FRAME_VIEW_2416
 10
0.0
 20
0.0
 30
0.0
  0
INSERT
  8
2
  6
CONTINUOUS
 62
     7
  2
D_FRAME_VIEW_2501
 10
0.0
 20
0.0
 30
0.0
  0
LINE
  8
2
  6
CENTER
 62
     1
 10
106.853560441669
 20
224.0902709629542
 11
106.853560441669
 21
232.0902709629542
  0
ENDSEC
  0
EOF
