  0
SECTION
  2
HEADER
  9
$ACADVER
  1
AC1004
  9
$INSBASE
 10
0.0
 20
0.0
  9
$EXTMIN
 10
48.75383355876882
 20
72.77145214810727
  9
$EXTMAX
 10
116.3538335587688
 20
186.7219602264717
  9
$LIMMIN
 10
0.0
 20
0.0
  9
$LIMMAX
 10
12.0
 20
9.0
  9
$ORTHOMODE
 70
     0
  9
$REGENMODE
 70
     1
  9
$FILLMODE
 70
     1
  9
$QTEXTMODE
 70
     0
  9
$DRAGMODE
 70
     2
  9
$LTSCALE
 40
1.0
  9
$OSMODE
 70
    37
  9
$ATTMODE
 70
     1
  9
$TEXTSIZE
 40
0.2
  9
$TRACEWID
 40
0.05
  9
$TEXTSTYLE
  7
STANDARD
  9
$CLAYER
  8
0
  9
$CELTYPE
  6
BYLAYER
  9
$CECOLOR
 62
   256
  9
$DIMSCALE
 40
1.0
  9
$DIMASZ
 40
3.0
  9
$DIMEXO
 40
0.0625
  9
$DIMDLI
 40
0.38
  9
$DIMRND
 40
0.0
  9
$DIMDLE
 40
0.0
  9
$DIMEXE
 40
1.5
  9
$DIMTP
 40
0.0
  9
$DIMTM
 40
0.0
  9
$DIMTXT
 40
3.0
  9
$DIMCEN
 40
0.09
  9
$DIMTSZ
 40
0.0
  9
$DIMTOL
 70
     0
  9
$DIMLIM
 70
     0
  9
$DIMTIH
 70
     1
  9
$DIMTOH
 70
     1
  9
$DIMSE1
 70
     0
  9
$DIMSE2
 70
     0
  9
$DIMTAD
 70
     1
  9
$DIMZIN
 70
     0
  9
$DIMBLK
  1

  9
$DIMASO
 70
     1
  9
$DIMSHO
 70
     1
  9
$DIMPOST
  1

  9
$DIMAPOST
  1

  9
$DIMALT
 70
     0
  9
$DIMALTD
 70
     2
  9
$DIMALTF
 40
25.4
  9
$DIMLFAC
 40
1.0
  9
$DIMTOFL
 70
     0
  9
$DIMTVP
 40
0.0
  9
$DIMTIX
 70
     0
  9
$DIMSOXD
 70
     0
  9
$DIMSAH
 70
     0
  9
$DIMBLK1
  1

  9
$DIMBLK2
  1

  9
$LUNITS
 70
     2
  9
$LUPREC
 70
     4
  9
$SKETCHINC
 40
0.1
  9
$FILLETRAD
 40
0.5
  9
$AUNITS
 70
     0
  9
$AUPREC
 70
     0
  9
$MENU
  1
.
  9
$ELEVATION
 40
0.0
  9
$THICKNESS
 40
0.0
  9
$LIMCHECK
 70
     0
  9
$CHAMFERA
 40
0.0
  9
$CHAMFERB
 40
0.0
  9
$SKPOLY
 70
     0
  9
$TDCREATE
 40
2459270.584304838
  9
$TDUPDATE
 40
2459270.584305139
  9
$TDINDWG
 40
0.0000000116
  9
$TDUSRTIMER
 40
0.0000000116
  9
$USRTIMER
 70
     1
  9
$ANGBASE
 50
0.0
  9
$ANGDIR
 70
     0
  9
$PDMODE
 70
     0
  9
$PDSIZE
 40
0.0
  9
$PLINEWID
 40
0.0
  9
$COORDS
 70
     1
  9
$SPLFRAME
 70
     0
  9
$SPLINETYPE
 70
     6
  9
$SPLINESEGS
 70
     8
  9
$ATTDIA
 70
     0
  9
$ATTREQ
 70
     1
  9
$SURFTAB1
 70
     6
  9
$SURFTAB2
 70
     6
  9
$SURFTYPE
 70
     6
  9
$SURFU
 70
     6
  9
$SURFV
 70
     6
  9
$UCSNAME
  2

  9
$UCSORG
 10
0.0
 20
0.0
 30
0.0
  9
$UCSXDIR
 10
1.0
 20
0.0
 30
0.0
  9
$UCSYDIR
 10
0.0
 20
1.0
 30
0.0
  9
$USERI1
 70
     0
  9
$USERI2
 70
     0
  9
$USERI3
 70
     0
  9
$USERI4
 70
     0
  9
$USERI5
 70
     0
  9
$USERR1
 40
0.0
  9
$USERR2
 40
0.0
  9
$USERR3
 40
0.0
  9
$USERR4
 40
0.0
  9
$USERR5
 40
0.0
  9
$WORLDVIEW
 70
     1
  0
ENDSEC
  0
SECTION
  2
TABLES
  0
TABLE
  2
LTYPE
 70
     1
  0
LTYPE
  2
CONTINUOUS
 70
     0
  3
Solid line
 72
    65
 73
     0
 40
0.0
  0
ENDTAB
  0
TABLE
  2
LAYER
 70
     2
  0
LAYER
  2
0
 70
     0
 62
     7
  6
CONTINUOUS
  0
LAYER
  2
2
 70
     0
 62
     7
  6
CONTINUOUS
  0
ENDTAB
  0
TABLE
  2
STYLE
 70
     2
  0
STYLE
  2
STANDARD
 70
     0
 40
0.0
 41
1.0
 50
0.0
 71
     0
 42
0.2
  3
txt
  4

  0
STYLE
  2
ＭＳ_ゴシック
 70
     0
 40
0.0
 41
1.0
 50
0.0
 71
     0
 42
0.2
  3
ＭＳ ゴシック.shx
  4

  0
ENDTAB
  0
TABLE
  2
VIEW
 70
     0
  0
ENDTAB
  0
ENDSEC
  0
SECTION
  2
BLOCKS
  0
ENDSEC
  0
SECTION
  2
ENTITIES
  0
ARC
  8
2
  6
CONTINUOUS
 62
     7
 10
73.1334687393382
 20
157.747640147488
 40
1.521513634644641
 50
275.8981198926224
 51
356.8099859408285
  0
LINE
  8
2
  6
CONTINUOUS
 62
     7
 10
73.28981932294238
 20
156.2341811175119
 11
73.15382011611725
 21
156.2219602311945
  0
LINE
  8
2
  6
CONTINUOUS
 62
     7
 10
68.1538335587688
 20
154.7219602264717
 11
68.15460906316115
 21
154.6826251468546
  0
LINE
  8
2
  6
CONTINUOUS
 62
     7
 10
68.15460906316115
 20
154.6826251468546
 11
68.15693026126198
 21
154.6433430796158
  0
LINE
  8
2
  6
CONTINUOUS
 62
     7
 10
68.15693026126198
 20
154.6433430796158
 11
68.16078918045694
 21
154.6042195678052
  0
LINE
  8
2
  6
CONTINUOUS
 62
     7
 10
68.16078918045694
 20
154.6042195678052
 11
68.1662823013745
 21
154.5646653094705
  0
LINE
  8
2
  6
CONTINUOUS
 62
     7
 10
68.1662823013745
 20
154.5646653094705
 11
68.17334168063357
 21
154.5254006250505
  0
LINE
  8
2
  6
CONTINUOUS
 62
     7
 10
68.17334168063357
 20
154.5254006250505
 11
68.18210554022092
 21
154.4858642553102
  0
LINE
  8
2
  6
CONTINUOUS
 62
     7
 10
68.18210554022092
 20
154.4858642553102
 11
68.1924502108276
 21
154.4467535690756
  0
LINE
  8
2
  6
CONTINUOUS
 62
     7
 10
68.1924502108276
 20
154.4467535690756
 11
68.20433968114334
 21
154.4081746685635
  0
LINE
  8
2
  6
CONTINUOUS
 62
     7
 10
68.20433968114334
 20
154.4081746685635
 11
68.217359824598
 21
154.3712312400766
  0
LINE
  8
2
  6
CONTINUOUS
 62
     7
 10
68.217359824598
 20
154.3712312400766
 11
68.23179909027036
 21
154.3348665285255
  0
LINE
  8
2
  6
CONTINUOUS
 62
     7
 10
68.23179909027036
 20
154.3348665285255
 11
68.2476110683318
 21
154.2991663588524
  0
LINE
  8
2
  6
CONTINUOUS
 62
     7
 10
68.2476110683318
 20
154.2991663588524
 11
68.26474934895374
 21
154.2642165559993
  0
LINE
  8
2
  6
CONTINUOUS
 62
     7
 10
68.26474934895374
 20
154.2642165559993
 11
68.28358384503812
 21
154.2293552818058
  0
LINE
  8
2
  6
CONTINUOUS
 62
     7
 10
68.28358384503812
 20
154.2293552818058
 11
68.30375018891232
 21
154.1953219083204
  0
LINE
  8
2
  6
CONTINUOUS
 62
     7
 10
68.30375018891232
 20
154.1953219083204
 11
68.32518824937485
 21
154.162191416458
  0
LINE
  8
2
  6
CONTINUOUS
 62
     7
 10
68.32518824937485
 20
154.162191416458
 11
68.34783789522439
 21
154.130038787134
  0
LINE
  8
2
  6
CONTINUOUS
 62
     7
 10
68.34783789522439
 20
154.130038787134
 11
68.37188115724972
 21
154.0986239699659
  0
LINE
  8
2
  6
CONTINUOUS
 62
     7
 10
68.37188115724972
 20
154.0986239699659
 11
68.39709132341166
 21
154.0682486464181
  0
LINE
  8
2
  6
CONTINUOUS
 62
     7
 10
68.39709132341166
 20
154.0682486464181
 11
68.42340111651816
 21
154.0389752725322
  0
LINE
  8
2
  6
CONTINUOUS
 62
     7
 10
68.42340111651816
 20
154.0389752725322
 11
68.45116949383497
 21
154.0104388699597
  0
LINE
  8
2
  6
CONTINUOUS
 62
     7
 10
68.45116949383497
 20
154.0104388699597
 11
68.47997945513298
 21
153.9830957957314
  0
LINE
  8
2
  6
CONTINUOUS
 62
     7
 10
68.47997945513298
 20
153.9830957957314
 11
68.51016331857454
 21
153.9566576334585
  0
LINE
  8
2
  6
CONTINUOUS
 62
     7
 10
68.51016331857454
 20
153.9566576334585
 11
68.54131054303035
 21
153.9315074731774
  0
LINE
  8
2
  6
CONTINUOUS
 62
     7
 10
68.54131054303035
 20
153.9315074731774
 11
68.57349425863542
 21
153.9075854376179
  0
LINE
  8
2
  6
CONTINUOUS
 62
     7
 10
68.57349425863542
 20
153.9075854376179
 11
68.60764576558394
 21
153.8842974694055
  0
LINE
  8
2
  6
CONTINUOUS
 62
     7
 10
68.60764576558394
 20
153.8842974694055
 11
68.64280242148675
 21
153.8623983716813
  0
LINE
  8
2
  6
CONTINUOUS
 62
     7
 10
68.64280242148675
 20
153.8623983716813
 11
68.67876984255341
 21
153.8420088269413
  0
LINE
  8
2
  6
CONTINUOUS
 62
     7
 10
68.67876984255341
 20
153.8420088269413
 11
68.7159705206232
 21
153.8229188716733
  0
LINE
  8
2
  6
CONTINUOUS
 62
     7
 10
68.7159705206232
 20
153.8229188716733
 11
68.75388064758488
 21
153.8054245376764
  0
LINE
  8
2
  6
CONTINUOUS
 62
     7
 10
68.75388064758488
 20
153.8054245376764
 11
68.79294325469557
 21
153.7893522855215
  0
LINE
  8
2
  6
CONTINUOUS
 62
     7
 10
68.79294325469557
 20
153.7893522855215
 11
68.83260669195427
 21
153.7749579561278
  0
LINE
  8
2
  6
CONTINUOUS
 62
     7
 10
68.83260669195427
 20
153.7749579561278
 11
68.87297033152727
 21
153.7622124223151
  0
LINE
  8
2
  6
CONTINUOUS
 62
     7
 10
68.87297033152727
 20
153.7622124223151
 11
68.90691871516036
 21
153.7529231966521
  0
LINE
  8
2
  6
CONTINUOUS
 62
     7
 10
68.90691871516036
 20
153.7529231966521
 11
68.9411592905094
 21
153.7448370737318
  0
LINE
  8
2
  6
CONTINUOUS
 62
     7
 10
68.9411592905094
 20
153.7448370737318
 11
68.98771984381352
 21
153.7358556051567
  0
LINE
  8
2
  6
CONTINUOUS
 62
     7
 10
68.98771984381352
 20
153.7358556051567
 11
69.03467382169356
 21
153.7290870986919
  0
LINE
  8
2
  6
CONTINUOUS
 62
     7
 10
69.03467382169356
 20
153.7290870986919
 11
69.08188097671393
 21
153.7245521725962
  0
LINE
  8
2
  6
CONTINUOUS
 62
     7
 10
69.08188097671393
 20
153.7245521725962
 11
69.11782533941606
 21
153.7226088976834
  0
LINE
  8
2
  6
CONTINUOUS
 62
     7
 10
69.11782533941606
 20
153.7226088976834
 11
69.1538335587688
 21
153.7219602264717
  0
CIRCLE
  8
2
  6
CONTINUOUS
 62
     7
 10
105.3538335587688
 20
172.7219602264717
 40
3.500000000000003
  0
CIRCLE
  8
2
  6
CONTINUOUS
 62
     7
 10
105.3538335587688
 20
172.7219602264717
 40
2.000000000000002
  0
CIRCLE
  8
2
  6
CONTINUOUS
 62
     7
 10
105.3538335587688
 20
172.7219602264717
 40
1.750000000000002
  0
ARC
  8
2
  6
CONTINUOUS
 62
     7
 10
76.15383355876881
 20
108.4849150277672
 40
24.20000000000001
 50
0.0
 51
232.3128715679773
  0
ARC
  8
2
  6
CONTINUOUS
 62
     7
 10
102.8538335587688
 20
98.08491502776724
 40
2.000000000000002
 50
180.0
 51
256.5000000000002
  0
ARC
  8
2
  6
CONTINUOUS
 62
     7
 10
102.3539368738702
 20
98.08530060497496
 40
2.000385579875697
 50
240.0029591891354
 51
269.9970408108649
  0
ARC
  8
2
  6
CONTINUOUS
 62
     7
 10
76.15383355876881
 20
108.4849150277672
 40
21.4
 50
250.9069785068896
 51
253.8826751906205
  0
ARC
  8
2
  6
CONTINUOUS
 62
     7
 10
76.15383355876881
 20
108.4849150277672
 40
24.7
 50
0.0
 51
232.3917156372195
  0
ARC
  8
2
  6
CONTINUOUS
 62
     7
 10
101.3538335587688
 20
172.7219602264717
 40
11.0
 50
275.2159085704541
 51
0.0
  0
ARC
  8
2
  6
CONTINUOUS
 62
     7
 10
69.27906242425126
 20
85.08491502776724
 40
1.0
 50
262.8060273382451
 51
270.0
  0
ARC
  8
2
  6
CONTINUOUS
 62
     7
 10
102.8538335587688
 20
98.08491502776724
 40
1.999999999999983
 50
256.5000000000001
 51
270.0000000000001
  0
ARC
  8
2
  6
CONTINUOUS
 62
     7
 10
73.15383355720746
 20
157.7219602281026
 40
1.499999996968121
 50
89.99999994036196
 51
269.9994872836554
  0
ARC
  8
2
  6
CONTINUOUS
 62
     7
 10
73.15383356180064
 20
157.7219602281026
 40
1.499999996968157
 50
269.9994871082091
 51
90.00000011580772
  0
ARC
  8
2
  6
CONTINUOUS
 62
     7
 10
75.2463299425313
 20
87.50495929509613
 40
1.00000000000001
 50
261.9413375953102
 51
335.1626176977607
  0
ARC
  8
2
  6
CONTINUOUS
 62
     7
 10
76.1538335587688
 20
155.7219602264717
 40
2.000000000000002
 50
269.9999999999996
 51
0.0
  0
ARC
  8
2
  6
CONTINUOUS
 62
     7
 10
76.15383355876881
 20
108.4849150277672
 40
21.4
 50
326.6892018066066
 51
248.0478721647912
  0
ARC
  8
2
  6
CONTINUOUS
 62
     7
 10
101.3538335587688
 20
172.7219602264717
 40
11.00000000000001
 50
0.0
 51
84.78409142954588
  0
ARC
  8
2
  6
CONTINUOUS
 62
     7
 10
79.1538335587688
 20
160.7219602264717
 40
1.000000000000001
 50
90.0
 51
180.0
  0
ARC
  8
2
  6
CONTINUOUS
 62
     7
 10
71.20152409089415
 20
88.07764337541933
 40
0.9999999999999934
 50
188.7200574928594
 51
261.941337595311
  0
ARC
  8
2
  6
CONTINUOUS
 62
     7
 10
102.3538335587688
 20
98.08491502776724
 40
2.000000000000002
 50
180.0
 51
239.9999999999999
  0
ARC
  8
2
  6
CONTINUOUS
 62
     7
 10
96.54500812032852
 20
95.08491502776725
 40
2.999999999999995
 50
146.6892018066066
 51
270.0
  0
TEXT
  8
2
  6
CONTINUOUS
 62
     7
 10
71.64841717269064
 20
72.42941763516492
 40
3.0
  1
KVE-36
  0
LINE
  8
2
  6
CONTINUOUS
 62
     7
 10
75.10614302664347
 20
86.51483423803826
 11
71.06133717500632
 21
87.08751831836146
  0
LINE
  8
2
  6
CONTINUOUS
 62
     7
 10
76.1538335587688
 20
87.08491502776724
 11
78.15383355876881
 21
87.08491502776724
  0
LINE
  8
2
  6
CONTINUOUS
 62
     7
 10
78.15383355876881
 20
87.08491502776724
 11
78.15383355876881
 21
84.08491502776724
  0
LINE
  8
2
  6
CONTINUOUS
 62
     7
 10
76.15383355876881
 20
80.08491502776724
 11
76.15383355876881
 21
135.8849150277672
  0
LINE
  8
2
  6
CONTINUOUS
 62
     7
 10
79.15383355876881
 20
87.08491502776724
 11
78.15383355876881
 21
87.08491502776724
  0
LINE
  8
2
  6
CONTINUOUS
 62
     7
 10
70.21308321642154
 20
153.7219602264717
 11
70.21308321642154
 21
161.7219602264717
  0
LINE
  8
2
  6
CONTINUOUS
 62
     7
 10
76.15383355876881
 20
186.7219602264717
 11
76.15383355876881
 21
150.7219602264717
  0
LINE
  8
2
  6
CONTINUOUS
 62
     7
 10
112.3538335587688
 20
92.08491502776725
 11
112.3538335587688
 21
96.08491502776725
  0
LINE
  8
2
  6
CONTINUOUS
 62
     7
 10
68.15383355876881
 20
84.77456965996831
 11
68.15383355876881
 21
88.6364893975063
  0
LINE
  8
2
  6
CONTINUOUS
 62
     7
 10
68.59031415634345
 20
84.35991445986816
 11
68.15383355876881
 21
84.7745696599683
  0
LINE
  8
2
  6
CONTINUOUS
 62
     7
 10
69.15383355876882
 20
153.7219602264717
 11
70.21308321642154
 21
153.7219602264717
  0
LINE
  8
2
  6
CONTINUOUS
 62
     7
 10
69.27906242425126
 20
84.08491502776724
 11
76.15383355876881
 21
84.08491502776724
  0
LINE
  8
2
  6
CONTINUOUS
 62
     7
 10
78.15383355876881
 20
84.08491502776724
 11
79.1538335587688
 21
84.08491502776724
  0
LINE
  8
2
  6
CONTINUOUS
 62
     7
 10
112.3538335587688
 20
92.08491502776725
 11
101.3538335587688
 21
92.08491502776725
  0
LINE
  8
2
  6
CONTINUOUS
 62
     7
 10
101.3538335587688
 20
87.08491502776724
 11
112.3538335587688
 21
87.08491502776724
  0
LINE
  8
2
  6
CONTINUOUS
 62
     7
 10
75.10614302664345
 20
153.7219602264717
 11
76.1538335587688
 21
153.7219602264717
  0
LINE
  8
2
  6
CONTINUOUS
 62
     7
 10
70.21308321642157
 20
153.7219602264717
 11
71.0613371750063
 21
153.7219602264717
  0
LINE
  8
2
  6
CONTINUOUS
 62
     7
 10
78.1538335587688
 20
155.7219602264717
 11
78.1538335587688
 21
160.7219602264717
  0
LINE
  8
2
  6
CONTINUOUS
 62
     7
 10
105.3538335587688
 20
167.2219602264717
 11
105.3538335587688
 21
178.2219602264717
  0
LINE
  8
2
  6
CONTINUOUS
 62
     7
 10
112.3538335587688
 20
84.08491502776724
 11
101.3538335587688
 21
84.08491502776724
  0
LINE
  8
2
  6
CONTINUOUS
 62
     7
 10
101.8538335587688
 20
96.35286422019833
 11
101.8538335587688
 21
96.35237097703433
  0
LINE
  8
2
  6
CONTINUOUS
 62
     7
 10
95.8538335587688
 20
172.7219602264717
 11
116.3538335587688
 21
172.7219602264717
  0
LINE
  8
2
  6
CONTINUOUS
 62
     7
 10
68.15383355876881
 20
88.6364893975063
 11
69.15383355876881
 21
88.262155572144
  0
LINE
  8
2
  6
CONTINUOUS
 62
     7
 10
68.59031415634345
 20
84.35991445986816
 11
69.15383355876881
 21
84.09278714727503
  0
LINE
  8
2
  6
CONTINUOUS
 62
     7
 10
76.1538335587688
 20
161.7219602264717
 11
76.15383355876878
 21
153.7219602264717
  0
LINE
  8
2
  6
CONTINUOUS
 62
     7
 10
68.15383355876881
 20
84.08491502776724
 11
61.35918109391142
 21
89.33398140968771
  0
LINE
  8
2
  6
CONTINUOUS
 62
     7
 10
101.3538335587688
 20
84.08491502776724
 11
79.1538335587688
 21
84.08491502776724
  0
LINE
  8
2
  6
CONTINUOUS
 62
     7
 10
79.15383355876881
 20
87.08491502776724
 11
101.3538335587688
 21
87.08491502776724
  0
LINE
  8
2
  6
CONTINUOUS
 62
     7
 10
102.3538335587688
 20
96.08491502776725
 11
112.3538335587688
 21
96.08491502776725
  0
LINE
  8
2
  6
CONTINUOUS
 62
     7
 10
112.3538335587688
 20
84.08491502776724
 11
112.3538335587688
 21
87.08491502776724
  0
LINE
  8
2
  6
CONTINUOUS
 62
     7
 10
69.27906242425126
 20
84.08491502776724
 11
69.14257905975062
 21
84.08491502776724
  0
LINE
  8
2
  6
CONTINUOUS
 62
     7
 10
69.14257905975062
 20
84.08491502776724
 11
68.15383355876881
 21
84.08491502776724
  0
LINE
  8
2
  6
CONTINUOUS
 62
     7
 10
100.3538335587688
 20
108.4849150277672
 11
100.3538335587688
 21
98.08491502776724
  0
LINE
  8
2
  6
CONTINUOUS
 62
     7
 10
78.15383355876881
 20
84.08491502776724
 11
76.15383355876881
 21
84.08491502776724
  0
LINE
  8
2
  6
CONTINUOUS
 62
     7
 10
101.3538335587688
 20
92.08491502776725
 11
96.54500812032852
 21
92.08491502776725
  0
LINE
  8
2
  6
CONTINUOUS
 62
     7
 10
108.8538335587688
 20
97.08491502776724
 11
101.8538335587688
 21
97.08491502776724
  0
LINE
  8
2
  6
CONTINUOUS
 62
     7
 10
108.8538335587688
 20
96.08491502776724
 11
108.8538335587688
 21
97.08491502776722
  0
LINE
  8
2
  6
CONTINUOUS
 62
     7
 10
68.1538335587688
 20
154.7219602264717
 11
68.1538335587688
 21
161.7219602264717
  0
LINE
  8
2
  6
CONTINUOUS
 62
     7
 10
75.10614302664345
 20
153.7219602264717
 11
71.0613371750063
 21
153.7219602264717
  0
LINE
  8
2
  6
CONTINUOUS
 62
     7
 10
48.75383355876882
 20
108.4849150277672
 11
103.5538335587688
 21
108.4849150277672
  0
LINE
  8
2
  6
CONTINUOUS
 62
     7
 10
100.8538335587688
 20
164.7219602264717
 11
51.4538335587688
 21
164.7219602264717
  0
LINE
  8
2
  6
CONTINUOUS
 62
     7
 10
67.35383355876881
 20
84.08491502776724
 11
68.15383355876881
 21
84.08491502776724
  0
LINE
  8
2
  6
CONTINUOUS
 62
     7
 10
100.8538335587688
 20
180.7219602264717
 11
100.8538335587688
 21
164.7219602264717
  0
LINE
  8
2
  6
CONTINUOUS
 62
     7
 10
61.08041861771621
 20
88.91754008847474
 11
67.35383355876881
 21
84.08491502776724
  0
LINE
  8
2
  6
CONTINUOUS
 62
     7
 10
100.8538335587688
 20
98.08491502776724
 11
100.8538335587688
 21
108.4849150277672
  0
LINE
  8
2
  6
CONTINUOUS
 62
     7
 10
101.8538335587688
 20
97.08491502776722
 11
101.8538335587688
 21
96.35286422019833
  0
LINE
  8
2
  6
CONTINUOUS
 62
     7
 10
100.8538335587688
 20
180.7219602264717
 11
51.4538335587688
 21
180.7219602264717
  0
LINE
  8
2
  6
CONTINUOUS
 62
     7
 10
100.3538335587688
 20
164.7219602264717
 11
100.3538335587688
 21
161.7219602264717
  0
LINE
  8
2
  6
CONTINUOUS
 62
     7
 10
51.9538335587688
 20
183.7219602264717
 11
100.3538335587688
 21
183.7219602264717
  0
LINE
  8
2
  6
CONTINUOUS
 62
     7
 10
100.3538335587688
 20
183.7219602264717
 11
100.3538335587688
 21
180.7219602264717
  0
LINE
  8
2
  6
CONTINUOUS
 62
     7
 10
51.9538335587688
 20
161.7219602264717
 11
100.3538335587688
 21
161.7219602264717
  0
LINE
  8
2
  6
CONTINUOUS
 62
     7
 10
100.8538335587688
 20
164.7219602264717
 11
102.8538335587688
 21
164.7219602264717
  0
LINE
  8
2
  6
CONTINUOUS
 62
     7
 10
102.8538335587688
 20
180.7219602264717
 11
100.8538335587688
 21
180.7219602264717
  0
LINE
  8
2
  6
CONTINUOUS
 62
     7
 10
100.3538335587688
 20
161.7219602264717
 11
101.3538335587688
 21
161.7219602264717
  0
LINE
  8
2
  6
CONTINUOUS
 62
     7
 10
102.3538335587688
 20
161.7675090763684
 11
101.3538335587688
 21
161.7219602264717
  0
LINE
  8
2
  6
CONTINUOUS
 62
     7
 10
51.4538335587688
 20
180.7219602264717
 11
51.4538335587688
 21
164.7219602264717
  0
LINE
  8
2
  6
CONTINUOUS
 62
     7
 10
101.3538335587688
 20
183.7219602264717
 11
100.3538335587688
 21
183.7219602264717
  0
LINE
  8
2
  6
CONTINUOUS
 62
     7
 10
51.9538335587688
 20
183.7219602264717
 11
51.9538335587688
 21
180.7219602264717
  0
LINE
  8
2
  6
CONTINUOUS
 62
     7
 10
101.3538335587688
 20
183.7219602264717
 11
102.3538335587688
 21
183.676411376575
  0
LINE
  8
2
  6
CONTINUOUS
 62
     7
 10
51.9538335587688
 20
164.7219602264717
 11
51.9538335587688
 21
161.7219602264717
  0
ENDSEC
  0
EOF
