  0
SECTION
  2
HEADER
  9
$ACADVER
  1
AC1006
  9
$DWGCODEPAGE
  3
ansi_932
  9
$INSBASE
 10
0.0
 20
0.0
 30
0.0
  9
$EXTMIN
 10
-171.8419434606242
 20
77.01694911049681
  9
$EXTMAX
 10
-68.4110214710475
 20
181.6810513227511
  9
$LIMMIN
 10
0.0
 20
0.0
  9
$LIMMAX
 10
12.0
 20
9.0
  9
$ORTHOMODE
 70
     0
  9
$REGENMODE
 70
     1
  9
$FILLMODE
 70
     1
  9
$QTEXTMODE
 70
     0
  9
$MIRRTEXT
 70
     1
  9
$DRAGMODE
 70
     2
  9
$LTSCALE
 40
1.0
  9
$OSMODE
 70
    37
  9
$ATTMODE
 70
     1
  9
$TEXTSIZE
 40
0.2
  9
$TRACEWID
 40
0.05
  9
$TEXTSTYLE
  7
STANDARD
  9
$CLAYER
  8
0
  9
$CELTYPE
  6
BYLAYER
  9
$CECOLOR
 62
   256
  9
$DIMSCALE
 40
1.0
  9
$DIMASZ
 40
3.0
  9
$DIMEXO
 40
0.0625
  9
$DIMDLI
 40
0.38
  9
$DIMRND
 40
0.0
  9
$DIMDLE
 40
0.0
  9
$DIMEXE
 40
1.5
  9
$DIMTP
 40
0.0
  9
$DIMTM
 40
0.0
  9
$DIMTXT
 40
3.0
  9
$DIMCEN
 40
0.09
  9
$DIMTSZ
 40
0.0
  9
$DIMTOL
 70
     0
  9
$DIMLIM
 70
     0
  9
$DIMTIH
 70
     1
  9
$DIMTOH
 70
     1
  9
$DIMSE1
 70
     0
  9
$DIMSE2
 70
     0
  9
$DIMTAD
 70
     1
  9
$DIMZIN
 70
     0
  9
$DIMBLK
  1

  9
$DIMASO
 70
     1
  9
$DIMSHO
 70
     1
  9
$DIMPOST
  1

  9
$DIMAPOST
  1

  9
$DIMALT
 70
     0
  9
$DIMALTD
 70
     2
  9
$DIMALTF
 40
25.4
  9
$DIMLFAC
 40
1.0
  9
$DIMTOFL
 70
     0
  9
$DIMTVP
 40
0.0
  9
$DIMTIX
 70
     0
  9
$DIMSOXD
 70
     0
  9
$DIMSAH
 70
     0
  9
$DIMBLK1
  1

  9
$DIMBLK2
  1

  9
$LUNITS
 70
     2
  9
$LUPREC
 70
     4
  9
$SKETCHINC
 40
0.1
  9
$FILLETRAD
 40
0.5
  9
$AUNITS
 70
     0
  9
$AUPREC
 70
     0
  9
$MENU
  1
.
  9
$ELEVATION
 40
0.0
  9
$THICKNESS
 40
0.0
  9
$LIMCHECK
 70
     0
  9
$CHAMFERA
 40
0.0
  9
$CHAMFERB
 40
0.0
  9
$SKPOLY
 70
     0
  9
$TDCREATE
 40
2460347.347188322
  9
$TDUPDATE
 40
2460347.347188599
  9
$TDINDWG
 40
0.0000000116
  9
$TDUSRTIMER
 40
0.0000000116
  9
$USRTIMER
 70
     1
  9
$ANGBASE
 50
0.0
  9
$ANGDIR
 70
     0
  9
$PDMODE
 70
     0
  9
$PDSIZE
 40
0.0
  9
$PLINEWID
 40
0.0
  9
$COORDS
 70
     1
  9
$SPLFRAME
 70
     0
  9
$SPLINETYPE
 70
     6
  9
$SPLINESEGS
 70
     8
  9
$ATTDIA
 70
     0
  9
$ATTREQ
 70
     1
  9
$HANDLING
 70
     1
  9
$HANDSEED
  5
7E3
  9
$SURFTAB1
 70
     6
  9
$SURFTAB2
 70
     6
  9
$SURFTYPE
 70
     6
  9
$SURFU
 70
     6
  9
$SURFV
 70
     6
  9
$UCSNAME
  2

  9
$UCSORG
 10
0.0
 20
0.0
 30
0.0
  9
$UCSXDIR
 10
1.0
 20
0.0
 30
0.0
  9
$UCSYDIR
 10
0.0
 20
1.0
 30
0.0
  9
$USERI1
 70
     0
  9
$USERI2
 70
     0
  9
$USERI3
 70
     0
  9
$USERI4
 70
     0
  9
$USERI5
 70
     0
  9
$USERR1
 40
0.0
  9
$USERR2
 40
0.0
  9
$USERR3
 40
0.0
  9
$USERR4
 40
0.0
  9
$USERR5
 40
0.0
  9
$WORLDVIEW
 70
     1
  0
ENDSEC
  0
SECTION
  2
TABLES
  0
TABLE
  2
VPORT
 70
     1
  0
VPORT
  2
*ACTIVE
 70
     0
 10
0.0
 20
0.0
 11
1.0
 21
1.0
 12
-120.1264824658359
 22
129.3490002166239
 13
0.0
 23
0.0
 14
0.5
 24
0.5
 15
0.5
 25
0.5
 16
0.0
 26
0.0
 36
1.0
 17
0.0
 27
0.0
 37
0.0
 40
104.6641022122543
 41
1.6
 42
50.0
 43
0.0
 44
0.0
 50
0.0
 51
0.0
 71
     0
 72
   100
 73
     1
 74
     3
 75
     0
 76
     0
 77
     0
 78
     0
  0
ENDTAB
  0
TABLE
  2
LTYPE
 70
     2
  0
LTYPE
  2
CONTINUOUS
 70
     0
  3
Solid line
 72
    65
 73
     0
 40
0.0
  0
LTYPE
  2
CENTER
 70
     0
  3

 72
    65
 73
     0
 40
0.0
  0
ENDTAB
  0
TABLE
  2
LAYER
 70
     2
  0
LAYER
  2
0
 70
     0
 62
     7
  6
CONTINUOUS
  0
LAYER
  2
1
 70
     0
 62
     7
  6
CONTINUOUS
  0
ENDTAB
  0
TABLE
  2
STYLE
 70
     2
  0
STYLE
  2
STANDARD
 70
     0
 40
0.0
 41
1.0
 50
0.0
 71
     0
 42
0.2
  3
txt
  4

  0
STYLE
  2
ＭＳ_ゴシック
 70
     0
 40
0.0
 41
1.0
 50
0.0
 71
     0
 42
0.2
  3
ＭＳ ゴシック.shx
  4

  0
ENDTAB
  0
TABLE
  2
VIEW
 70
     0
  0
ENDTAB
  0
TABLE
  2
UCS
 70
     0
  0
ENDTAB
  0
ENDSEC
  0
SECTION
  2
BLOCKS
  0
BLOCK
  8
0
  2
D_FRAME_VIEW_3960
 70
     0
 10
0.0
 20
0.0
 30
0.0
  0
LINE
  5
71
  8
1
  6
CONTINUOUS
 62
     9
 10
-100.8167175566004
 20
171.2260074757647
 30
0.0
 11
-100.8167175566004
 21
171.1106789833053
 31
0.0
  0
LINE
  5
72
  8
1
  6
CONTINUOUS
 62
     7
 10
-91.76677995646148
 20
145.2789088417964
 30
0.0
 11
-91.76677995646148
 21
146.2471546883574
 31
0.0
  0
LINE
  5
73
  8
1
  6
CONTINUOUS
 62
     7
 10
-91.76677995646148
 20
146.2471546883574
 30
0.0
 11
-91.76677995646148
 21
155.5091606567528
 31
0.0
  0
LINE
  5
74
  8
1
  6
CONTINUOUS
 62
     7
 10
-91.76677995646148
 20
155.5091606567528
 30
0.0
 11
-91.76677995646148
 21
156.1785043819679
 31
0.0
  0
LINE
  5
75
  8
1
  6
CONTINUOUS
 62
     9
 10
-100.8167175566004
 20
141.246329780998
 30
0.0
 11
-100.8167175566004
 21
141.131001288171
 31
0.0
  0
LINE
  5
76
  8
1
  6
CONTINUOUS
 62
     9
 10
-95.29174877569649
 20
140.9771460263621
 30
0.0
 11
-100.8167175841551
 21
141.246329782239
 31
0.0
  0
ARC
  5
77
  8
1
  6
CONTINUOUS
 62
     9
 10
-95.36537998860933
 20
138.2394627981215
 30
0.0
 40
3.808545702285734
 50
60.84996268538617
 51
88.8922226690857
  0
POLYLINE
  5
78
  8
1
  6
CONTINUOUS
 62
     9
 66
     1
 10
0.0
 20
0.0
 30
0.0
  0
VERTEX
  5
38D
  8
1
  6
CONTINUOUS
 62
     9
 10
-93.51024395045076
 20
141.5656453917751
 30
0.0
  0
VERTEX
  5
38E
  8
1
  6
CONTINUOUS
 62
     9
 10
-93.4075187212247
 20
141.4857672918205
 30
0.0
  0
VERTEX
  5
38F
  8
1
  6
CONTINUOUS
 62
     9
 10
-93.33651250898671
 20
141.4062281623625
 30
0.0
  0
VERTEX
  5
390
  8
1
  6
CONTINUOUS
 62
     9
 10
-93.29354107075321
 20
141.3048067455155
 30
0.0
  0
VERTEX
  5
391
  8
1
  6
CONTINUOUS
 62
     9
 10
-93.32113706085781
 20
141.1899908415542
 30
0.0
  0
VERTEX
  5
392
  8
1
  6
CONTINUOUS
 62
     9
 10
-93.40788342860012
 20
141.1173537371617
 30
0.0
  0
VERTEX
  5
393
  8
1
  6
CONTINUOUS
 62
     9
 10
-93.51143005887113
 20
141.0724267819813
 30
0.0
  0
SEQEND
  5
7B1
  8
1
  6
CONTINUOUS
 62
     9
  0
ARC
  5
79
  8
1
  6
CONTINUOUS
 62
     9
 10
-94.72258524064404
 20
147.0225859455057
 30
0.0
 40
6.072173494359999
 50
264.6215946357416
 51
281.5053778541439
  0
LINE
  5
7A
  8
1
  6
CONTINUOUS
 62
     9
 10
-100.8167175841551
 20
142.3171426448285
 30
0.0
 11
-95.29174877569649
 21
142.0472966719773
 31
0.0
  0
LINE
  5
7B
  8
1
  6
CONTINUOUS
 62
     9
 10
-100.8167175841551
 20
144.1765810350368
 30
0.0
 11
-100.8167175841551
 21
142.3171426448285
 31
0.0
  0
LINE
  5
7C
  8
1
  6
CONTINUOUS
 62
     9
 10
-95.29174877569649
 20
143.9801870662672
 30
0.0
 11
-100.8167175841551
 21
144.1765810350368
 31
0.0
  0
ARC
  5
7D
  8
1
  6
CONTINUOUS
 62
     9
 10
-95.30275657238775
 20
144.7441577430235
 30
0.0
 40
2.159763325621507
 50
27.10099397084036
 51
89.70797586230357
  0
POLYLINE
  5
7E
  8
1
  6
CONTINUOUS
 62
     9
 66
     1
 10
0.0
 20
0.0
 30
0.0
  0
VERTEX
  5
394
  8
1
  6
CONTINUOUS
 62
     9
 10
-93.3801246735047
 20
145.7280602809291
 30
0.0
  0
VERTEX
  5
395
  8
1
  6
CONTINUOUS
 62
     9
 10
-93.336487225034
 20
145.5996472587435
 30
0.0
  0
VERTEX
  5
396
  8
1
  6
CONTINUOUS
 62
     9
 10
-93.30775463394363
 20
145.4697520219305
 30
0.0
  0
VERTEX
  5
397
  8
1
  6
CONTINUOUS
 62
     9
 10
-93.29353635775166
 20
145.3386234663269
 30
0.0
  0
VERTEX
  5
398
  8
1
  6
CONTINUOUS
 62
     9
 10
-93.29357671385057
 20
145.2054497954914
 30
0.0
  0
VERTEX
  5
399
  8
1
  6
CONTINUOUS
 62
     9
 10
-93.30828286482844
 20
145.0766175569476
 30
0.0
  0
VERTEX
  5
39A
  8
1
  6
CONTINUOUS
 62
     9
 10
-93.3377179277986
 20
144.95398661807
 30
0.0
  0
VERTEX
  5
39B
  8
1
  6
CONTINUOUS
 62
     9
 10
-93.38095692482145
 20
144.8395490248089
 30
0.0
  0
VERTEX
  5
39C
  8
1
  6
CONTINUOUS
 62
     9
 10
-93.43841020535453
 20
144.7309181768488
 30
0.0
  0
VERTEX
  5
39D
  8
1
  6
CONTINUOUS
 62
     9
 10
-93.51152196149175
 20
144.626179045654
 30
0.0
  0
VERTEX
  5
39E
  8
1
  6
CONTINUOUS
 62
     9
 10
-93.59934594948842
 20
144.5273269855719
 30
0.0
  0
SEQEND
  5
7B2
  8
1
  6
CONTINUOUS
 62
     9
  0
ARC
  5
7F
  8
1
  6
CONTINUOUS
 62
     9
 10
-95.08569592640542
 20
146.2338524281465
 30
0.0
 40
2.263065474093787
 50
264.7759655519121
 51
311.0552216766968
  0
LINE
  5
80
  8
1
  6
CONTINUOUS
 62
     9
 10
-100.8167175841551
 20
147.1020961958714
 30
0.0
 11
-95.29174877569649
 21
146.9038930164104
 31
0.0
  0
LINE
  5
81
  8
1
  6
CONTINUOUS
 62
     9
 10
-100.8167175841551
 20
150.322737967752
 30
0.0
 11
-100.8167175841551
 21
147.1020961958714
 31
0.0
  0
LINE
  5
82
  8
1
  6
CONTINUOUS
 62
     9
 10
-95.29174877569649
 20
150.2517573914156
 30
0.0
 11
-100.8167175859741
 21
150.3227379677741
 31
0.0
  0
ARC
  5
83
  8
1
  6
CONTINUOUS
 62
     9
 10
-95.29026036545437
 20
152.2486856934802
 30
0.0
 40
1.996928856757714
 50
269.9572946063328
 51
90.04270539366718
  0
LINE
  5
84
  8
1
  6
CONTINUOUS
 62
     9
 10
-100.8167175841551
 20
154.3190659997073
 30
0.0
 11
-95.29174877569649
 21
154.2456139955447
 31
0.0
  0
LINE
  5
85
  8
1
  6
CONTINUOUS
 62
     9
 10
-100.8167175841551
 20
156.1785043819679
 30
0.0
 11
-100.8167175841551
 21
154.3190659997108
 31
0.0
  0
LINE
  5
86
  8
1
  6
CONTINUOUS
 62
     9
 10
-100.8167175404994
 20
158.0379427876029
 30
0.0
 11
-100.8167175404994
 21
156.1785043819679
 31
0.0
  0
LINE
  5
87
  8
1
  6
CONTINUOUS
 62
     9
 10
-95.29174877569649
 20
158.1113947914765
 30
0.0
 11
-100.8167175841551
 21
158.037942787329
 31
0.0
  0
ARC
  5
88
  8
1
  6
CONTINUOUS
 62
     9
 10
-95.28135481247466
 20
160.1083230919731
 30
0.0
 40
1.996955350476197
 50
269.7017795546415
 51
90.29822044535847
  0
LINE
  5
89
  8
1
  6
CONTINUOUS
 62
     9
 10
-100.8167175841551
 20
162.0342708160848
 30
0.0
 11
-95.29174877569649
 21
162.1052513924696
 31
0.0
  0
LINE
  5
8A
  8
1
  6
CONTINUOUS
 62
     9
 10
-100.8167175841551
 20
165.2549125829879
 30
0.0
 11
-100.8167175841551
 21
162.0342708160848
 31
0.0
  0
LINE
  5
8B
  8
1
  6
CONTINUOUS
 62
     9
 10
-95.29174877569649
 20
165.4531157623906
 30
0.0
 11
-100.8167175841551
 21
165.2549125829879
 31
0.0
  0
ARC
  5
8C
  8
1
  6
CONTINUOUS
 62
     9
 10
-95.0781345292037
 20
166.1900729732013
 30
0.0
 40
2.197157497278544
 50
44.46866227434089
 51
95.57928082528532
  0
POLYLINE
  5
8D
  8
1
  6
CONTINUOUS
 62
     9
 66
     1
 10
0.0
 20
0.0
 30
0.0
  0
VERTEX
  5
39F
  8
1
  6
CONTINUOUS
 62
     9
 10
-93.51016888985302
 20
167.7292236551239
 30
0.0
  0
VERTEX
  5
3A0
  8
1
  6
CONTINUOUS
 62
     9
 10
-93.4384703247733
 20
167.6262870535362
 30
0.0
  0
VERTEX
  5
3A1
  8
1
  6
CONTINUOUS
 62
     9
 10
-93.3801306125051
 20
167.515671608245
 30
0.0
  0
VERTEX
  5
3A2
  8
1
  6
CONTINUOUS
 62
     9
 10
-93.3364811332385
 20
167.3989182490101
 30
0.0
  0
VERTEX
  5
3A3
  8
1
  6
CONTINUOUS
 62
     9
 10
-93.30774776362065
 20
167.2771500585304
 30
0.0
  0
VERTEX
  5
3A4
  8
1
  6
CONTINUOUS
 62
     9
 10
-93.29353454240024
 20
167.1503946924233
 30
0.0
  0
VERTEX
  5
3A5
  8
1
  6
CONTINUOUS
 62
     9
 10
-93.29357780342522
 20
167.0171904654037
 30
0.0
  0
VERTEX
  5
3A6
  8
1
  6
CONTINUOUS
 62
     9
 10
-93.30828241917604
 20
166.8838695228396
 30
0.0
  0
VERTEX
  5
3A7
  8
1
  6
CONTINUOUS
 62
     9
 10
-93.33771609971424
 20
166.7529713961775
 30
0.0
  0
VERTEX
  5
3A8
  8
1
  6
CONTINUOUS
 62
     9
 10
-93.38096106484133
 20
166.6269461715986
 30
0.0
  0
SEQEND
  5
7B3
  8
1
  6
CONTINUOUS
 62
     9
  0
ARC
  5
8E
  8
1
  6
CONTINUOUS
 62
     9
 10
-95.29524042683195
 20
167.6009264998459
 30
0.0
 40
2.147813575605681
 50
270.0931444721206
 51
333.0331271272856
  0
LINE
  5
8F
  8
1
  6
CONTINUOUS
 62
     9
 10
-100.8167175841551
 20
168.1804277374339
 30
0.0
 11
-95.29174877569649
 21
168.376821706262
 31
0.0
  0
LINE
  5
90
  8
1
  6
CONTINUOUS
 62
     9
 10
-100.8167175823362
 20
170.0398661227645
 30
0.0
 11
-100.8167175823362
 21
168.1804277375245
 31
0.0
  0
LINE
  5
91
  8
1
  6
CONTINUOUS
 62
     9
 10
-95.2917487738775
 20
170.30971209552
 30
0.0
 11
-100.8167175823362
 21
170.0398661227645
 31
0.0
  0
ARC
  5
92
  8
1
  6
CONTINUOUS
 62
     9
 10
-94.73841180013619
 20
165.4127249047827
 30
0.0
 40
5.992738583248982
 50
77.80509085623169
 51
95.29792781719708
  0
POLYLINE
  5
93
  8
1
  6
CONTINUOUS
 62
     9
 66
     1
 10
0.0
 20
0.0
 30
0.0
  0
VERTEX
  5
3A9
  8
1
  6
CONTINUOUS
 62
     9
 10
-93.47251798652994
 20
171.2702353469274
 30
0.0
  0
VERTEX
  5
3AA
  8
1
  6
CONTINUOUS
 62
     9
 10
-93.3801246735047
 20
171.2224855334221
 30
0.0
  0
VERTEX
  5
3AB
  8
1
  6
CONTINUOUS
 62
     9
 10
-93.30775463394363
 20
171.1449841843347
 30
0.0
  0
VERTEX
  5
3AC
  8
1
  6
CONTINUOUS
 62
     9
 10
-93.29908805711145
 20
171.026529008812
 30
0.0
  0
VERTEX
  5
3AD
  8
1
  6
CONTINUOUS
 62
     9
 10
-93.35756063564165
 20
170.923165643223
 30
0.0
  0
VERTEX
  5
3AE
  8
1
  6
CONTINUOUS
 62
     9
 10
-93.43841020535453
 20
170.8445593012003
 30
0.0
  0
SEQEND
  5
7B4
  8
1
  6
CONTINUOUS
 62
     9
  0
ARC
  5
94
  8
1
  6
CONTINUOUS
 62
     9
 10
-95.30322606808856
 20
173.8279767205164
 30
0.0
 40
3.518283345579735
 50
270.1869098137603
 51
302.0078686326233
  0
LINE
  5
95
  8
1
  6
CONTINUOUS
 62
     9
 10
-100.8167175823362
 20
171.1106789821678
 30
0.0
 11
-95.2917487738775
 21
171.3798627380033
 31
0.0
  0
LINE
  5
96
  8
1
  6
CONTINUOUS
 62
     7
 10
-91.76677996555642
 20
156.1785043819678
 30
0.0
 11
-91.76677996555642
 21
156.9390533325503
 31
0.0
  0
LINE
  5
97
  8
1
  6
CONTINUOUS
 62
     7
 10
-91.76677996555642
 20
156.9390533325503
 30
0.0
 11
-91.76677996555642
 21
166.1081126225016
 31
0.0
  0
LINE
  5
98
  8
1
  6
CONTINUOUS
 62
     7
 10
-91.76677996555642
 20
166.1081126225016
 30
0.0
 11
-91.76677996555642
 21
167.0822649810432
 31
0.0
  0
LINE
  5
99
  8
1
  6
CONTINUOUS
 62
     7
 10
-95.27331228339797
 20
158.5483873237745
 30
0.0
 11
-95.27622975348359
 21
158.5446218591518
 31
0.0
  0
LINE
  5
9A
  8
1
  6
CONTINUOUS
 62
     9
 10
-101.7667799676453
 20
156.1785043936972
 30
0.0
 11
-100.8167175845892
 21
156.1785043936972
 31
0.0
  0
ARC
  5
9B
  8
1
  6
CONTINUOUS
 62
     7
 10
-100.8324606192356
 20
157.4439841859484
 30
0.0
 40
3.124957841991864
 50
254.3740767058689
 51
270.2886481364217
  0
LINE
  5
9C
  8
1
  6
CONTINUOUS
 62
     7
 10
-101.67418542915
 20
154.434522297404
 30
0.0
 11
-101.7514286316045
 21
154.4801848339611
 31
0.0
  0
LINE
  5
9D
  8
1
  6
CONTINUOUS
 62
     7
 10
-101.7667799676445
 20
154.5131642317984
 30
0.0
 11
-101.7667799676445
 21
156.1785043936972
 31
0.0
  0
LINE
  5
9E
  8
1
  6
CONTINUOUS
 62
     7
 10
-101.7667799676453
 20
156.1785043936972
 30
0.0
 11
-101.7667799676453
 21
157.8436945603853
 31
0.0
  0
LINE
  5
9F
  8
1
  6
CONTINUOUS
 62
     7
 10
-101.7667799676452
 20
157.8436945621835
 30
0.0
 11
-101.7512977010096
 21
157.8768213996313
 31
0.0
  0
LINE
  5
A0
  8
1
  6
CONTINUOUS
 62
     7
 10
-101.7514286316045
 20
154.4801848339611
 30
0.0
 11
-101.766779967645
 21
154.5131642603982
 31
0.0
  0
LINE
  5
A1
  8
1
  6
CONTINUOUS
 62
     7
 10
-101.7512977010096
 20
157.8768213996313
 30
0.0
 11
-101.6552400369812
 21
157.9295564510404
 31
0.0
  0
ARC
  5
A2
  8
1
  6
CONTINUOUS
 62
     7
 10
-100.8166767719039
 20
154.7398520524794
 30
0.0
 40
3.298090735522068
 50
90.0007090146387
 51
104.7295743197819
  0
LINE
  5
A3
  8
1
  6
CONTINUOUS
 62
     7
 10
-101.7667781042611
 20
161.7030331758337
 30
0.0
 11
-101.7610125487591
 21
161.6746790996553
 31
0.0
  0
LINE
  5
A4
  8
1
  6
CONTINUOUS
 62
     7
 10
-101.7667782077189
 20
157.8388113137004
 30
0.0
 11
-101.7667781042027
 21
161.7030380331731
 31
0.0
  0
LINE
  5
A5
  8
1
  6
CONTINUOUS
 62
     7
 10
-101.7667783956
 20
150.6538039596555
 30
0.0
 11
-101.7667782920837
 21
154.5180171797963
 31
0.0
  0
ARC
  5
A6
  8
1
  6
CONTINUOUS
 62
     7
 10
-100.8415325348789
 20
159.8620610183741
 30
0.0
 40
2.172351537166666
 50
89.34549136326878
 51
109.3560915666879
  0
POLYLINE
  5
A7
  8
1
  6
CONTINUOUS
 62
     7
 66
     1
 10
0.0
 20
0.0
 30
0.0
  0
VERTEX
  5
3AF
  8
1
  6
CONTINUOUS
 62
     7
 10
-101.5615328155552
 20
161.9116245809055
 30
0.0
  0
VERTEX
  5
3B0
  8
1
  6
CONTINUOUS
 62
     7
 10
-101.6550097435725
 20
161.8629175944631
 30
0.0
  0
VERTEX
  5
3B1
  8
1
  6
CONTINUOUS
 62
     7
 10
-101.7407409791985
 20
161.7857470523118
 30
0.0
  0
VERTEX
  5
3B2
  8
1
  6
CONTINUOUS
 62
     7
 10
-101.7503773890052
 20
161.7704160860347
 30
0.0
  0
SEQEND
  5
7B5
  8
1
  6
CONTINUOUS
 62
     7
  0
LINE
  5
A8
  8
1
  6
CONTINUOUS
 62
     7
 10
-101.7667799676452
 20
164.5954587939132
 30
0.0
 11
-101.7511371318226
 21
164.711020172639
 31
0.0
  0
LINE
  5
A9
  8
1
  6
CONTINUOUS
 62
     7
 10
-101.7667799676453
 20
161.7111261013466
 30
0.0
 11
-101.7667799676453
 21
164.5954587848297
 31
0.0
  0
LINE
  5
AA
  8
1
  6
CONTINUOUS
 62
     7
 10
-101.7503773890052
 20
161.7704160860347
 30
0.0
 11
-101.7667799676452
 21
161.7111261166586
 31
0.0
  0
LINE
  5
AB
  8
1
  6
CONTINUOUS
 62
     7
 10
-101.7610876451255
 20
150.6820482725603
 30
0.0
 11
-101.766778395541
 21
150.6538015607769
 31
0.0
  0
POLYLINE
  5
AC
  8
1
  6
CONTINUOUS
 62
     7
 66
     1
 10
0.0
 20
0.0
 30
0.0
  0
VERTEX
  5
3B3
  8
1
  6
CONTINUOUS
 62
     7
 10
-101.7503554241855
 20
150.5864233782863
 30
0.0
  0
VERTEX
  5
3B4
  8
1
  6
CONTINUOUS
 62
     7
 10
-101.6737180066517
 20
150.5066196728575
 30
0.0
  0
VERTEX
  5
3B5
  8
1
  6
CONTINUOUS
 62
     7
 10
-101.5612681211127
 20
150.4451729189454
 30
0.0
  0
SEQEND
  5
7B6
  8
1
  6
CONTINUOUS
 62
     7
  0
ARC
  5
AD
  8
1
  6
CONTINUOUS
 62
     7
 10
-100.8621665411572
 20
152.3714492436492
 30
0.0
 40
2.049215337198678
 50
250.0526962066357
 51
271.2708507778549
  0
LINE
  5
AE
  8
1
  6
CONTINUOUS
 62
     7
 10
-101.7667799676452
 20
150.6457439270393
 30
0.0
 11
-101.7503554241855
 21
150.5864233782863
 31
0.0
  0
ARC
  5
AF
  8
1
  6
CONTINUOUS
 62
     7
 10
-100.7807943391683
 20
148.4264568905917
 30
0.0
 40
1.324847813457462
 50
239.9145977092908
 51
268.4462346363127
  0
POLYLINE
  5
B0
  8
1
  6
CONTINUOUS
 62
     7
 66
     1
 10
0.0
 20
0.0
 30
0.0
  0
VERTEX
  5
3B6
  8
1
  6
CONTINUOUS
 62
     7
 10
-101.4449276960477
 20
147.2800936789074
 30
0.0
  0
VERTEX
  5
3B7
  8
1
  6
CONTINUOUS
 62
     7
 10
-101.534733545686
 20
147.3422572125164
 30
0.0
  0
VERTEX
  5
3B8
  8
1
  6
CONTINUOUS
 62
     7
 10
-101.6117565632522
 20
147.4115388528448
 30
0.0
  0
VERTEX
  5
3B9
  8
1
  6
CONTINUOUS
 62
     7
 10
-101.6910030362164
 20
147.5114957890349
 30
0.0
  0
VERTEX
  5
3BA
  8
1
  6
CONTINUOUS
 62
     7
 10
-101.7407901387764
 20
147.61296939944
 30
0.0
  0
VERTEX
  5
3BB
  8
1
  6
CONTINUOUS
 62
     7
 10
-101.7510749378098
 20
147.6456490852137
 30
0.0
  0
SEQEND
  5
7B7
  8
1
  6
CONTINUOUS
 62
     7
  0
LINE
  5
B1
  8
1
  6
CONTINUOUS
 62
     7
 10
-101.7667799676453
 20
147.7614298821089
 30
0.0
 11
-101.7667799676453
 21
150.6457439330049
 31
0.0
  0
LINE
  5
B2
  8
1
  6
CONTINUOUS
 62
     7
 10
-101.7510749378098
 20
147.6456490852137
 30
0.0
 11
-101.7667799676452
 21
147.7614298588148
 31
0.0
  0
POLYLINE
  5
B3
  8
1
  6
CONTINUOUS
 62
     7
 66
     1
 10
0.0
 20
0.0
 30
0.0
  0
VERTEX
  5
3BC
  8
1
  6
CONTINUOUS
 62
     7
 10
-101.7511371318226
 20
164.711020172639
 30
0.0
  0
VERTEX
  5
3BD
  8
1
  6
CONTINUOUS
 62
     7
 10
-101.7060132127861
 20
164.8202206780125
 30
0.0
  0
VERTEX
  5
3BE
  8
1
  6
CONTINUOUS
 62
     7
 10
-101.6341361579181
 20
164.9210987602936
 30
0.0
  0
VERTEX
  5
3BF
  8
1
  6
CONTINUOUS
 62
     7
 10
-101.5616429298838
 20
164.9925409067844
 30
0.0
  0
VERTEX
  5
3C0
  8
1
  6
CONTINUOUS
 62
     7
 10
-101.4758521293962
 20
165.0571900784339
 30
0.0
  0
VERTEX
  5
3C1
  8
1
  6
CONTINUOUS
 62
     7
 10
-101.3783668005286
 20
165.1140923646559
 30
0.0
  0
SEQEND
  5
7B8
  8
1
  6
CONTINUOUS
 62
     7
  0
ARC
  5
B4
  8
1
  6
CONTINUOUS
 62
     7
 10
-100.7739597709752
 20
163.893922156973
 30
0.0
 40
1.361661923199232
 50
91.7994518340983
 51
116.3513532006046
  0
LINE
  5
B5
  8
1
  6
CONTINUOUS
 62
     7
 10
-101.7667832638976
 20
144.9491420959645
 30
0.0
 11
-101.7667831726319
 21
147.6339040759667
 31
0.0
  0
LINE
  5
B6
  8
1
  6
CONTINUOUS
 62
     7
 10
-101.7667831726319
 20
147.6339040759667
 30
0.0
 11
-101.7667831603813
 21
147.7779302084145
 31
0.0
  0
LINE
  5
B7
  8
1
  6
CONTINUOUS
 62
     7
 10
-101.7667790643805
 20
167.4077577350936
 30
0.0
 11
-101.7624580136973
 21
167.4272162639253
 31
0.0
  0
LINE
  5
B8
  8
1
  6
CONTINUOUS
 62
     7
 10
-101.7667791678388
 20
164.5789401016987
 30
0.0
 11
-101.7667791708478
 21
164.7243183454345
 31
0.0
  0
LINE
  5
B9
  8
1
  6
CONTINUOUS
 62
     7
 10
-101.7667791708478
 20
164.7243183454345
 30
0.0
 11
-101.7667790643223
 21
167.4077636819001
 31
0.0
  0
LINE
  5
BA
  8
1
  6
CONTINUOUS
 62
     7
 10
-101.7503923076585
 20
167.5633246168803
 30
0.0
 11
-101.7667799676452
 21
167.4266266492261
 31
0.0
  0
ARC
  5
BB
  8
1
  6
CONTINUOUS
 62
     7
 10
-100.7816358078269
 20
166.9439214838049
 30
0.0
 40
1.237003834955904
 50
91.62514232735498
 51
117.0284805373599
  0
POLYLINE
  5
BC
  8
1
  6
CONTINUOUS
 62
     7
 66
     1
 10
0.0
 20
0.0
 30
0.0
  0
VERTEX
  5
3C2
  8
1
  6
CONTINUOUS
 62
     7
 10
-101.3437715975802
 20
168.0458206813606
 30
0.0
  0
VERTEX
  5
3C3
  8
1
  6
CONTINUOUS
 62
     7
 10
-101.4446729040837
 20
167.9844207879597
 30
0.0
  0
VERTEX
  5
3C4
  8
1
  6
CONTINUOUS
 62
     7
 10
-101.5345340979259
 20
167.9130397550809
 30
0.0
  0
VERTEX
  5
3C5
  8
1
  6
CONTINUOUS
 62
     7
 10
-101.6116026570304
 20
167.8328911653536
 30
0.0
  0
VERTEX
  5
3C6
  8
1
  6
CONTINUOUS
 62
     7
 10
-101.6739668085465
 20
167.7460490741327
 30
0.0
  0
VERTEX
  5
3C7
  8
1
  6
CONTINUOUS
 62
     7
 10
-101.730917425403
 20
167.6279808873569
 30
0.0
  0
VERTEX
  5
3C8
  8
1
  6
CONTINUOUS
 62
     7
 10
-101.7503923076585
 20
167.5633246168803
 30
0.0
  0
SEQEND
  5
7B9
  8
1
  6
CONTINUOUS
 62
     7
  0
LINE
  5
BD
  8
1
  6
CONTINUOUS
 62
     7
 10
-101.762481648091
 20
144.9297664765
 30
0.0
 11
-101.7667832638397
 21
144.9491388844565
 31
0.0
  0
POLYLINE
  5
BE
  8
1
  6
CONTINUOUS
 62
     7
 66
     1
 10
0.0
 20
0.0
 30
0.0
  0
VERTEX
  5
3C9
  8
1
  6
CONTINUOUS
 62
     7
 10
-101.7503704278704
 20
144.7935090318551
 30
0.0
  0
VERTEX
  5
3CA
  8
1
  6
CONTINUOUS
 62
     7
 10
-101.7059493098171
 20
144.669621879756
 30
0.0
  0
VERTEX
  5
3CB
  8
1
  6
CONTINUOUS
 62
     7
 10
-101.6549679792914
 20
144.5814371005488
 30
0.0
  0
VERTEX
  5
3CC
  8
1
  6
CONTINUOUS
 62
     7
 10
-101.5871888767463
 20
144.4961788033695
 30
0.0
  0
VERTEX
  5
3CD
  8
1
  6
CONTINUOUS
 62
     7
 10
-101.5056128204569
 20
144.4188234275288
 30
0.0
  0
VERTEX
  5
3CE
  8
1
  6
CONTINUOUS
 62
     7
 10
-101.4117769127416
 20
144.3506564326786
 30
0.0
  0
VERTEX
  5
3CF
  8
1
  6
CONTINUOUS
 62
     7
 10
-101.3072574113286
 20
144.2927065480148
 30
0.0
  0
SEQEND
  5
7BA
  8
1
  6
CONTINUOUS
 62
     7
  0
ARC
  5
BF
  8
1
  6
CONTINUOUS
 62
     7
 10
-100.7842998776727
 20
145.4076576403104
 30
0.0
 40
1.231503357778062
 50
244.8715073042999
 51
268.4915896877234
  0
LINE
  5
C0
  8
1
  6
CONTINUOUS
 62
     7
 10
-101.7667799676452
 20
144.9302918386876
 30
0.0
 11
-101.7503704278704
 21
144.7935090318551
 31
0.0
  0
LINE
  5
C1
  8
1
  6
CONTINUOUS
 62
     7
 10
-101.7667799676452
 20
169.0919065850398
 30
0.0
 11
-101.7517242913747
 21
169.2556354859538
 31
0.0
  0
LINE
  5
C2
  8
1
  6
CONTINUOUS
 62
     7
 10
-101.7667799676452
 20
167.426626618099
 30
0.0
 11
-101.7667799676452
 21
167.5492736503798
 31
0.0
  0
LINE
  5
C3
  8
1
  6
CONTINUOUS
 62
     7
 10
-101.7667799676452
 20
167.5492736503798
 30
0.0
 11
-101.7667799676453
 21
169.0919065711059
 31
0.0
  0
POLYLINE
  5
C4
  8
1
  6
CONTINUOUS
 62
     7
 66
     1
 10
0.0
 20
0.0
 30
0.0
  0
VERTEX
  5
3D0
  8
1
  6
CONTINUOUS
 62
     7
 10
-100.8167175845891
 20
142.3171426391797
 30
0.0
  0
VERTEX
  5
3D1
  8
1
  6
CONTINUOUS
 62
     7
 10
-100.8437391610518
 20
142.3187874543218
 30
0.0
  0
VERTEX
  5
3D2
  8
1
  6
CONTINUOUS
 62
     7
 10
-100.8721546983866
 20
142.3213019920287
 30
0.0
  0
VERTEX
  5
3D3
  8
1
  6
CONTINUOUS
 62
     7
 10
-100.9019295901128
 20
142.3247987403658
 30
0.0
  0
VERTEX
  5
3D4
  8
1
  6
CONTINUOUS
 62
     7
 10
-100.9330211788754
 20
142.3293945966468
 30
0.0
  0
VERTEX
  5
3D5
  8
1
  6
CONTINUOUS
 62
     7
 10
-100.9653778792949
 20
142.3352103978284
 30
0.0
  0
VERTEX
  5
3D6
  8
1
  6
CONTINUOUS
 62
     7
 10
-100.998938286421
 20
142.3423703656719
 30
0.0
  0
VERTEX
  5
3D7
  8
1
  6
CONTINUOUS
 62
     7
 10
-101.0336302780571
 20
142.3510014592523
 30
0.0
  0
VERTEX
  5
3D8
  8
1
  6
CONTINUOUS
 62
     7
 10
-101.0693701205043
 20
142.361232627617
 30
0.0
  0
VERTEX
  5
3D9
  8
1
  6
CONTINUOUS
 62
     7
 10
-101.1022044518542
 20
142.3718655270145
 30
0.0
  0
VERTEX
  5
3DA
  8
1
  6
CONTINUOUS
 62
     7
 10
-101.1357246518798
 20
142.3839811499256
 30
0.0
  0
VERTEX
  5
3DB
  8
1
  6
CONTINUOUS
 62
     7
 10
-101.1698433600309
 20
142.3976727105154
 30
0.0
  0
VERTEX
  5
3DC
  8
1
  6
CONTINUOUS
 62
     7
 10
-101.2044636998458
 20
142.4130322243839
 30
0.0
  0
VERTEX
  5
3DD
  8
1
  6
CONTINUOUS
 62
     7
 10
-101.2394788715938
 20
142.4301497564576
 30
0.0
  0
VERTEX
  5
3DE
  8
1
  6
CONTINUOUS
 62
     7
 10
-101.2741398467095
 20
142.4487573074842
 30
0.0
  0
VERTEX
  5
3DF
  8
1
  6
CONTINUOUS
 62
     7
 10
-101.3089478945048
 20
142.469224145224
 30
0.0
  0
VERTEX
  5
3E0
  8
1
  6
CONTINUOUS
 62
     7
 10
-101.3437720560042
 20
142.4916252772769
 30
0.0
  0
VERTEX
  5
3E1
  8
1
  6
CONTINUOUS
 62
     7
 10
-101.3784711241959
 20
142.516030511493
 30
0.0
  0
VERTEX
  5
3E2
  8
1
  6
CONTINUOUS
 62
     7
 10
-101.4121585843324
 20
142.5419131407056
 30
0.0
  0
VERTEX
  5
3E3
  8
1
  6
CONTINUOUS
 62
     7
 10
-101.4446732923876
 20
142.5691672245409
 30
0.0
  0
VERTEX
  5
3E4
  8
1
  6
CONTINUOUS
 62
     7
 10
-101.475949601522
 20
142.5977473862587
 30
0.0
  0
VERTEX
  5
3E5
  8
1
  6
CONTINUOUS
 62
     7
 10
-101.5059238310716
 20
142.6276054859787
 30
0.0
  0
VERTEX
  5
3E6
  8
1
  6
CONTINUOUS
 62
     7
 10
-101.5345344060619
 20
142.6586906914724
 30
0.0
  0
VERTEX
  5
3E7
  8
1
  6
CONTINUOUS
 62
     7
 10
-101.5617219940749
 20
142.6909495550285
 30
0.0
  0
VERTEX
  5
3E8
  8
1
  6
CONTINUOUS
 62
     7
 10
-101.5874296391621
 20
142.7243260963133
 30
0.0
  0
VERTEX
  5
3E9
  8
1
  6
CONTINUOUS
 62
     7
 10
-101.6116028924944
 20
142.7587618911361
 30
0.0
  0
VERTEX
  5
3EA
  8
1
  6
CONTINUOUS
 62
     7
 10
-101.6341899394441
 20
142.7941961660123
 30
0.0
  0
VERTEX
  5
3EB
  8
1
  6
CONTINUOUS
 62
     7
 10
-101.6551417227965
 20
142.8305658984089
 30
0.0
  0
VERTEX
  5
3EC
  8
1
  6
CONTINUOUS
 62
     7
 10
-101.6739669634243
 20
142.8668976536808
 30
0.0
  0
VERTEX
  5
3ED
  8
1
  6
CONTINUOUS
 62
     7
 10
-101.6909213980541
 20
142.9034723288465
 30
0.0
  0
VERTEX
  5
3EE
  8
1
  6
CONTINUOUS
 62
     7
 10
-101.7060387036953
 20
142.9402005750654
 30
0.0
  0
VERTEX
  5
3EF
  8
1
  6
CONTINUOUS
 62
     7
 10
-101.7193568048149
 20
142.9769972455734
 30
0.0
  0
VERTEX
  5
3F0
  8
1
  6
CONTINUOUS
 62
     7
 10
-101.730917478364
 20
143.0137814731211
 30
0.0
  0
VERTEX
  5
3F1
  8
1
  6
CONTINUOUS
 62
     7
 10
-101.7407659685673
 20
143.0504767227102
 30
0.0
  0
VERTEX
  5
3F2
  8
1
  6
CONTINUOUS
 62
     7
 10
-101.7503923299689
 20
143.0942922592479
 30
0.0
  0
VERTEX
  5
3F3
  8
1
  6
CONTINUOUS
 62
     7
 10
-101.7516914960385
 20
143.1011409292963
 30
0.0
  0
SEQEND
  5
7BB
  8
1
  6
CONTINUOUS
 62
     7
  0
LINE
  5
C5
  8
1
  6
CONTINUOUS
 62
     7
 10
-101.7667799676453
 20
143.2650427483458
 30
0.0
 11
-101.7667799676453
 21
144.9302918508312
 31
0.0
  0
LINE
  5
C6
  8
1
  6
CONTINUOUS
 62
     7
 10
-101.7516914960385
 20
143.1011409292963
 30
0.0
 11
-101.7667799676452
 21
143.2650427126042
 31
0.0
  0
POLYLINE
  5
C7
  8
1
  6
CONTINUOUS
 62
     7
 66
     1
 10
0.0
 20
0.0
 30
0.0
  0
VERTEX
  5
3F4
  8
1
  6
CONTINUOUS
 62
     7
 10
-101.7517242913747
 20
169.2556354859538
 30
0.0
  0
VERTEX
  5
3F5
  8
1
  6
CONTINUOUS
 62
     7
 10
-101.750370427602
 20
169.2627740840031
 30
0.0
  0
VERTEX
  5
3F6
  8
1
  6
CONTINUOUS
 62
     7
 10
-101.7407301466136
 20
169.3066233507839
 30
0.0
  0
VERTEX
  5
3F7
  8
1
  6
CONTINUOUS
 62
     7
 10
-101.7308669245393
 20
169.343347658525
 30
0.0
  0
VERTEX
  5
3F8
  8
1
  6
CONTINUOUS
 62
     7
 10
-101.7192884568993
 20
169.3801615900354
 30
0.0
  0
VERTEX
  5
3F9
  8
1
  6
CONTINUOUS
 62
     7
 10
-101.7059493092226
 20
169.4169883837487
 30
0.0
  0
VERTEX
  5
3FA
  8
1
  6
CONTINUOUS
 62
     7
 10
-101.6908075271888
 20
169.4537469240877
 30
0.0
  0
VERTEX
  5
3FB
  8
1
  6
CONTINUOUS
 62
     7
 10
-101.6738250241803
 20
169.4903517942141
 30
0.0
  0
VERTEX
  5
3FC
  8
1
  6
CONTINUOUS
 62
     7
 10
-101.6549679786943
 20
169.526713353655
 30
0.0
  0
VERTEX
  5
3FD
  8
1
  6
CONTINUOUS
 62
     7
 10
-101.6339943867602
 20
169.5630890100847
 30
0.0
  0
VERTEX
  5
3FE
  8
1
  6
CONTINUOUS
 62
     7
 10
-101.6113849652874
 20
169.5985278547516
 30
0.0
  0
VERTEX
  5
3FF
  8
1
  6
CONTINUOUS
 62
     7
 10
-101.5871888744041
 20
169.6329668366405
 30
0.0
  0
VERTEX
  5
400
  8
1
  6
CONTINUOUS
 62
     7
 10
-101.5614580326609
 20
169.6663451598528
 30
0.0
  0
VERTEX
  5
401
  8
1
  6
CONTINUOUS
 62
     7
 10
-101.5342469934145
 20
169.6986043838469
 30
0.0
  0
VERTEX
  5
402
  8
1
  6
CONTINUOUS
 62
     7
 10
-101.505612817348
 20
169.7296885179783
 30
0.0
  0
VERTEX
  5
403
  8
1
  6
CONTINUOUS
 62
     7
 10
-101.475614941427
 20
169.7595441102183
 30
0.0
  0
VERTEX
  5
404
  8
1
  6
CONTINUOUS
 62
     7
 10
-101.4443150446019
 20
169.7881203299492
 30
0.0
  0
VERTEX
  5
405
  8
1
  6
CONTINUOUS
 62
     7
 10
-101.4117769105626
 20
169.8153690447442
 30
0.0
  0
VERTEX
  5
406
  8
1
  6
CONTINUOUS
 62
     7
 10
-101.378066287856
 20
169.841244891055
 30
0.0
  0
VERTEX
  5
407
  8
1
  6
CONTINUOUS
 62
     7
 10
-101.3427233974682
 20
169.8660588607065
 30
0.0
  0
VERTEX
  5
408
  8
1
  6
CONTINUOUS
 62
     7
 10
-101.307257409764
 20
169.8887949683978
 30
0.0
  0
VERTEX
  5
409
  8
1
  6
CONTINUOUS
 62
     7
 10
-101.2718172241475
 20
169.9095274307885
 30
0.0
  0
VERTEX
  5
40A
  8
1
  6
CONTINUOUS
 62
     7
 10
-101.236540691291
 20
169.9283360068152
 30
0.0
  0
VERTEX
  5
40B
  8
1
  6
CONTINUOUS
 62
     7
 10
-101.2015547965408
 20
169.9453049803838
 30
0.0
  0
VERTEX
  5
40C
  8
1
  6
CONTINUOUS
 62
     7
 10
-101.1675891970164
 20
169.9602653131728
 30
0.0
  0
VERTEX
  5
40D
  8
1
  6
CONTINUOUS
 62
     7
 10
-101.1341168201008
 20
169.9736216657977
 30
0.0
  0
VERTEX
  5
40E
  8
1
  6
CONTINUOUS
 62
     7
 10
-101.1012290134258
 20
169.9854615634864
 30
0.0
  0
VERTEX
  5
40F
  8
1
  6
CONTINUOUS
 62
     7
 10
-101.0690082636528
 20
169.9958736023693
 30
0.0
  0
VERTEX
  5
410
  8
1
  6
CONTINUOUS
 62
     7
 10
-101.0332970787401
 20
170.0060852599739
 30
0.0
  0
VERTEX
  5
411
  8
1
  6
CONTINUOUS
 62
     7
 10
-100.9986387502052
 20
170.014698471275
 30
0.0
  0
VERTEX
  5
412
  8
1
  6
CONTINUOUS
 62
     7
 10
-100.9651168880242
 20
170.0218424668244
 30
0.0
  0
VERTEX
  5
413
  8
1
  6
CONTINUOUS
 62
     7
 10
-100.9328034778064
 20
170.0276444484102
 30
0.0
  0
VERTEX
  5
414
  8
1
  6
CONTINUOUS
 62
     7
 10
-100.9017597800693
 20
170.0322288414946
 30
0.0
  0
VERTEX
  5
415
  8
1
  6
CONTINUOUS
 62
     7
 10
-100.8720372325331
 20
170.0357166478627
 30
0.0
  0
VERTEX
  5
416
  8
1
  6
CONTINUOUS
 62
     7
 10
-100.8436783458642
 20
170.0382248912142
 30
0.0
  0
VERTEX
  5
417
  8
1
  6
CONTINUOUS
 62
     7
 10
-100.8167175845891
 20
170.0398661482147
 30
0.0
  0
SEQEND
  5
7BC
  8
1
  6
CONTINUOUS
 62
     7
  0
LINE
  5
C8
  8
1
  6
CONTINUOUS
 62
     7
 10
-101.7667905802747
 20
170.1036030725161
 30
0.0
 11
-101.7623885775058
 21
170.162656244547
 31
0.0
  0
LINE
  5
C9
  8
1
  6
CONTINUOUS
 62
     7
 10
-101.7667906837372
 20
169.0681698122292
 30
0.0
 11
-101.7667906858005
 21
169.1150097088118
 31
0.0
  0
LINE
  5
CA
  8
1
  6
CONTINUOUS
 62
     7
 10
-101.7667906858005
 20
169.1150097088118
 30
0.0
 11
-101.7667906905671
 21
169.2745839435931
 31
0.0
  0
LINE
  5
CB
  8
1
  6
CONTINUOUS
 62
     7
 10
-101.7667906905671
 20
169.2745839435931
 30
0.0
 11
-101.7667905802207
 21
170.1036085127453
 31
0.0
  0
LINE
  5
CC
  8
1
  6
CONTINUOUS
 62
     7
 10
-101.7667823038695
 20
142.2533734461962
 30
0.0
 11
-101.7667822354589
 21
143.0819004238192
 31
0.0
  0
LINE
  5
CD
  8
1
  6
CONTINUOUS
 62
     7
 10
-101.7667822354589
 20
143.0819004238192
 30
0.0
 11
-101.7667822300255
 21
143.1152190704601
 31
0.0
  0
LINE
  5
CE
  8
1
  6
CONTINUOUS
 62
     7
 10
-101.7667822300255
 20
143.1152190704601
 30
0.0
 11
-101.7667822003525
 21
143.2887636495291
 31
0.0
  0
LINE
  5
CF
  8
1
  6
CONTINUOUS
 62
     7
 10
-101.7474569339372
 20
170.320810448512
 30
0.0
 11
-101.7667799676451
 21
170.1282016550631
 31
0.0
  0
POLYLINE
  5
D0
  8
1
  6
CONTINUOUS
 62
     7
 66
     1
 10
0.0
 20
0.0
 30
0.0
  0
VERTEX
  5
418
  8
1
  6
CONTINUOUS
 62
     7
 10
-100.816717584589
 20
171.1106790169607
 30
0.0
  0
VERTEX
  5
419
  8
1
  6
CONTINUOUS
 62
     7
 10
-100.8437752243796
 20
171.1089910810611
 30
0.0
  0
VERTEX
  5
41A
  8
1
  6
CONTINUOUS
 62
     7
 10
-100.8722249562771
 20
171.106442212131
 30
0.0
  0
VERTEX
  5
41B
  8
1
  6
CONTINUOUS
 62
     7
 10
-100.9020320828697
 20
171.1029111623633
 30
0.0
  0
VERTEX
  5
41C
  8
1
  6
CONTINUOUS
 62
     7
 10
-100.9331538489958
 20
171.098271915325
 30
0.0
  0
VERTEX
  5
41D
  8
1
  6
CONTINUOUS
 62
     7
 10
-100.9655385660342
 20
171.092394185657
 30
0.0
  0
VERTEX
  5
41E
  8
1
  6
CONTINUOUS
 62
     7
 10
-100.9991247220222
 20
171.0851440102701
 30
0.0
  0
VERTEX
  5
41F
  8
1
  6
CONTINUOUS
 62
     7
 10
-101.0338400858684
 20
171.0763844390778
 30
0.0
  0
VERTEX
  5
420
  8
1
  6
CONTINUOUS
 62
     7
 10
-101.0696008152066
 20
171.0659763330831
 30
0.0
  0
VERTEX
  5
421
  8
1
  6
CONTINUOUS
 62
     7
 10
-101.1024516630561
 20
171.0551352669033
 30
0.0
  0
VERTEX
  5
422
  8
1
  6
CONTINUOUS
 62
     7
 10
-101.1359862261148
 20
171.0427567978438
 30
0.0
  0
VERTEX
  5
423
  8
1
  6
CONTINUOUS
 62
     7
 10
-101.1701170757193
 20
171.0287402260995
 30
0.0
  0
VERTEX
  5
424
  8
1
  6
CONTINUOUS
 62
     7
 10
-101.2047472737979
 20
171.0129860965941
 30
0.0
  0
VERTEX
  5
425
  8
1
  6
CONTINUOUS
 62
     7
 10
-101.2397699672516
 20
170.9953970053664
 30
0.0
  0
VERTEX
  5
426
  8
1
  6
CONTINUOUS
 62
     7
 10
-101.274436013445
 20
170.9762444739874
 30
0.0
  0
VERTEX
  5
427
  8
1
  6
CONTINUOUS
 62
     7
 10
-101.3092468067559
 20
170.9551449201286
 30
0.0
  0
VERTEX
  5
428
  8
1
  6
CONTINUOUS
 62
     7
 10
-101.3440713711159
 20
170.9320170201889
 30
0.0
  0
VERTEX
  5
429
  8
1
  6
CONTINUOUS
 62
     7
 10
-101.3787684969395
 20
170.9067849942291
 30
0.0
  0
VERTEX
  5
42A
  8
1
  6
CONTINUOUS
 62
     7
 10
-101.4124337621131
 20
170.8800063063391
 30
0.0
  0
VERTEX
  5
42B
  8
1
  6
CONTINUOUS
 62
     7
 10
-101.4449275756136
 20
170.8517761192672
 30
0.0
  0
VERTEX
  5
42C
  8
1
  6
CONTINUOUS
 62
     7
 10
-101.4761842583624
 20
170.8221426845186
 30
0.0
  0
VERTEX
  5
42D
  8
1
  6
CONTINUOUS
 62
     7
 10
-101.5061400846907
 20
170.7911572363988
 30
0.0
  0
VERTEX
  5
42E
  8
1
  6
CONTINUOUS
 62
     7
 10
-101.5347334223059
 20
170.7588739188546
 30
0.0
  0
VERTEX
  5
42F
  8
1
  6
CONTINUOUS
 62
     7
 10
-101.5619048696738
 20
170.725349705791
 30
0.0
  0
VERTEX
  5
430
  8
1
  6
CONTINUOUS
 62
     7
 10
-101.5875973905036
 20
170.6906443149341
 30
0.0
  0
VERTEX
  5
431
  8
1
  6
CONTINUOUS
 62
     7
 10
-101.6117564450277
 20
170.6548201153305
 30
0.0
  0
VERTEX
  5
432
  8
1
  6
CONTINUOUS
 62
     7
 10
-101.6343301177691
 20
170.6179420285826
 30
0.0
  0
VERTEX
  5
433
  8
1
  6
CONTINUOUS
 62
     7
 10
-101.6552692414898
 20
170.580077423936
 30
0.0
  0
VERTEX
  5
434
  8
1
  6
CONTINUOUS
 62
     7
 10
-101.6740699079263
 20
170.5422699218477
 30
0.0
  0
VERTEX
  5
435
  8
1
  6
CONTINUOUS
 62
     7
 10
-101.6910029387056
 20
170.5042041652011
 30
0.0
  0
VERTEX
  5
436
  8
1
  6
CONTINUOUS
 62
     7
 10
-101.7061018446903
 20
170.4659761497817
 30
0.0
  0
VERTEX
  5
437
  8
1
  6
CONTINUOUS
 62
     7
 10
-101.7194043699613
 20
170.4276773951861
 30
0.0
  0
VERTEX
  5
438
  8
1
  6
CONTINUOUS
 62
     7
 10
-101.7309520991598
 20
170.3893948597608
 30
0.0
  0
VERTEX
  5
439
  8
1
  6
CONTINUOUS
 62
     7
 10
-101.7407900744852
 20
170.3512108819365
 30
0.0
  0
VERTEX
  5
43A
  8
1
  6
CONTINUOUS
 62
     7
 10
-101.7474569339372
 20
170.320810448512
 30
0.0
  0
SEQEND
  5
7BD
  8
1
  6
CONTINUOUS
 62
     7
  0
LINE
  5
D1
  8
1
  6
CONTINUOUS
 62
     7
 10
-101.7625961500133
 20
142.1960135557434
 30
0.0
 11
-101.7667823038098
 21
142.2533702158788
 31
0.0
  0
POLYLINE
  5
D2
  8
1
  6
CONTINUOUS
 62
     7
 66
     1
 10
0.0
 20
0.0
 30
0.0
  0
VERTEX
  5
43B
  8
1
  6
CONTINUOUS
 62
     7
 10
-101.747393437197
 20
142.0358685059637
 30
0.0
  0
VERTEX
  5
43C
  8
1
  6
CONTINUOUS
 62
     7
 10
-101.7407545650045
 20
142.005631139716
 30
0.0
  0
VERTEX
  5
43D
  8
1
  6
CONTINUOUS
 62
     7
 10
-101.730901974815
 20
141.9674184113235
 30
0.0
  0
VERTEX
  5
43E
  8
1
  6
CONTINUOUS
 62
     7
 10
-101.7193365927371
 20
141.9291065348684
 30
0.0
  0
VERTEX
  5
43F
  8
1
  6
CONTINUOUS
 62
     7
 10
-101.7060131882919
 20
141.8907780922624
 30
0.0
  0
VERTEX
  5
440
  8
1
  6
CONTINUOUS
 62
     7
 10
-101.6908900013174
 20
141.8525203084155
 30
0.0
  0
VERTEX
  5
441
  8
1
  6
CONTINUOUS
 62
     7
 10
-101.6739291272842
 20
141.8144249925337
 30
0.0
  0
VERTEX
  5
442
  8
1
  6
CONTINUOUS
 62
     7
 10
-101.6550969123625
 20
141.7765884528379
 30
0.0
  0
VERTEX
  5
443
  8
1
  6
CONTINUOUS
 62
     7
 10
-101.6341361039645
 20
141.7387195706127
 30
0.0
  0
VERTEX
  5
444
  8
1
  6
CONTINUOUS
 62
     7
 10
-101.6115401863555
 20
141.7018387275391
 30
0.0
  0
VERTEX
  5
445
  8
1
  6
CONTINUOUS
 62
     7
 10
-101.5873584308286
 20
141.6660133222284
 30
0.0
  0
VERTEX
  5
446
  8
1
  6
CONTINUOUS
 62
     7
 10
-101.5616428578267
 20
141.6313082989362
 30
0.0
  0
VERTEX
  5
447
  8
1
  6
CONTINUOUS
 62
     7
 10
-101.5344481125828
 20
141.597786042665
 30
0.0
  0
VERTEX
  5
448
  8
1
  6
CONTINUOUS
 62
     7
 10
-101.5058313369469
 20
141.5655062804388
 30
0.0
  0
VERTEX
  5
449
  8
1
  6
CONTINUOUS
 62
     7
 10
-101.4758520377063
 20
141.5345259888626
 30
0.0
  0
VERTEX
  5
44A
  8
1
  6
CONTINUOUS
 62
     7
 10
-101.4445719517096
 20
141.5048993080709
 30
0.0
  0
VERTEX
  5
44B
  8
1
  6
CONTINUOUS
 62
     7
 10
-101.4120549081017
 20
141.4766774621484
 30
0.0
  0
VERTEX
  5
44C
  8
1
  6
CONTINUOUS
 62
     7
 10
-101.3783666879845
 20
141.4499086860979
 30
0.0
  0
VERTEX
  5
44D
  8
1
  6
CONTINUOUS
 62
     7
 10
-101.3430257966044
 20
141.4242573156045
 30
0.0
  0
VERTEX
  5
44E
  8
1
  6
CONTINUOUS
 62
     7
 10
-101.3075593500641
 20
141.4007874246222
 30
0.0
  0
VERTEX
  5
44F
  8
1
  6
CONTINUOUS
 62
     7
 10
-101.2721162506377
 20
141.3794184538845
 30
0.0
  0
VERTEX
  5
450
  8
1
  6
CONTINUOUS
 62
     7
 10
-101.236834367619
 20
141.3600639358386
 30
0.0
  0
VERTEX
  5
451
  8
1
  6
CONTINUOUS
 62
     7
 10
-101.2018407188094
 20
141.3426325881881
 30
0.0
  0
VERTEX
  5
452
  8
1
  6
CONTINUOUS
 62
     7
 10
-101.1678652066965
 20
141.3272924979559
 30
0.0
  0
VERTEX
  5
453
  8
1
  6
CONTINUOUS
 62
     7
 10
-101.1343806926563
 20
141.3136230530817
 30
0.0
  0
VERTEX
  5
454
  8
1
  6
CONTINUOUS
 62
     7
 10
-101.1014785834923
 20
141.3015296560314
 30
0.0
  0
VERTEX
  5
455
  8
1
  6
CONTINUOUS
 62
     7
 10
-101.0692414311078
 20
141.2909165986764
 30
0.0
  0
VERTEX
  5
456
  8
1
  6
CONTINUOUS
 62
     7
 10
-101.0335091463338
 20
141.2805311974315
 30
0.0
  0
VERTEX
  5
457
  8
1
  6
CONTINUOUS
 62
     7
 10
-100.9988272032708
 20
141.2717924825485
 30
0.0
  0
VERTEX
  5
458
  8
1
  6
CONTINUOUS
 62
     7
 10
-100.9652793215413
 20
141.2645610125398
 30
0.0
  0
VERTEX
  5
459
  8
1
  6
CONTINUOUS
 62
     7
 10
-100.9329375966194
 20
141.2586995764238
 30
0.0
  0
VERTEX
  5
45A
  8
1
  6
CONTINUOUS
 62
     7
 10
-100.9018633969682
 20
141.2540739920247
 30
0.0
  0
VERTEX
  5
45B
  8
1
  6
CONTINUOUS
 62
     7
 10
-100.8721082644221
 20
141.2505537965339
 30
0.0
  0
VERTEX
  5
45C
  8
1
  6
CONTINUOUS
 62
     7
 10
-100.8437148082454
 20
141.248012837225
 30
0.0
  0
VERTEX
  5
45D
  8
1
  6
CONTINUOUS
 62
     7
 10
-100.816717584589
 20
141.2463297704337
 30
0.0
  0
SEQEND
  5
7BE
  8
1
  6
CONTINUOUS
 62
     7
  0
LINE
  5
D3
  8
1
  6
CONTINUOUS
 62
     7
 10
-101.7667799676452
 20
142.2287896797546
 30
0.0
 11
-101.747393437197
 21
142.0358685059637
 31
0.0
  0
LINE
  5
D4
  8
1
  6
CONTINUOUS
 62
     7
 10
-101.766779967645
 20
170.1282019790706
 30
0.0
 11
-101.766779967645
 21
170.2010531106175
 31
0.0
  0
LINE
  5
D5
  8
1
  6
CONTINUOUS
 62
     7
 10
-101.7667799676452
 20
142.1559536925718
 30
0.0
 11
-101.7667799676452
 21
142.228789694804
 31
0.0
  0
LINE
  5
D6
  8
1
  6
CONTINUOUS
 62
     9
 10
-80.6667038079742
 20
153.6810513227511
 30
0.0
 11
-79.66670380797419
 21
153.6810513227511
 31
0.0
  0
LINE
  5
D7
  8
1
  6
CONTINUOUS
 62
     7
 10
-79.66670380797419
 20
152.1810513227511
 30
0.0
 11
-80.66670380797419
 21
152.1810513227511
 31
0.0
  0
LINE
  5
D8
  8
1
  6
CONTINUOUS
 62
     7
 10
-80.66670380797419
 20
152.1810513227511
 30
0.0
 11
-80.66670380797419
 21
153.6810513227511
 31
0.0
  0
LINE
  5
D9
  8
1
  6
CONTINUOUS
 62
     7
 10
-79.6667038079742
 20
153.6810513227511
 30
0.0
 11
-79.6667038079742
 21
152.1810513227511
 31
0.0
  0
LINE
  5
DA
  8
1
  6
CONTINUOUS
 62
     7
 10
-80.66670380797419
 20
160.1810513227511
 30
0.0
 11
-79.6667038079742
 21
160.1810513227511
 31
0.0
  0
LINE
  5
DB
  8
1
  6
CONTINUOUS
 62
     9
 10
-79.66670380797419
 20
158.6810513227511
 30
0.0
 11
-80.6667038079742
 21
158.6810513227511
 31
0.0
  0
LINE
  5
DC
  8
1
  6
CONTINUOUS
 62
     7
 10
-80.66670380797419
 20
158.6810513227511
 30
0.0
 11
-80.66670380797419
 21
160.1810513227511
 31
0.0
  0
LINE
  5
DD
  8
1
  6
CONTINUOUS
 62
     7
 10
-79.6667038079742
 20
160.1810513227511
 30
0.0
 11
-79.6667038079742
 21
158.6810513227511
 31
0.0
  0
LINE
  5
DE
  8
1
  6
CONTINUOUS
 62
     7
 10
-80.6667038079742
 20
158.6810513227511
 30
0.0
 11
-80.6667038079742
 21
153.6810513227511
 31
0.0
  0
LINE
  5
DF
  8
1
  6
CONTINUOUS
 62
     7
 10
-79.66670380797419
 20
158.6810513227511
 30
0.0
 11
-79.66670380797419
 21
153.6810513227511
 31
0.0
  0
LINE
  5
E0
  8
1
  6
CONTINUOUS
 62
     7
 10
-78.66670380797419
 20
154.1810513227511
 30
0.0
 11
-78.66670380797419
 21
160.1810513227511
 31
0.0
  0
LINE
  5
E1
  8
1
  6
CONTINUOUS
 62
     7
 10
-79.66670380797419
 20
152.1810513227511
 30
0.0
 11
-78.66670380797419
 21
154.1810513227511
 31
0.0
  0
LINE
  5
E2
  8
1
  6
CONTINUOUS
 62
     7
 10
-78.66670380797419
 20
160.1810513227511
 30
0.0
 11
-79.6667038079742
 21
160.1810513227511
 31
0.0
  0
LINE
  5
E3
  8
1
  6
CONTINUOUS
 62
     9
 10
-81.66670380797419
 20
152.1810513227511
 30
0.0
 11
-81.66670380797419
 21
160.1810513227511
 31
0.0
  0
LINE
  5
E4
  8
1
  6
CONTINUOUS
 62
     7
 10
-81.66670380797419
 20
152.1810513227511
 30
0.0
 11
-80.66670380797419
 21
152.1810513227511
 31
0.0
  0
LINE
  5
E5
  8
1
  6
CONTINUOUS
 62
     7
 10
-80.66670380797419
 20
160.1810513227511
 30
0.0
 11
-81.66670380797419
 21
160.1810513227511
 31
0.0
  0
LINE
  5
E6
  8
1
  6
CONTINUOUS
 62
     7
 10
-77.81172652322206
 20
153.8812784752298
 30
0.0
 11
-77.82876919789142
 21
155.834175560184
 31
0.0
  0
LINE
  5
E7
  8
1
  6
CONTINUOUS
 62
     9
 10
-77.82876919789142
 20
155.834175560184
 30
0.0
 11
-74.86670380797419
 21
155.834175560184
 31
0.0
  0
LINE
  5
E8
  8
1
  6
CONTINUOUS
 62
     7
 10
-74.86670380797419
 20
155.834175560184
 30
0.0
 11
-74.86670380797419
 21
151.9298315129688
 31
0.0
  0
LINE
  5
E9
  8
1
  6
CONTINUOUS
 62
     9
 10
-74.86670380797419
 20
151.9298315129688
 30
0.0
 11
-77.61658182699595
 21
151.9298315129688
 31
0.0
  0
LINE
  5
EA
  8
1
  6
CONTINUOUS
 62
     7
 10
-77.61658182699595
 20
151.9298315129688
 30
0.0
 11
-77.81172652322206
 21
153.8812784752298
 31
0.0
  0
LINE
  5
EB
  8
1
  6
CONTINUOUS
 62
     7
 10
-77.86015865713112
 20
160.9310513227511
 30
0.0
 11
-77.86670380797419
 21
160.1810513227511
 31
0.0
  0
LINE
  5
EC
  8
1
  6
CONTINUOUS
 62
     9
 10
-74.86670380797419
 20
160.9310513227511
 30
0.0
 11
-77.86015865713112
 21
160.9310513227511
 31
0.0
  0
LINE
  5
ED
  8
1
  6
CONTINUOUS
 62
     7
 10
-77.86670380797419
 20
160.1810513227511
 30
0.0
 11
-77.82876919789142
 21
155.834175560184
 31
0.0
  0
LINE
  5
EE
  8
1
  6
CONTINUOUS
 62
     7
 10
-74.86670380797419
 20
160.9310513227511
 30
0.0
 11
-74.86670380797419
 21
155.834175560184
 31
0.0
  0
LINE
  5
EF
  8
1
  6
CONTINUOUS
 62
     7
 10
-77.8427049215496
 20
162.9310513227511
 30
0.0
 11
-74.86670380797419
 21
162.9310513227511
 31
0.0
  0
LINE
  5
F0
  8
1
  6
CONTINUOUS
 62
     7
 10
-77.86015865713112
 20
160.9310513227511
 30
0.0
 11
-77.84270492154961
 21
162.9310513227511
 31
0.0
  0
LINE
  5
F1
  8
1
  6
CONTINUOUS
 62
     7
 10
-74.86670380797419
 20
162.9310513227511
 30
0.0
 11
-74.86670380797419
 21
160.9310513227511
 31
0.0
  0
LINE
  5
F2
  8
1
  6
CONTINUOUS
 62
     7
 10
-86.6667038079742
 20
165.5810513227511
 30
0.0
 11
-89.7667038079742
 21
165.5810513227511
 31
0.0
  0
LINE
  5
F3
  8
1
  6
CONTINUOUS
 62
     7
 10
-89.95258609191737
 20
165.7669336066943
 30
0.0
 11
-89.7667038079742
 21
165.5810513227511
 31
0.0
  0
LINE
  5
F4
  8
1
  6
CONTINUOUS
 62
     7
 10
-86.48082152403103
 20
165.7669336066943
 30
0.0
 11
-89.95258609191737
 21
165.7669336066943
 31
0.0
  0
LINE
  5
F5
  8
1
  6
CONTINUOUS
 62
     7
 10
-86.48082152403103
 20
165.7669336066943
 30
0.0
 11
-86.6667038079742
 21
165.5810513227511
 31
0.0
  0
LINE
  5
F6
  8
1
  6
CONTINUOUS
 62
     7
 10
-89.8945524211088
 20
156.1810513227511
 30
0.0
 11
-89.84873636520732
 21
150.9310513227511
 31
0.0
  0
LINE
  5
F7
  8
1
  6
CONTINUOUS
 62
     7
 10
-89.7667038079742
 20
146.7810513227511
 30
0.0
 11
-89.95258609191737
 21
146.5951690388079
 31
0.0
  0
LINE
  5
F8
  8
1
  6
CONTINUOUS
 62
     7
 10
-89.95258609191737
 20
146.5951690388079
 30
0.0
 11
-89.95258609191737
 21
165.7669336066943
 31
0.0
  0
LINE
  5
F9
  8
1
  6
CONTINUOUS
 62
     7
 10
-89.7667038079742
 20
165.5810513227511
 30
0.0
 11
-89.7667038079742
 21
163.3443762808222
 31
0.0
  0
LINE
  5
FA
  8
1
  6
CONTINUOUS
 62
     7
 10
-89.86706278756792
 20
161.9738177256062
 30
0.0
 11
-89.86706278756792
 21
163.388284919896
 31
0.0
  0
LINE
  5
FB
  8
1
  6
CONTINUOUS
 62
     7
 10
-89.7667038079742
 20
162.01772636468
 30
0.0
 11
-89.7667038079742
 21
150.3443762808222
 31
0.0
  0
LINE
  5
FC
  8
1
  6
CONTINUOUS
 62
     7
 10
-89.86706278756792
 20
148.9738177256062
 30
0.0
 11
-89.86706278756792
 21
150.388284919896
 31
0.0
  0
LINE
  5
FD
  8
1
  6
CONTINUOUS
 62
     7
 10
-89.7667038079742
 20
149.01772636468
 30
0.0
 11
-89.7667038079742
 21
146.7810513227511
 31
0.0
  0
LINE
  5
FE
  8
1
  6
CONTINUOUS
 62
     7
 10
-86.48082152403103
 20
146.5951690388079
 30
0.0
 11
-86.48082152403103
 21
165.7669336066943
 31
0.0
  0
LINE
  5
FF
  8
1
  6
CONTINUOUS
 62
     7
 10
-86.6667038079742
 20
146.7810513227511
 30
0.0
 11
-86.48082152403103
 21
146.5951690388079
 31
0.0
  0
LINE
  5
100
  8
1
  6
CONTINUOUS
 62
     7
 10
-86.6667038079742
 20
165.5810513227511
 30
0.0
 11
-86.6667038079742
 21
146.7810513227511
 31
0.0
  0
LINE
  5
101
  8
1
  6
CONTINUOUS
 62
     7
 10
-86.63048730664254
 20
156.1810513227511
 30
0.0
 11
-86.58467125074105
 21
161.4310513227511
 31
0.0
  0
LINE
  5
102
  8
1
  6
CONTINUOUS
 62
     7
 10
-86.48082152403103
 20
146.5951690388079
 30
0.0
 11
-89.95258609191737
 21
146.5951690388079
 31
0.0
  0
LINE
  5
103
  8
1
  6
CONTINUOUS
 62
     7
 10
-86.6667038079742
 20
146.7810513227511
 30
0.0
 11
-89.7667038079742
 21
146.7810513227511
 31
0.0
  0
LINE
  5
104
  8
1
  6
CONTINUOUS
 62
     9
 10
-84.56670380797419
 20
167.1810513227511
 30
0.0
 11
-91.7667038079742
 21
167.1810513227511
 31
0.0
  0
LINE
  5
105
  8
1
  6
CONTINUOUS
 62
     7
 10
-84.56670380797419
 20
145.1800512227311
 30
0.0
 11
-84.56670380797419
 21
167.1810513227511
 31
0.0
  0
LINE
  5
106
  8
1
  6
CONTINUOUS
 62
     9
 10
-91.7667038079742
 20
145.1800512227311
 30
0.0
 11
-84.56670380797419
 21
145.1800512227311
 31
0.0
  0
LINE
  5
107
  8
1
  6
CONTINUOUS
 62
     7
 10
-91.7667038079742
 20
145.1800512227311
 30
0.0
 11
-91.7667038079742
 21
146.247561380079
 31
0.0
  0
LINE
  5
108
  8
1
  6
CONTINUOUS
 62
     7
 10
-91.7667038079742
 20
146.247561380079
 30
0.0
 11
-91.7667038079742
 21
147.418539138924
 31
0.0
  0
LINE
  5
109
  8
1
  6
CONTINUOUS
 62
     7
 10
-91.7667038079742
 20
166.1064458286778
 30
0.0
 11
-91.7667038079742
 21
167.1810513227511
 31
0.0
  0
LINE
  5
10A
  8
1
  6
CONTINUOUS
 62
     7
 10
-86.6309185209894
 20
140.1804635926728
 30
0.0
 11
-86.6667038079742
 21
144.2810513227511
 31
0.0
  0
LINE
  5
10B
  8
1
  6
CONTINUOUS
 62
     7
 10
-86.6667038079742
 20
144.2810513227511
 30
0.0
 11
-89.7667038079742
 21
144.2810513227511
 31
0.0
  0
LINE
  5
10C
  8
1
  6
CONTINUOUS
 62
     7
 10
-89.7667038079742
 20
144.2810513227511
 30
0.0
 11
-89.7667038079742
 21
140.1804635926728
 31
0.0
  0
LINE
  5
10D
  8
1
  6
CONTINUOUS
 62
     7
 10
-89.7667038079742
 20
140.1804635926728
 30
0.0
 11
-91.7667038079742
 21
140.1804635926728
 31
0.0
  0
LINE
  5
10E
  8
1
  6
CONTINUOUS
 62
     7
 10
-84.56670380797419
 20
140.1810513227511
 30
0.0
 11
-84.56670380797419
 21
145.1800512227311
 31
0.0
  0
LINE
  5
10F
  8
1
  6
CONTINUOUS
 62
     7
 10
-84.56542157709363
 20
140.1804635926728
 30
0.0
 11
-84.56670380797419
 21
140.1810513227511
 31
0.0
  0
LINE
  5
110
  8
1
  6
CONTINUOUS
 62
     7
 10
-86.6309185209894
 20
140.1804635926728
 30
0.0
 11
-84.56542157709363
 21
140.1804635926728
 31
0.0
  0
LINE
  5
111
  8
1
  6
CONTINUOUS
 62
     7
 10
-91.7667038079742
 20
140.1804635926728
 30
0.0
 11
-91.7667038079742
 21
145.1800512227311
 31
0.0
  0
LINE
  5
112
  8
1
  6
CONTINUOUS
 62
     7
 10
-91.7667038079742
 20
172.1810513227511
 30
0.0
 11
-89.7667038079742
 21
172.1810513227511
 31
0.0
  0
LINE
  5
113
  8
1
  6
CONTINUOUS
 62
     7
 10
-89.7667038079742
 20
172.1810513227511
 30
0.0
 11
-89.7667038079742
 21
168.0810513227511
 31
0.0
  0
LINE
  5
114
  8
1
  6
CONTINUOUS
 62
     7
 10
-89.7667038079742
 20
168.0810513227511
 30
0.0
 11
-86.6667038079742
 21
168.0810513227511
 31
0.0
  0
LINE
  5
115
  8
1
  6
CONTINUOUS
 62
     7
 10
-86.6667038079742
 20
168.0810513227511
 30
0.0
 11
-86.6667038079742
 21
172.1810513227511
 31
0.0
  0
LINE
  5
116
  8
1
  6
CONTINUOUS
 62
     7
 10
-86.6667038079742
 20
172.1810513227511
 30
0.0
 11
-84.56670380797419
 21
172.1810513227511
 31
0.0
  0
LINE
  5
117
  8
1
  6
CONTINUOUS
 62
     7
 10
-84.56670380797419
 20
167.1810513227511
 30
0.0
 11
-84.56670380797419
 21
172.1810513227511
 31
0.0
  0
LINE
  5
118
  8
1
  6
CONTINUOUS
 62
     7
 10
-91.7667038079742
 20
167.1810513227511
 30
0.0
 11
-91.7667038079742
 21
172.1810513227511
 31
0.0
  0
LINE
  5
119
  8
1
  6
CONTINUOUS
 62
     9
 10
-82.56670380797419
 20
151.2810513227511
 30
0.0
 11
-79.66670380797419
 21
151.2810513227511
 31
0.0
  0
LINE
  5
11A
  8
1
  6
CONTINUOUS
 62
     7
 10
-82.56670380797419
 20
161.0810513227511
 30
0.0
 11
-82.56670380797419
 21
151.2810513227511
 31
0.0
  0
LINE
  5
11B
  8
1
  6
CONTINUOUS
 62
     9
 10
-79.66670380797419
 20
161.0810513227511
 30
0.0
 11
-82.56670380797419
 21
161.0810513227511
 31
0.0
  0
LINE
  5
11C
  8
1
  6
CONTINUOUS
 62
     7
 10
-79.66670380797419
 20
151.2810513227511
 30
0.0
 11
-79.66670380797419
 21
152.1810513227511
 31
0.0
  0
LINE
  5
11D
  8
1
  6
CONTINUOUS
 62
     7
 10
-79.66670380797419
 20
160.1810513227511
 30
0.0
 11
-79.66670380797419
 21
161.0810513227511
 31
0.0
  0
LINE
  5
11E
  8
1
  6
CONTINUOUS
 62
     7
 10
-82.56670380797419
 20
165.0810513227511
 30
0.0
 11
-80.86568329354054
 21
165.0810513227511
 31
0.0
  0
ARC
  5
11F
  8
1
  6
CONTINUOUS
 62
     7
 10
-83.8536363728713
 20
159.4138132296478
 30
0.0
 40
6.441104141372151
 50
49.45588290446208
 51
61.00919735204786
  0
POLYLINE
  5
120
  8
1
  6
CONTINUOUS
 62
     7
 66
     1
 10
0.0
 20
0.0
 30
0.0
  0
VERTEX
  5
45E
  8
1
  6
CONTINUOUS
 62
     7
 10
-80.73183147540264
 20
165.0478310448612
 30
0.0
  0
VERTEX
  5
45F
  8
1
  6
CONTINUOUS
 62
     7
 10
-80.84704498242341
 20
165.0800978366801
 30
0.0
  0
VERTEX
  5
460
  8
1
  6
CONTINUOUS
 62
     7
 10
-80.86568329354054
 20
165.0810513227511
 30
0.0
  0
SEQEND
  5
7BF
  8
1
  6
CONTINUOUS
 62
     7
  0
LINE
  5
121
  8
1
  6
CONTINUOUS
 62
     7
 10
-82.56670380797419
 20
161.0810513227511
 30
0.0
 11
-82.56670380797419
 21
165.0810513227511
 31
0.0
  0
LINE
  5
122
  8
1
  6
CONTINUOUS
 62
     7
 10
-79.66670380797419
 20
164.308444804854
 30
0.0
 11
-79.66670380797419
 21
161.0810513227511
 31
0.0
  0
LINE
  5
123
  8
1
  6
CONTINUOUS
 62
     7
 10
-80.86568329354054
 20
147.2810513227511
 30
0.0
 11
-80.75330154310468
 21
147.3058992240159
 31
0.0
  0
ARC
  5
124
  8
1
  6
CONTINUOUS
 62
     7
 10
-83.82906623376492
 20
152.9387834815113
 30
0.0
 40
6.41792127488742
 50
298.6361848471386
 51
310.4325967727241
  0
LINE
  5
125
  8
1
  6
CONTINUOUS
 62
     7
 10
-80.86568329354054
 20
147.2810513227511
 30
0.0
 11
-82.56670380797419
 21
147.2810513227511
 31
0.0
  0
LINE
  5
126
  8
1
  6
CONTINUOUS
 62
     7
 10
-82.56670380797419
 20
147.2810513227511
 30
0.0
 11
-82.56670380797419
 21
151.2810513227511
 31
0.0
  0
LINE
  5
127
  8
1
  6
CONTINUOUS
 62
     7
 10
-79.66670380797419
 20
151.2810513227511
 30
0.0
 11
-79.66670380797419
 21
148.0536578406482
 31
0.0
  0
LINE
  5
128
  8
1
  6
CONTINUOUS
 62
     9
 10
-77.47626940325269
 20
150.526707275536
 30
0.0
 11
-74.86670380797419
 21
150.526707275536
 31
0.0
  0
LINE
  5
129
  8
1
  6
CONTINUOUS
 62
     7
 10
-77.47626940325269
 20
150.526707275536
 30
0.0
 11
-77.61658182699595
 21
151.9298315129688
 31
0.0
  0
LINE
  5
12A
  8
1
  6
CONTINUOUS
 62
     7
 10
-74.86670380797419
 20
151.9298315129688
 30
0.0
 11
-74.86670380797419
 21
150.526707275536
 31
0.0
  0
LINE
  5
12B
  8
1
  6
CONTINUOUS
 62
     7
 10
-74.86670380797419
 20
149.4310513227511
 30
0.0
 11
-77.36670380797419
 21
149.4310513227511
 31
0.0
  0
LINE
  5
12C
  8
1
  6
CONTINUOUS
 62
     7
 10
-77.36670380797419
 20
149.4310513227511
 30
0.0
 11
-77.47626940325269
 21
150.526707275536
 31
0.0
  0
LINE
  5
12D
  8
1
  6
CONTINUOUS
 62
     7
 10
-74.86670380797419
 20
150.526707275536
 30
0.0
 11
-74.86670380797419
 21
149.4310513227511
 31
0.0
  0
LINE
  5
12E
  8
1
  6
CONTINUOUS
 62
     9
 10
-78.35923671910729
 20
159.6663561373118
 30
0.0
 11
-78.36672284716705
 21
160.1810513227511
 31
0.0
  0
LINE
  5
12F
  8
1
  6
CONTINUOUS
 62
     7
 10
-77.86670380797419
 20
160.1810513227511
 30
0.0
 11
-78.36672284716705
 21
160.1810513227511
 31
0.0
  0
POLYLINE
  5
130
  8
1
  6
CONTINUOUS
 62
     7
 66
     1
 10
0.0
 20
0.0
 30
0.0
  0
VERTEX
  5
461
  8
1
  6
CONTINUOUS
 62
     7
 10
-78.35923671910729
 20
159.6663561373118
 30
0.0
  0
VERTEX
  5
462
  8
1
  6
CONTINUOUS
 62
     7
 10
-78.33949158167313
 20
159.6663245630018
 30
0.0
  0
VERTEX
  5
463
  8
1
  6
CONTINUOUS
 62
     7
 10
-78.31978458658354
 20
159.6659809544383
 30
0.0
  0
VERTEX
  5
464
  8
1
  6
CONTINUOUS
 62
     7
 10
-78.30000885613403
 20
159.6653209101494
 30
0.0
  0
VERTEX
  5
465
  8
1
  6
CONTINUOUS
 62
     7
 10
-78.28034322798514
 20
159.6643494345384
 30
0.0
  0
VERTEX
  5
466
  8
1
  6
CONTINUOUS
 62
     7
 10
-78.26038485531461
 20
159.6630383232585
 30
0.0
  0
VERTEX
  5
467
  8
1
  6
CONTINUOUS
 62
     7
 10
-78.24061480642341
 20
159.6614124150083
 30
0.0
  0
VERTEX
  5
468
  8
1
  6
CONTINUOUS
 62
     7
 10
-78.22092353642695
 20
159.6594630209374
 30
0.0
  0
VERTEX
  5
469
  8
1
  6
CONTINUOUS
 62
     7
 10
-78.20149474001867
 20
159.6572101001176
 30
0.0
  0
VERTEX
  5
46A
  8
1
  6
CONTINUOUS
 62
     7
 10
-78.18305339913826
 20
159.6547606462471
 30
0.0
  0
VERTEX
  5
46B
  8
1
  6
CONTINUOUS
 62
     7
 10
-78.16491639166591
 20
159.6520475371736
 30
0.0
  0
VERTEX
  5
46C
  8
1
  6
CONTINUOUS
 62
     7
 10
-78.14682117651836
 20
159.649028921324
 30
0.0
  0
VERTEX
  5
46D
  8
1
  6
CONTINUOUS
 62
     7
 10
-78.1290826926355
 20
159.6457562943679
 30
0.0
  0
VERTEX
  5
46E
  8
1
  6
CONTINUOUS
 62
     7
 10
-78.11174134185025
 20
159.6422440026442
 30
0.0
  0
VERTEX
  5
46F
  8
1
  6
CONTINUOUS
 62
     7
 10
-78.09483752599549
 20
159.6385063924915
 30
0.0
  0
VERTEX
  5
470
  8
1
  6
CONTINUOUS
 62
     7
 10
-78.07810240452412
 20
159.6344821003882
 30
0.0
  0
VERTEX
  5
471
  8
1
  6
CONTINUOUS
 62
     7
 10
-78.06185355290843
 20
159.6302467730189
 30
0.0
  0
VERTEX
  5
472
  8
1
  6
CONTINUOUS
 62
     7
 10
-78.04609328530762
 20
159.6258069849255
 30
0.0
  0
VERTEX
  5
473
  8
1
  6
CONTINUOUS
 62
     7
 10
-78.03086439870283
 20
159.6211810785225
 30
0.0
  0
VERTEX
  5
474
  8
1
  6
CONTINUOUS
 62
     7
 10
-78.01609590637342
 20
159.6163505666056
 30
0.0
  0
VERTEX
  5
475
  8
1
  6
CONTINUOUS
 62
     7
 10
-78.00190519297331
 20
159.6113570762721
 30
0.0
  0
VERTEX
  5
476
  8
1
  6
CONTINUOUS
 62
     7
 10
-77.98805319864913
 20
159.6061118861925
 30
0.0
  0
VERTEX
  5
477
  8
1
  6
CONTINUOUS
 62
     7
 10
-77.97483862319426
 20
159.6007233511673
 30
0.0
  0
VERTEX
  5
478
  8
1
  6
CONTINUOUS
 62
     7
 10
-77.96220125551744
 20
159.5951686703753
 30
0.0
  0
VERTEX
  5
479
  8
1
  6
CONTINUOUS
 62
     7
 10
-77.95024305773062
 20
159.5894943597102
 30
0.0
  0
VERTEX
  5
47A
  8
1
  6
CONTINUOUS
 62
     7
 10
-77.93869572843765
 20
159.5835607100952
 30
0.0
  0
VERTEX
  5
47B
  8
1
  6
CONTINUOUS
 62
     7
 10
-77.92789513708989
 20
159.5775270506706
 30
0.0
  0
VERTEX
  5
47C
  8
1
  6
CONTINUOUS
 62
     7
 10
-77.91779327396617
 20
159.5713656803111
 30
0.0
  0
VERTEX
  5
47D
  8
1
  6
CONTINUOUS
 62
     7
 10
-77.90847652112762
 20
159.5651281951614
 30
0.0
  0
VERTEX
  5
47E
  8
1
  6
CONTINUOUS
 62
     7
 10
-77.8997942858223
 20
159.5586986046045
 30
0.0
  0
VERTEX
  5
47F
  8
1
  6
CONTINUOUS
 62
     7
 10
-77.89195528286261
 20
159.5522148160263
 30
0.0
  0
VERTEX
  5
480
  8
1
  6
CONTINUOUS
 62
     7
 10
-77.88492750740407
 20
159.5456447039828
 30
0.0
  0
VERTEX
  5
481
  8
1
  6
CONTINUOUS
 62
     7
 10
-77.87877700291656
 20
159.5390438470669
 30
0.0
  0
VERTEX
  5
482
  8
1
  6
CONTINUOUS
 62
     7
 10
-77.87359552760094
 20
159.5325349607193
 30
0.0
  0
VERTEX
  5
483
  8
1
  6
CONTINUOUS
 62
     7
 10
-77.86927801893606
 20
159.5260156045173
 30
0.0
  0
VERTEX
  5
484
  8
1
  6
CONTINUOUS
 62
     7
 10
-77.86583527438037
 20
159.5195015035438
 30
0.0
  0
VERTEX
  5
485
  8
1
  6
CONTINUOUS
 62
     7
 10
-77.86324173946385
 20
159.5129024214772
 30
0.0
  0
VERTEX
  5
486
  8
1
  6
CONTINUOUS
 62
     7
 10
-77.86155887325228
 20
159.506324029043
 30
0.0
  0
VERTEX
  5
487
  8
1
  6
CONTINUOUS
 62
     7
 10
-77.86079236652894
 20
159.4997819445034
 30
0.0
  0
VERTEX
  5
488
  8
1
  6
CONTINUOUS
 62
     7
 10
-77.8607430168872
 20
159.498012318389
 30
0.0
  0
SEQEND
  5
7C0
  8
1
  6
CONTINUOUS
 62
     7
  0
LINE
  5
131
  8
1
  6
CONTINUOUS
 62
     9
 10
-78.36672284716705
 20
160.1810513227511
 30
0.0
 11
-78.35923671910729
 21
160.6957465081904
 31
0.0
  0
POLYLINE
  5
132
  8
1
  6
CONTINUOUS
 62
     7
 66
     1
 10
0.0
 20
0.0
 30
0.0
  0
VERTEX
  5
489
  8
1
  6
CONTINUOUS
 62
     7
 10
-77.8607430168872
 20
160.8640903271133
 30
0.0
  0
VERTEX
  5
48A
  8
1
  6
CONTINUOUS
 62
     7
 10
-77.86079236652894
 20
160.8623207009989
 30
0.0
  0
VERTEX
  5
48B
  8
1
  6
CONTINUOUS
 62
     7
 10
-77.86126982174383
 20
160.8574899138304
 30
0.0
  0
VERTEX
  5
48C
  8
1
  6
CONTINUOUS
 62
     7
 10
-77.8622480106803
 20
160.8526393748959
 30
0.0
  0
VERTEX
  5
48D
  8
1
  6
CONTINUOUS
 62
     7
 10
-77.86434794828632
 20
160.8461003763059
 30
0.0
  0
VERTEX
  5
48E
  8
1
  6
CONTINUOUS
 62
     7
 10
-77.86734460847713
 20
160.8395403021585
 30
0.0
  0
VERTEX
  5
48F
  8
1
  6
CONTINUOUS
 62
     7
 10
-77.87122968855205
 20
160.8329748093324
 30
0.0
  0
VERTEX
  5
490
  8
1
  6
CONTINUOUS
 62
     7
 10
-77.87475283682762
 20
160.8280138170885
 30
0.0
  0
VERTEX
  5
491
  8
1
  6
CONTINUOUS
 62
     7
 10
-77.87877700291656
 20
160.8230587984353
 30
0.0
  0
VERTEX
  5
492
  8
1
  6
CONTINUOUS
 62
     7
 10
-77.8847129362336
 20
160.8166727275772
 30
0.0
  0
VERTEX
  5
493
  8
1
  6
CONTINUOUS
 62
     7
 10
-77.89150856028249
 20
160.8102815099485
 30
0.0
  0
VERTEX
  5
494
  8
1
  6
CONTINUOUS
 62
     7
 10
-77.89912432428723
 20
160.8039299827356
 30
0.0
  0
VERTEX
  5
495
  8
1
  6
CONTINUOUS
 62
     7
 10
-77.90764873840585
 20
160.797559294984
 30
0.0
  0
VERTEX
  5
496
  8
1
  6
CONTINUOUS
 62
     7
 10
-77.9169884582395
 20
160.7912528021476
 30
0.0
  0
VERTEX
  5
497
  8
1
  6
CONTINUOUS
 62
     7
 10
-77.92725019808387
 20
160.7849529168185
 30
0.0
  0
VERTEX
  5
498
  8
1
  6
CONTINUOUS
 62
     7
 10
-77.93831763529374
 20
160.7787446427982
 30
0.0
  0
VERTEX
  5
499
  8
1
  6
CONTINUOUS
 62
     7
 10
-77.95024305773062
 20
160.7726082857921
 30
0.0
  0
VERTEX
  5
49A
  8
1
  6
CONTINUOUS
 62
     7
 10
-77.96086311809704
 20
160.7675476450634
 30
0.0
  0
VERTEX
  5
49B
  8
1
  6
CONTINUOUS
 62
     7
 10
-77.97202703014301
 20
160.7625793223101
 30
0.0
  0
VERTEX
  5
49C
  8
1
  6
CONTINUOUS
 62
     7
 10
-77.98371637164041
 20
160.7577153387421
 30
0.0
  0
VERTEX
  5
49D
  8
1
  6
CONTINUOUS
 62
     7
 10
-77.99894578407654
 20
160.751834039283
 30
0.0
  0
VERTEX
  5
49E
  8
1
  6
CONTINUOUS
 62
     7
 10
-78.01494698826433
 20
160.7461429950846
 30
0.0
  0
VERTEX
  5
49F
  8
1
  6
CONTINUOUS
 62
     7
 10
-78.02997771134049
 20
160.7412017579861
 30
0.0
  0
VERTEX
  5
4A0
  8
1
  6
CONTINUOUS
 62
     7
 10
-78.04559121901204
 20
160.7364426966344
 30
0.0
  0
VERTEX
  5
4A1
  8
1
  6
CONTINUOUS
 62
     7
 10
-78.06185355290843
 20
160.7318558724834
 30
0.0
  0
VERTEX
  5
4A2
  8
1
  6
CONTINUOUS
 62
     7
 10
-78.07769084385839
 20
160.7277242078588
 30
0.0
  0
VERTEX
  5
4A3
  8
1
  6
CONTINUOUS
 62
     7
 10
-78.09400396329184
 20
160.7237898513201
 30
0.0
  0
VERTEX
  5
4A4
  8
1
  6
CONTINUOUS
 62
     7
 10
-78.11075725546567
 20
160.7200675069442
 30
0.0
  0
VERTEX
  5
4A5
  8
1
  6
CONTINUOUS
 62
     7
 10
-78.12791506463684
 20
160.7165718788081
 30
0.0
  0
VERTEX
  5
4A6
  8
1
  6
CONTINUOUS
 62
     7
 10
-78.14576279182518
 20
160.7132602285836
 30
0.0
  0
VERTEX
  5
4A7
  8
1
  6
CONTINUOUS
 62
     7
 10
-78.1640054485275
 20
160.7102007784078
 30
0.0
  0
VERTEX
  5
4A8
  8
1
  6
CONTINUOUS
 62
     7
 10
-78.18259783212996
 20
160.7074070450763
 30
0.0
  0
VERTEX
  5
4A9
  8
1
  6
CONTINUOUS
 62
     7
 10
-78.20149474001867
 20
160.7048925453846
 30
0.0
  0
VERTEX
  5
4AA
  8
1
  6
CONTINUOUS
 62
     7
 10
-78.21870857852062
 20
160.7028799374423
 30
0.0
  0
VERTEX
  5
4AB
  8
1
  6
CONTINUOUS
 62
     7
 10
-78.23613818463842
 20
160.7011044873684
 30
0.0
  0
VERTEX
  5
4AC
  8
1
  6
CONTINUOUS
 62
     7
 10
-78.25374644106815
 20
160.6995736014279
 30
0.0
  0
VERTEX
  5
4AD
  8
1
  6
CONTINUOUS
 62
     7
 10
-78.27013062731133
 20
160.6983830812587
 30
0.0
  0
VERTEX
  5
4AE
  8
1
  6
CONTINUOUS
 62
     7
 10
-78.28663586007545
 20
160.6974081296053
 30
0.0
  0
VERTEX
  5
4AF
  8
1
  6
CONTINUOUS
 62
     7
 10
-78.30323093845438
 20
160.6966525010928
 30
0.0
  0
VERTEX
  5
4B0
  8
1
  6
CONTINUOUS
 62
     7
 10
-78.32184445076433
 20
160.6960714576573
 30
0.0
  0
VERTEX
  5
4B1
  8
1
  6
CONTINUOUS
 62
     7
 10
-78.34052806844639
 20
160.6957688748084
 30
0.0
  0
VERTEX
  5
4B2
  8
1
  6
CONTINUOUS
 62
     7
 10
-78.35923671910729
 20
160.6957465081904
 30
0.0
  0
SEQEND
  5
7C1
  8
1
  6
CONTINUOUS
 62
     7
  0
LINE
  5
133
  8
1
  6
CONTINUOUS
 62
     7
 10
-80.85177566845373
 20
165.0810513227511
 30
0.0
 11
-80.4434158272078
 21
165.0810513227511
 31
0.0
  0
LINE
  5
134
  8
1
  6
CONTINUOUS
 62
     9
 10
-80.44341582720782
 20
165.081051322751
 30
0.0
 11
-80.44324322683914
 21
164.8877614219931
 31
0.0
  0
LINE
  5
135
  8
1
  6
CONTINUOUS
 62
     9
 10
-80.44985410806382
 20
147.4701353045069
 30
0.0
 11
-80.44999700119779
 21
147.2810513227512
 31
0.0
  0
LINE
  5
136
  8
1
  6
CONTINUOUS
 62
     7
 10
-80.44999700119779
 20
147.2810513227511
 30
0.0
 11
-80.865769528935
 21
147.2810513227511
 31
0.0
  0
LINE
  5
137
  8
1
  6
CONTINUOUS
 62
     7
 10
-80.865769528935
 20
147.2810513227511
 30
0.0
 11
-80.93510209641885
 21
147.2810513227511
 31
0.0
  0
LINE
  5
138
  8
1
  6
CONTINUOUS
 62
     7
 10
-80.93510209641885
 20
147.2810513227511
 30
0.0
 11
-80.94387358160118
 21
147.2810513227511
 31
0.0
  0
LINE
  5
139
  8
1
  6
CONTINUOUS
 62
     7
 10
-78.35923671910729
 20
160.6957465081904
 30
0.0
 11
-78.3621930110778
 21
160.6957558577783
 31
0.0
  0
LINE
  5
13A
  8
1
  6
CONTINUOUS
 62
     9
 10
-78.3621930110778
 20
160.6957558577783
 30
0.0
 11
-78.34268588308169
 21
162.9310513227511
 31
0.0
  0
LINE
  5
13B
  8
1
  6
CONTINUOUS
 62
     7
 10
-77.84270492154961
 20
162.9310513227511
 30
0.0
 11
-78.34268588308169
 21
162.9310513227511
 31
0.0
  0
LINE
  5
13C
  8
1
  6
CONTINUOUS
 62
     7
 10
-78.31150894573997
 20
153.8585281575977
 30
0.0
 11
-77.81172669511209
 21
153.8812801941301
 31
0.0
  0
LINE
  5
13D
  8
1
  6
CONTINUOUS
 62
     9
 10
-78.31150894573997
 20
153.8585281575977
 30
0.0
 11
-78.3621930110778
 21
159.6663467877239
 31
0.0
  0
LINE
  5
13E
  8
1
  6
CONTINUOUS
 62
     7
 10
-78.3621930110778
 20
159.6663467877239
 30
0.0
 11
-78.35923671910729
 21
159.6663561373118
 31
0.0
  0
LINE
  5
13F
  8
1
  6
CONTINUOUS
 62
     7
 10
-78.19506095829662
 20
153.1595313258079
 30
0.0
 11
-78.24153075336513
 21
153.1587462338491
 31
0.0
  0
LINE
  5
140
  8
1
  6
CONTINUOUS
 62
     9
 10
-78.24153075336513
 20
153.1587462338491
 30
0.0
 11
-78.31150894573997
 21
153.8585281575977
 31
0.0
  0
POLYLINE
  5
141
  8
1
  6
CONTINUOUS
 62
     7
 66
     1
 10
0.0
 20
0.0
 30
0.0
  0
VERTEX
  5
4B3
  8
1
  6
CONTINUOUS
 62
     7
 10
-78.19506095829662
 20
153.1595313258079
 30
0.0
  0
VERTEX
  5
4B4
  8
1
  6
CONTINUOUS
 62
     7
 10
-78.17206569017492
 20
153.159936819093
 30
0.0
  0
VERTEX
  5
4B5
  8
1
  6
CONTINUOUS
 62
     7
 10
-78.14914452022079
 20
153.1595915273515
 30
0.0
  0
VERTEX
  5
4B6
  8
1
  6
CONTINUOUS
 62
     7
 10
-78.12634628136637
 20
153.1584961862183
 30
0.0
  0
VERTEX
  5
4B7
  8
1
  6
CONTINUOUS
 62
     7
 10
-78.10371954464249
 20
153.1566531292879
 30
0.0
  0
VERTEX
  5
4B8
  8
1
  6
CONTINUOUS
 62
     7
 10
-78.08131251569924
 20
153.1540662831433
 30
0.0
  0
VERTEX
  5
4B9
  8
1
  6
CONTINUOUS
 62
     7
 10
-78.0591729321053
 20
153.1507411589901
 30
0.0
  0
VERTEX
  5
4BA
  8
1
  6
CONTINUOUS
 62
     7
 10
-78.03734796164427
 20
153.1466848409154
 30
0.0
  0
VERTEX
  5
4BB
  8
1
  6
CONTINUOUS
 62
     7
 10
-78.01588410182494
 20
153.1419059707949
 30
0.0
  0
VERTEX
  5
4BC
  8
1
  6
CONTINUOUS
 62
     7
 10
-77.99482708081969
 20
153.1364147298822
 30
0.0
  0
VERTEX
  5
4BD
  8
1
  6
CONTINUOUS
 62
     7
 10
-77.97422176004179
 20
153.1302228171174
 30
0.0
  0
VERTEX
  5
4BE
  8
1
  6
CONTINUOUS
 62
     7
 10
-77.95411203856943
 20
153.1233434242031
 30
0.0
  0
VERTEX
  5
4BF
  8
1
  6
CONTINUOUS
 62
     7
 10
-77.93454075961989
 20
153.1157912074995
 30
0.0
  0
VERTEX
  5
4C0
  8
1
  6
CONTINUOUS
 62
     7
 10
-77.91554961927322
 20
153.1075822568
 30
0.0
  0
VERTEX
  5
4C1
  8
1
  6
CONTINUOUS
 62
     7
 10
-77.89717907763988
 20
153.0987340610519
 30
0.0
  0
VERTEX
  5
4C2
  8
1
  6
CONTINUOUS
 62
     7
 10
-77.87946827266157
 20
153.0892654710966
 30
0.0
  0
VERTEX
  5
4C3
  8
1
  6
CONTINUOUS
 62
     7
 10
-77.8624549367289
 20
153.0791966595089
 30
0.0
  0
VERTEX
  5
4C4
  8
1
  6
CONTINUOUS
 62
     7
 10
-77.8461753162936
 20
153.0685490776192
 30
0.0
  0
VERTEX
  5
4C5
  8
1
  6
CONTINUOUS
 62
     7
 10
-77.8306640946463
 20
153.0573454098125
 30
0.0
  0
VERTEX
  5
4C6
  8
1
  6
CONTINUOUS
 62
     7
 10
-77.8159543180249
 20
153.0456095252
 30
0.0
  0
VERTEX
  5
4C7
  8
1
  6
CONTINUOUS
 62
     7
 10
-77.80207732521032
 20
153.033366426766
 30
0.0
  0
VERTEX
  5
4C8
  8
1
  6
CONTINUOUS
 62
     7
 10
-77.78906268076015
 20
153.0206421981004
 30
0.0
  0
VERTEX
  5
4C9
  8
1
  6
CONTINUOUS
 62
     7
 10
-77.77693811202212
 20
153.0074639478279
 30
0.0
  0
VERTEX
  5
4CA
  8
1
  6
CONTINUOUS
 62
     7
 10
-77.7657294500617
 20
152.9938597518541
 30
0.0
  0
VERTEX
  5
4CB
  8
1
  6
CONTINUOUS
 62
     7
 10
-77.75546057462985
 20
152.9798585935502
 30
0.0
  0
VERTEX
  5
4CC
  8
1
  6
CONTINUOUS
 62
     7
 10
-77.7461533632877
 20
152.965490302005
 30
0.0
  0
VERTEX
  5
4CD
  8
1
  6
CONTINUOUS
 62
     7
 10
-77.7378276447971
 20
152.9507854884748
 30
0.0
  0
VERTEX
  5
4CE
  8
1
  6
CONTINUOUS
 62
     7
 10
-77.73050115687593
 20
152.9357754811668
 30
0.0
  0
VERTEX
  5
4CF
  8
1
  6
CONTINUOUS
 62
     7
 10
-77.7241895084084
 20
152.9204922584951
 30
0.0
  0
VERTEX
  5
4D0
  8
1
  6
CONTINUOUS
 62
     7
 10
-77.71890614619073
 20
152.9049683809521
 30
0.0
  0
VERTEX
  5
4D1
  8
1
  6
CONTINUOUS
 62
     7
 10
-77.7146623262831
 20
152.8892369217387
 30
0.0
  0
VERTEX
  5
4D2
  8
1
  6
CONTINUOUS
 62
     7
 10
-77.71146709002896
 20
152.8733313963029
 30
0.0
  0
VERTEX
  5
4D3
  8
1
  6
CONTINUOUS
 62
     7
 10
-77.70932724479268
 20
152.857285690936
 30
0.0
  0
SEQEND
  5
7C2
  8
1
  6
CONTINUOUS
 62
     7
  0
LINE
  5
142
  8
1
  6
CONTINUOUS
 62
     9
 10
-78.16748210111272
 20
152.8837427539689
 30
0.0
 11
-78.19506095829662
 21
153.1595313258079
 31
0.0
  0
POLYLINE
  5
143
  8
1
  6
CONTINUOUS
 62
     7
 66
     1
 10
0.0
 20
0.0
 30
0.0
  0
VERTEX
  5
4D4
  8
1
  6
CONTINUOUS
 62
     7
 10
-78.16748210111272
 20
152.8837427539689
 30
0.0
  0
VERTEX
  5
4D5
  8
1
  6
CONTINUOUS
 62
     7
 10
-78.15416610339902
 20
152.8839325373176
 30
0.0
  0
VERTEX
  5
4D6
  8
1
  6
CONTINUOUS
 62
     7
 10
-78.14086073991967
 20
152.8838374280696
 30
0.0
  0
VERTEX
  5
4D7
  8
1
  6
CONTINUOUS
 62
     7
 10
-78.12766222670614
 20
152.8834605979056
 30
0.0
  0
VERTEX
  5
4D8
  8
1
  6
CONTINUOUS
 62
     7
 10
-78.1145066925076
 20
152.8828032776013
 30
0.0
  0
VERTEX
  5
4D9
  8
1
  6
CONTINUOUS
 62
     7
 10
-78.10136206884327
 20
152.8818630118575
 30
0.0
  0
VERTEX
  5
4DA
  8
1
  6
CONTINUOUS
 62
     7
 10
-78.08828183849707
 20
152.8806431168954
 30
0.0
  0
VERTEX
  5
4DB
  8
1
  6
CONTINUOUS
 62
     7
 10
-78.07514954651596
 20
152.8791292479597
 30
0.0
  0
VERTEX
  5
4DC
  8
1
  6
CONTINUOUS
 62
     7
 10
-78.06210390565764
 20
152.8773342388469
 30
0.0
  0
VERTEX
  5
4DD
  8
1
  6
CONTINUOUS
 62
     7
 10
-78.04911313896572
 20
152.8752531861645
 30
0.0
  0
VERTEX
  5
4DE
  8
1
  6
CONTINUOUS
 62
     7
 10
-78.0362299951033
 20
152.8728943476224
 30
0.0
  0
VERTEX
  5
4DF
  8
1
  6
CONTINUOUS
 62
     7
 10
-78.02323687044722
 20
152.8702109796754
 30
0.0
  0
VERTEX
  5
4E0
  8
1
  6
CONTINUOUS
 62
     7
 10
-78.01036508131031
 20
152.8672437114368
 30
0.0
  0
VERTEX
  5
4E1
  8
1
  6
CONTINUOUS
 62
     7
 10
-77.99801609660834
 20
152.8641000004914
 30
0.0
  0
VERTEX
  5
4E2
  8
1
  6
CONTINUOUS
 62
     7
 10
-77.98580012885472
 20
152.8606955561435
 30
0.0
  0
VERTEX
  5
4E3
  8
1
  6
CONTINUOUS
 62
     7
 10
-77.97380941538346
 20
152.8570598924502
 30
0.0
  0
VERTEX
  5
4E4
  8
1
  6
CONTINUOUS
 62
     7
 10
-77.96197575891141
 20
152.8531766579309
 30
0.0
  0
VERTEX
  5
4E5
  8
1
  6
CONTINUOUS
 62
     7
 10
-77.95027303518712
 20
152.8490373664343
 30
0.0
  0
VERTEX
  5
4E6
  8
1
  6
CONTINUOUS
 62
     7
 10
-77.93874363325281
 20
152.8446573656051
 30
0.0
  0
VERTEX
  5
4E7
  8
1
  6
CONTINUOUS
 62
     7
 10
-77.92729689971767
 20
152.8399997315469
 30
0.0
  0
VERTEX
  5
4E8
  8
1
  6
CONTINUOUS
 62
     7
 10
-77.91604107017926
 20
152.8351062504411
 30
0.0
  0
VERTEX
  5
4E9
  8
1
  6
CONTINUOUS
 62
     7
 10
-77.90495171991114
 20
152.8299665732039
 30
0.0
  0
VERTEX
  5
4EA
  8
1
  6
CONTINUOUS
 62
     7
 10
-77.89406793120637
 20
152.8245993370523
 30
0.0
  0
VERTEX
  5
4EB
  8
1
  6
CONTINUOUS
 62
     7
 10
-77.88321464351309
 20
152.8189114910531
 30
0.0
  0
VERTEX
  5
4EC
  8
1
  6
CONTINUOUS
 62
     7
 10
-77.87257956058524
 20
152.8129943212765
 30
0.0
  0
VERTEX
  5
4ED
  8
1
  6
CONTINUOUS
 62
     7
 10
-77.85861868362785
 20
152.8046749861053
 30
0.0
  0
VERTEX
  5
4EE
  8
1
  6
CONTINUOUS
 62
     7
 10
-77.84509323866313
 20
152.7959699036364
 30
0.0
  0
VERTEX
  5
4EF
  8
1
  6
CONTINUOUS
 62
     7
 10
-77.83195230696296
 20
152.7868459596786
 30
0.0
  0
VERTEX
  5
4F0
  8
1
  6
CONTINUOUS
 62
     7
 10
-77.81927717611515
 20
152.7773599878489
 30
0.0
  0
VERTEX
  5
4F1
  8
1
  6
CONTINUOUS
 62
     7
 10
-77.80868642783172
 20
152.768863494742
 30
0.0
  0
VERTEX
  5
4F2
  8
1
  6
CONTINUOUS
 62
     7
 10
-77.79846099437597
 20
152.7601151261383
 30
0.0
  0
VERTEX
  5
4F3
  8
1
  6
CONTINUOUS
 62
     7
 10
-77.78857319300478
 20
152.7510913725563
 30
0.0
  0
VERTEX
  5
4F4
  8
1
  6
CONTINUOUS
 62
     7
 10
-77.77906647044027
 20
152.7418324380534
 30
0.0
  0
VERTEX
  5
4F5
  8
1
  6
CONTINUOUS
 62
     7
 10
-77.77082049654511
 20
152.7332837085366
 30
0.0
  0
VERTEX
  5
4F6
  8
1
  6
CONTINUOUS
 62
     7
 10
-77.76288841983342
 20
152.7245516488676
 30
0.0
  0
VERTEX
  5
4F7
  8
1
  6
CONTINUOUS
 62
     7
 10
-77.75142351843972
 20
152.7109179212603
 30
0.0
  0
VERTEX
  5
4F8
  8
1
  6
CONTINUOUS
 62
     7
 10
-77.74070682902328
 20
152.6968895034866
 30
0.0
  0
VERTEX
  5
4F9
  8
1
  6
CONTINUOUS
 62
     7
 10
-77.73071060328768
 20
152.6824229351637
 30
0.0
  0
VERTEX
  5
4FA
  8
1
  6
CONTINUOUS
 62
     7
 10
-77.72149995774393
 20
152.6676040213955
 30
0.0
  0
VERTEX
  5
4FB
  8
1
  6
CONTINUOUS
 62
     7
 10
-77.71303726801816
 20
152.652357505562
 30
0.0
  0
VERTEX
  5
4FC
  8
1
  6
CONTINUOUS
 62
     7
 10
-77.70539763386594
 20
152.6368014797322
 30
0.0
  0
VERTEX
  5
4FD
  8
1
  6
CONTINUOUS
 62
     7
 10
-77.69856474860468
 20
152.6208879805169
 30
0.0
  0
VERTEX
  5
4FE
  8
1
  6
CONTINUOUS
 62
     7
 10
-77.69258674623715
 20
152.6047110169862
 30
0.0
  0
VERTEX
  5
4FF
  8
1
  6
CONTINUOUS
 62
     7
 10
-77.68737032949797
 20
152.5879256469755
 30
0.0
  0
VERTEX
  5
500
  8
1
  6
CONTINUOUS
 62
     7
 10
-77.68306998022148
 20
152.5709170875701
 30
0.0
  0
VERTEX
  5
501
  8
1
  6
CONTINUOUS
 62
     7
 10
-77.67969488081003
 20
152.5537053156533
 30
0.0
  0
VERTEX
  5
502
  8
1
  6
CONTINUOUS
 62
     7
 10
-77.67725663850216
 20
152.5363248148599
 30
0.0
  0
VERTEX
  5
503
  8
1
  6
CONTINUOUS
 62
     7
 10
-77.67682876554872
 20
152.5323008984965
 30
0.0
  0
SEQEND
  5
7C3
  8
1
  6
CONTINUOUS
 62
     7
  0
LINE
  5
144
  8
1
  6
CONTINUOUS
 62
     7
 10
-78.3621930110778
 20
160.6957558577783
 30
0.0
 11
-79.66670380797419
 21
160.6957558577783
 31
0.0
  0
LINE
  5
145
  8
1
  6
CONTINUOUS
 62
     7
 10
-78.66670380797419
 20
159.6663467877239
 30
0.0
 11
-78.3621930110778
 21
159.6663467877239
 31
0.0
  0
LINE
  5
146
  8
1
  6
CONTINUOUS
 62
     9
 10
-84.06670380797419
 20
165.0810513227511
 30
0.0
 11
-84.06670380797419
 21
137.1810513227511
 31
0.0
  0
LINE
  5
147
  8
1
  6
CONTINUOUS
 62
     7
 10
-84.56284981879897
 20
137.1810513227511
 30
0.0
 11
-84.06670380797419
 21
137.1810513227511
 31
0.0
  0
LINE
  5
148
  8
1
  6
CONTINUOUS
 62
     7
 10
-84.56542157709357
 20
140.1804635926733
 30
0.0
 11
-84.56284981879897
 21
137.1810513227511
 31
0.0
  0
LINE
  5
149
  8
1
  6
CONTINUOUS
 62
     7
 10
-84.06670380797419
 20
165.0810513227511
 30
0.0
 11
-84.56670380797419
 21
165.0810513227511
 31
0.0
  0
LINE
  5
14A
  8
1
  6
CONTINUOUS
 62
     9
 10
-83.06670380797419
 20
147.2810513227511
 30
0.0
 11
-83.06670380797419
 21
165.0810513227511
 31
0.0
  0
LINE
  5
14B
  8
1
  6
CONTINUOUS
 62
     7
 10
-83.06670380797419
 20
147.2810513227511
 30
0.0
 11
-82.56670380797419
 21
147.2810513227511
 31
0.0
  0
LINE
  5
14C
  8
1
  6
CONTINUOUS
 62
     7
 10
-82.56670380797419
 20
165.0810513227511
 30
0.0
 11
-83.06670380797419
 21
165.0810513227511
 31
0.0
  0
LINE
  5
14D
  8
1
  6
CONTINUOUS
 62
     9
 10
-91.7667038079742
 20
136.1330553775101
 30
0.0
 11
-88.83781029134796
 21
136.1330553775101
 31
0.0
  0
LINE
  5
14E
  8
1
  6
CONTINUOUS
 62
     7
 10
-87.8373533586936
 20
137.1810513227511
 30
0.0
 11
-84.56284981879897
 21
137.1810513227511
 31
0.0
  0
ARC
  5
14F
  8
1
  6
CONTINUOUS
 62
     7
 10
-87.8373533586936
 20
136.1810513227511
 30
0.0
 40
1.0
 50
90.0
 51
179.5000000000011
  0
LINE
  5
150
  8
1
  6
CONTINUOUS
 62
     7
 10
-88.83781029134796
 20
136.1330553775101
 30
0.0
 11
-88.83731528175778
 21
136.1897778582495
 31
0.0
  0
LINE
  5
151
  8
1
  6
CONTINUOUS
 62
     7
 10
-91.7667038079742
 20
136.1330553775101
 30
0.0
 11
-91.7667038079742
 21
140.1804635926728
 31
0.0
  0
LINE
  5
152
  8
1
  6
CONTINUOUS
 62
     7
 10
-88.88538920992853
 20
130.6810513227511
 30
0.0
 11
-91.7667038079742
 21
130.6810513227511
 31
0.0
  0
LINE
  5
153
  8
1
  6
CONTINUOUS
 62
     7
 10
-88.83781029134796
 20
136.1330553775101
 30
0.0
 11
-88.88538920992853
 21
130.6810513227511
 31
0.0
  0
LINE
  5
154
  8
1
  6
CONTINUOUS
 62
     7
 10
-91.7667038079742
 20
130.6810513227511
 30
0.0
 11
-91.7667038079742
 21
136.1330553775101
 31
0.0
  0
LINE
  5
155
  8
1
  6
CONTINUOUS
 62
     7
 10
-79.66670380797419
 20
148.0536578406482
 30
0.0
 11
-79.66670380797419
 21
147.2810513227511
 31
0.0
  0
LINE
  5
156
  8
1
  6
CONTINUOUS
 62
     7
 10
-79.17785635242521
 20
153.1587462338491
 30
0.0
 11
-78.24153075336513
 21
153.1587462338491
 31
0.0
  0
LINE
  5
157
  8
1
  6
CONTINUOUS
 62
     7
 10
-79.66670380797419
 20
147.2810513227511
 30
0.0
 11
-80.44999700119779
 21
147.2810513227511
 31
0.0
  0
LINE
  5
158
  8
1
  6
CONTINUOUS
 62
     7
 10
-79.66670380797419
 20
165.0810513227511
 30
0.0
 11
-79.66670380797419
 21
164.308444804854
 31
0.0
  0
LINE
  5
159
  8
1
  6
CONTINUOUS
 62
     7
 10
-80.4434158272078
 20
165.0810513227511
 30
0.0
 11
-79.66670380797419
 21
165.0810513227511
 31
0.0
  0
LINE
  5
15A
  8
1
  6
CONTINUOUS
 62
     7
 10
-79.66670380797419
 20
162.9310513227511
 30
0.0
 11
-78.34268588308169
 21
162.9310513227511
 31
0.0
  0
LINE
  5
15B
  8
1
  6
CONTINUOUS
 62
     7
 10
-78.19320452522749
 20
152.883423041495
 30
0.0
 11
-78.16748210111272
 21
152.8837427539689
 31
0.0
  0
LINE
  5
15C
  8
1
  6
CONTINUOUS
 62
     7
 10
-78.19320452522749
 20
152.883423041495
 30
0.0
 11
-79.31551794860228
 21
152.883423041495
 31
0.0
  0
LINE
  5
15D
  8
1
  6
CONTINUOUS
 62
     7
 10
-80.3667038079742
 20
147.2810513227511
 30
0.0
 11
-80.3667038079742
 21
137.6810513227511
 31
0.0
  0
ARC
  5
15E
  8
1
  6
CONTINUOUS
 62
     7
 10
-80.8667038079742
 20
137.6810513227511
 30
0.0
 40
0.5000000000000004
 50
270.0
 51
0.0
  0
LINE
  5
15F
  8
1
  6
CONTINUOUS
 62
     7
 10
-80.8667038079742
 20
137.1810513227511
 30
0.0
 11
-84.06670380797419
 21
137.1810513227511
 31
0.0
  0
LINE
  5
160
  8
1
  6
CONTINUOUS
 62
     7
 10
-84.06670380797419
 20
165.0810513227511
 30
0.0
 11
-83.06670380797419
 21
165.0810513227511
 31
0.0
  0
LINE
  5
161
  8
1
  6
CONTINUOUS
 62
     7
 10
-77.36670380797419
 20
149.4310513227511
 30
0.0
 11
-77.3839357667623
 21
149.4310513227511
 31
0.0
  0
LINE
  5
162
  8
1
  6
CONTINUOUS
 62
     7
 10
-77.3839357667623
 20
149.4310513227511
 30
0.0
 11
-77.81919758903024
 21
149.4310513227511
 31
0.0
  0
LINE
  5
163
  8
1
  6
CONTINUOUS
 62
     9
 10
-77.81919758903024
 20
149.4310513227511
 30
0.0
 11
-78.19320452522749
 21
152.883423041495
 31
0.0
  0
LINE
  5
164
  8
1
  6
CONTINUOUS
 62
     7
 10
-77.81919758903024
 20
149.4310513227511
 30
0.0
 11
-79.66670380797419
 21
149.4310513227511
 31
0.0
  0
LINE
  5
165
  8
1
  6
CONTINUOUS
 62
     7
 10
-89.84873636520732
 20
161.4310513227511
 30
0.0
 11
-89.8945524211088
 21
156.1810513227511
 31
0.0
  0
LINE
  5
166
  8
1
  6
CONTINUOUS
 62
     7
 10
-89.84873636520732
 20
150.9310513227511
 30
0.0
 11
-89.84873636520732
 21
161.4310513227511
 31
0.0
  0
LINE
  5
167
  8
1
  6
CONTINUOUS
 62
     7
 10
-86.58467125074105
 20
150.9310513227511
 30
0.0
 11
-86.63048730664254
 21
156.1810513227511
 31
0.0
  0
LINE
  5
168
  8
1
  6
CONTINUOUS
 62
     7
 10
-86.58467125074105
 20
161.4310513227511
 30
0.0
 11
-86.58467125074105
 21
150.9310513227511
 31
0.0
  0
ARC
  5
169
  8
1
  6
CONTINUOUS
 62
     7
 10
-90.1167038079742
 20
162.6810513227511
 30
0.0
 40
0.7500000000000007
 50
289.4421356765491
 51
0.0
  0
ARC
  5
16A
  8
1
  6
CONTINUOUS
 62
     7
 10
-90.1167038079742
 20
162.6810513227511
 30
0.0
 40
0.7499999999999942
 50
0.0
 51
70.55786432345093
  0
ARC
  5
16B
  8
1
  6
CONTINUOUS
 62
     7
 10
-90.1167038079742
 20
149.6810513227511
 30
0.0
 40
0.7500000000000007
 50
289.4421356765491
 51
0.0
  0
ARC
  5
16C
  8
1
  6
CONTINUOUS
 62
     7
 10
-90.1167038079742
 20
149.6810513227511
 30
0.0
 40
0.7499999999999942
 50
0.0
 51
70.55786432345093
  0
LINE
  5
16D
  8
1
  6
CONTINUOUS
 62
     9
 10
-84.56670380797419
 20
178.6810513227511
 30
0.0
 11
-86.6667038079742
 21
178.6810513227511
 31
0.0
  0
LINE
  5
16E
  8
1
  6
CONTINUOUS
 62
     7
 10
-86.6667038079742
 20
178.6810513227511
 30
0.0
 11
-86.6667038079742
 21
172.1810513227511
 31
0.0
  0
LINE
  5
16F
  8
1
  6
CONTINUOUS
 62
     7
 10
-84.56670380797419
 20
178.6810513227511
 30
0.0
 11
-84.56670380797419
 21
172.1810513227511
 31
0.0
  0
LINE
  5
170
  8
1
  6
CONTINUOUS
 62
     7
 10
-86.6667038079742
 20
181.6810513227511
 30
0.0
 11
-84.56670380797419
 21
181.6810513227511
 31
0.0
  0
LINE
  5
171
  8
1
  6
CONTINUOUS
 62
     7
 10
-86.6667038079742
 20
178.6810513227511
 30
0.0
 11
-86.6667038079742
 21
181.6810513227511
 31
0.0
  0
LINE
  5
172
  8
1
  6
CONTINUOUS
 62
     7
 10
-84.56670380797419
 20
181.6810513227511
 30
0.0
 11
-84.56670380797419
 21
178.6810513227511
 31
0.0
  0
LINE
  5
173
  8
1
  6
CONTINUOUS
 62
     7
 10
-91.76670380628909
 20
171.6785081632862
 30
0.0
 11
-100.8169479206945
 21
171.2259959575886
 31
0.0
  0
LINE
  5
174
  8
1
  6
CONTINUOUS
 62
     7
 10
-100.8169479206945
 20
141.1310128063588
 30
0.0
 11
-91.76670380628909
 21
140.6785006006613
 31
0.0
  0
LINE
  5
175
  8
1
  6
CONTINUOUS
 62
     7
 10
-101.7515346029836
 20
154.4839110182816
 30
0.0
 11
-101.751367877258
 21
154.4802256318984
 31
0.0
  0
LINE
  5
176
  8
1
  6
CONTINUOUS
 62
     7
 10
-101.7512010971684
 20
161.7719994072285
 30
0.0
 11
-101.7524788635671
 21
161.7663742293063
 31
0.0
  0
LINE
  5
177
  8
1
  6
CONTINUOUS
 62
     7
 10
-101.7524788635671
 20
161.7663742293063
 30
0.0
 11
-101.761937491576
 21
161.6745954591247
 31
0.0
  0
LINE
  5
178
  8
1
  6
CONTINUOUS
 62
     7
 10
-101.7619437181139
 20
150.6821247744664
 30
0.0
 11
-101.7524023082488
 21
150.5903589004891
 31
0.0
  0
LINE
  5
179
  8
1
  6
CONTINUOUS
 62
     7
 10
-101.7524023082488
 20
150.5903589004891
 30
0.0
 11
-101.7511709049963
 21
150.5849521016001
 31
0.0
  0
LINE
  5
17A
  8
1
  6
CONTINUOUS
 62
     7
 10
-101.7506294302767
 20
167.5640731286638
 30
0.0
 11
-101.7520888072499
 21
167.5560290161494
 31
0.0
  0
LINE
  5
17B
  8
1
  6
CONTINUOUS
 62
     7
 10
-101.7520888072499
 20
167.5560290161494
 30
0.0
 11
-101.7632442073232
 21
167.4272317088984
 31
0.0
  0
LINE
  5
17C
  8
1
  6
CONTINUOUS
 62
     7
 10
-101.7632033611392
 20
144.929748674521
 30
0.0
 11
-101.75174582503
 21
144.799403599705
 31
0.0
  0
LINE
  5
17D
  8
1
  6
CONTINUOUS
 62
     7
 10
-101.75174582503
 20
144.799403599705
 30
0.0
 11
-101.7505911220119
 21
144.793069067126
 31
0.0
  0
LINE
  5
17E
  8
1
  6
CONTINUOUS
 62
     7
 10
-101.7527990420902
 20
143.109092677855
 30
0.0
 11
-101.7469466462818
 21
143.0774499951921
 31
0.0
  0
LINE
  5
17F
  8
1
  6
CONTINUOUS
 62
     7
 10
-101.7462040468857
 20
169.2826968508406
 30
0.0
 11
-101.7527828572401
 21
169.2473621987585
 31
0.0
  0
LINE
  5
180
  8
1
  6
CONTINUOUS
 62
     7
 10
-101.7452346765497
 20
170.3313844608598
 30
0.0
 11
-101.76317675484
 21
170.1627337296731
 31
0.0
  0
LINE
  5
181
  8
1
  6
CONTINUOUS
 62
     7
 10
-101.7631203243998
 20
142.1959308492985
 30
0.0
 11
-101.7450405645207
 21
142.0251308564167
 31
0.0
  0
ARC
  5
182
  8
1
  6
CONTINUOUS
 62
     7
 10
-100.7667799676453
 20
170.2272551739721
 30
0.0
 40
0.999999999999917
 50
92.86935913461146
 51
180.0
  0
ARC
  5
183
  8
1
  6
CONTINUOUS
 62
     7
 10
-100.7667799676453
 20
142.1297536134223
 30
0.0
 40
0.9999999999999176
 50
180.0
 51
267.1306409005547
  0
LINE
  5
184
  8
1
  6
CONTINUOUS
 62
     7
 10
-101.7631763229964
 20
142.1942345904845
 30
0.0
 11
-101.7452327362283
 21
142.0256152938165
 31
0.0
  0
ENDBLK
  8
0
  0
BLOCK
  8
0
  2
D_FRAME_VIEW_3596
 70
     0
 10
0.0
 20
0.0
 30
0.0
  0
LINE
  5
189
  8
1
  6
CONTINUOUS
 62
     9
 10
-160.19770992868
 20
102.966962835746
 30
0.0
 11
-163.4183516917359
 21
102.966962835746
 31
0.0
  0
LINE
  5
18A
  8
1
  6
CONTINUOUS
 62
     9
 10
-160.2686905041173
 20
97.4419940782191
 30
0.0
 11
-160.1977099276846
 21
102.9669628866777
 31
0.0
  0
ARC
  5
18B
  8
1
  6
CONTINUOUS
 62
     9
 10
-158.2717622060161
 20
97.44264215557054
 30
0.0
 40
1.996928403263683
 50
180.0185946064098
 51
359.9814053935899
  0
LINE
  5
18C
  8
1
  6
CONTINUOUS
 62
     9
 10
-156.2013819038088
 20
102.9669628866777
 30
0.0
 11
-156.2748339079151
 21
97.44199407821908
 31
0.0
  0
LINE
  5
18D
  8
1
  6
CONTINUOUS
 62
     9
 10
-152.482505119292
 20
102.9669628684878
 30
0.0
 11
-156.2013819039191
 21
102.9669628684878
 31
0.0
  0
LINE
  5
18E
  8
1
  6
CONTINUOUS
 62
     9
 10
-152.4090531152661
 20
97.44199407821908
 30
0.0
 11
-152.4825051194044
 21
102.9669628866777
 31
0.0
  0
ARC
  5
18F
  8
1
  6
CONTINUOUS
 62
     9
 10
-150.4121248138435
 20
97.43492251251412
 30
0.0
 40
1.996940822374154
 50
179.7971037941022
 51
0.2028962058982416
  0
LINE
  5
190
  8
1
  6
CONTINUOUS
 62
     9
 10
-148.4861770887617
 20
102.9669628866777
 30
0.0
 11
-148.4151965124208
 21
97.4419940782191
 31
0.0
  0
LINE
  5
191
  8
1
  6
CONTINUOUS
 62
     9
 10
-145.2655353156987
 20
102.9669628866777
 30
0.0
 11
-148.4861770887617
 21
102.9669628866777
 31
0.0
  0
LINE
  5
192
  8
1
  6
CONTINUOUS
 62
     9
 10
-145.067332136214
 20
97.4419940782191
 30
0.0
 11
-145.2655353156987
 21
102.9669628866777
 31
0.0
  0
ARC
  5
193
  8
1
  6
CONTINUOUS
 62
     9
 10
-144.3321904838741
 20
97.22875610186601
 30
0.0
 40
2.198927951418607
 50
314.4994331244386
 51
5.564923772874408
  0
POLYLINE
  5
194
  8
1
  6
CONTINUOUS
 62
     9
 66
     1
 10
0.0
 20
0.0
 30
0.0
  0
VERTEX
  5
504
  8
1
  6
CONTINUOUS
 62
     9
 10
-142.7909570286438
 20
95.66035450405734
 30
0.0
  0
VERTEX
  5
505
  8
1
  6
CONTINUOUS
 62
     9
 10
-142.8936728846303
 20
95.58871910884163
 30
0.0
  0
VERTEX
  5
506
  8
1
  6
CONTINUOUS
 62
     9
 10
-143.0042170759448
 20
95.5303699760273
 30
0.0
  0
VERTEX
  5
507
  8
1
  6
CONTINUOUS
 62
     9
 10
-143.1209410879
 20
95.48673252755661
 30
0.0
  0
VERTEX
  5
508
  8
1
  6
CONTINUOUS
 62
     9
 10
-143.2428422694277
 20
95.45799993646624
 30
0.0
  0
VERTEX
  5
509
  8
1
  6
CONTINUOUS
 62
     9
 10
-143.3698727633526
 20
95.44378166027427
 30
0.0
  0
VERTEX
  5
50A
  8
1
  6
CONTINUOUS
 62
     9
 10
-143.5030613939213
 20
95.44382201637318
 30
0.0
  0
VERTEX
  5
50B
  8
1
  6
CONTINUOUS
 62
     9
 10
-143.6361170740835
 20
95.45852816735105
 30
0.0
  0
VERTEX
  5
50C
  8
1
  6
CONTINUOUS
 62
     9
 10
-143.7669060914588
 20
95.4879632303212
 30
0.0
  0
VERTEX
  5
50D
  8
1
  6
CONTINUOUS
 62
     9
 10
-143.8928942376563
 20
95.53120222734405
 30
0.0
  0
SEQEND
  5
7C4
  8
1
  6
CONTINUOUS
 62
     9
  0
ARC
  5
195
  8
1
  6
CONTINUOUS
 62
     9
 10
-142.9206222441894
 20
97.4451145211549
 30
0.0
 40
2.146712159950735
 50
180.0832846977485
 51
243.0693222397424
  0
LINE
  5
196
  8
1
  6
CONTINUOUS
 62
     9
 10
-142.3400201512915
 20
102.9669628866777
 30
0.0
 11
-142.1436261825636
 21
97.4419940782191
 31
0.0
  0
LINE
  5
197
  8
1
  6
CONTINUOUS
 62
     9
 10
-140.4805817566905
 20
102.9669628866777
 30
0.0
 11
-142.3400201512915
 21
102.9669628866777
 31
0.0
  0
LINE
  5
198
  8
1
  6
CONTINUOUS
 62
     9
 10
-140.2107357837893
 20
97.4419940782191
 30
0.0
 11
-140.4805817567429
 21
102.9669628884967
 31
0.0
  0
ARC
  5
199
  8
1
  6
CONTINUOUS
 62
     9
 10
-145.1188551492283
 20
96.88886050932011
 30
0.0
 40
6.003804554396928
 50
347.8262782083816
 51
5.286185605199364
  0
POLYLINE
  5
19A
  8
1
  6
CONTINUOUS
 62
     9
 66
     1
 10
0.0
 20
0.0
 30
0.0
  0
VERTEX
  5
50E
  8
1
  6
CONTINUOUS
 62
     9
 10
-139.2500598664198
 20
95.62279927230092
 30
0.0
  0
VERTEX
  5
50F
  8
1
  6
CONTINUOUS
 62
     9
 10
-139.2977558031525
 20
95.5303833656083
 30
0.0
  0
VERTEX
  5
510
  8
1
  6
CONTINUOUS
 62
     9
 10
-139.37527017229
 20
95.45799993282826
 30
0.0
  0
VERTEX
  5
511
  8
1
  6
CONTINUOUS
 62
     9
 10
-139.4937531949575
 20
95.44933331234033
 30
0.0
  0
VERTEX
  5
512
  8
1
  6
CONTINUOUS
 62
     9
 10
-139.5969993996322
 20
95.50781167161885
 30
0.0
  0
VERTEX
  5
513
  8
1
  6
CONTINUOUS
 62
     9
 10
-139.6756308427597
 20
95.58865163888667
 30
0.0
  0
SEQEND
  5
7C5
  8
1
  6
CONTINUOUS
 62
     9
  0
ARC
  5
19B
  8
1
  6
CONTINUOUS
 62
     9
 10
-136.6007961594416
 20
97.48035114630638
 30
0.0
 40
3.610143398274897
 50
180.6087679141624
 51
211.6006568045978
  0
LINE
  5
19C
  8
1
  6
CONTINUOUS
 62
     9
 10
-139.4097688892187
 20
102.9669628866777
 30
0.0
 11
-139.140585133383
 21
97.4419940782191
 31
0.0
  0
LINE
  5
19D
  8
1
  6
CONTINUOUS
 62
     9
 10
-139.2944403945924
 20
102.9669628866777
 30
0.0
 11
-139.4097688892182
 21
102.9669628866777
 31
0.0
  0
LINE
  5
19E
  8
1
  6
CONTINUOUS
 62
     9
 10
-169.2741180874533
 20
102.9669628539359
 30
0.0
 11
-169.3894465813335
 21
102.9669628539359
 31
0.0
  0
LINE
  5
19F
  8
1
  6
CONTINUOUS
 62
     9
 10
-169.5433018417413
 20
97.4419940764001
 30
0.0
 11
-169.2741180859303
 21
102.9669628848588
 31
0.0
  0
ARC
  5
1A0
  8
1
  6
CONTINUOUS
 62
     9
 10
-172.2839393751088
 20
97.51613420097998
 30
0.0
 40
3.811509319031068
 50
330.8635971628594
 51
358.8854325677253
  0
POLYLINE
  5
1A1
  8
1
  6
CONTINUOUS
 62
     9
 66
     1
 10
0.0
 20
0.0
 30
0.0
  0
VERTEX
  5
514
  8
1
  6
CONTINUOUS
 62
     9
 10
-168.9547268056303
 20
95.66034677880934
 30
0.0
  0
VERTEX
  5
515
  8
1
  6
CONTINUOUS
 62
     9
 10
-169.0344861979496
 20
95.55770403893375
 30
0.0
  0
VERTEX
  5
516
  8
1
  6
CONTINUOUS
 62
     9
 10
-169.1140093948528
 20
95.48672868948897
 30
0.0
  0
VERTEX
  5
517
  8
1
  6
CONTINUOUS
 62
     9
 10
-169.2155931822591
 20
95.44378014141812
 30
0.0
  0
VERTEX
  5
518
  8
1
  6
CONTINUOUS
 62
     9
 10
-169.3302965118672
 20
95.47140714347306
 30
0.0
  0
VERTEX
  5
519
  8
1
  6
CONTINUOUS
 62
     9
 10
-169.4029319872833
 20
95.55814960584512
 30
0.0
  0
VERTEX
  5
51A
  8
1
  6
CONTINUOUS
 62
     9
 10
-169.4479485185754
 20
95.66176726401436
 30
0.0
  0
SEQEND
  5
7C6
  8
1
  6
CONTINUOUS
 62
     9
  0
ARC
  5
1A2
  8
1
  6
CONTINUOUS
 62
     9
 10
-163.5059027384314
 20
96.87270492455865
 30
0.0
 40
6.064179917437483
 50
174.6132919621208
 51
191.5186539844279
  0
LINE
  5
1A3
  8
1
  6
CONTINUOUS
 62
     9
 10
-168.2033052252194
 20
102.9669628848588
 30
0.0
 11
-168.4731511979743
 21
97.4419940764001
 31
0.0
  0
LINE
  5
1A4
  8
1
  6
CONTINUOUS
 62
     9
 10
-166.343866841157
 20
102.9669628848588
 30
0.0
 11
-168.2033052252194
 21
102.9669628848588
 31
0.0
  0
LINE
  5
1A5
  8
1
  6
CONTINUOUS
 62
     9
 10
-166.5402608099632
 20
97.4419940764001
 30
0.0
 11
-166.343866841157
 21
102.9669628848588
 31
0.0
  0
ARC
  5
1A6
  8
1
  6
CONTINUOUS
 62
     9
 10
-165.7776447613075
 20
97.45349010178555
 30
0.0
 40
2.161120468343054
 50
297.1436384152269
 51
359.6952151201917
  0
POLYLINE
  5
1A7
  8
1
  6
CONTINUOUS
 62
     9
 66
     1
 10
0.0
 20
0.0
 30
0.0
  0
VERTEX
  5
51B
  8
1
  6
CONTINUOUS
 62
     9
 10
-164.7916923486825
 20
95.5303833656083
 30
0.0
  0
VERTEX
  5
51C
  8
1
  6
CONTINUOUS
 62
     9
 10
-164.9201161853923
 20
95.48673391362654
 30
0.0
  0
VERTEX
  5
51D
  8
1
  6
CONTINUOUS
 62
     9
 10
-165.0501190983087
 20
95.45799992919028
 30
0.0
  0
VERTEX
  5
51E
  8
1
  6
CONTINUOUS
 62
     9
 10
-165.1815609762334
 20
95.44378162571347
 30
0.0
  0
VERTEX
  5
51F
  8
1
  6
CONTINUOUS
 62
     9
 10
-165.3147458365878
 20
95.4438220818568
 30
0.0
  0
VERTEX
  5
520
  8
1
  6
CONTINUOUS
 62
     9
 10
-165.4432741722293
 20
95.45852782174306
 30
0.0
  0
VERTEX
  5
521
  8
1
  6
CONTINUOUS
 62
     9
 10
-165.565796609977
 20
95.48796544948827
 30
0.0
  0
VERTEX
  5
522
  8
1
  6
CONTINUOUS
 62
     9
 10
-165.6802588468225
 20
95.53120810995578
 30
0.0
  0
VERTEX
  5
523
  8
1
  6
CONTINUOUS
 62
     9
 10
-165.788970046381
 20
95.58865163888667
 30
0.0
  0
VERTEX
  5
524
  8
1
  6
CONTINUOUS
 62
     9
 10
-165.893846571129
 20
95.66175493490418
 30
0.0
  0
VERTEX
  5
525
  8
1
  6
CONTINUOUS
 62
     9
 10
-165.9928392710748
 20
95.74955513779541
 30
0.0
  0
SEQEND
  5
7C7
  8
1
  6
CONTINUOUS
 62
     9
  0
ARC
  5
1A8
  8
1
  6
CONTINUOUS
 62
     9
 10
-164.2885649657067
 20
97.23555640888306
 30
0.0
 40
2.261139245073533
 50
174.7617110312584
 51
221.0860232856749
  0
LINE
  5
1A9
  8
1
  6
CONTINUOUS
 62
     9
 10
-163.4183516902615
 20
102.9669628848588
 30
0.0
 11
-163.6165548695882
 21
97.4419940764001
 31
0.0
  0
LINE
  5
1AA
  8
1
  6
CONTINUOUS
 62
     7
 10
-169.8419434606242
 20
93.91702526834891
 30
0.0
 11
-166.3445510691511
 21
93.91702525898408
 31
0.0
  0
LINE
  5
1AB
  8
1
  6
CONTINUOUS
 62
     7
 10
-157.0068445433727
 20
93.91702525898408
 30
0.0
 11
-155.6793821609074
 21
93.91702525898408
 31
0.0
  0
LINE
  5
1AC
  8
1
  6
CONTINUOUS
 62
     7
 10
-155.6793821609074
 20
93.91702525898408
 30
0.0
 11
-154.3419434930034
 21
93.91702525898408
 31
0.0
  0
LINE
  5
1AD
  8
1
  6
CONTINUOUS
 62
     7
 10
-142.3397449157922
 20
93.91702525898408
 30
0.0
 11
-138.8419435136532
 21
93.91702526834891
 31
0.0
  0
LINE
  5
1AE
  8
1
  6
CONTINUOUS
 62
     7
 10
-151.9720605819683
 20
97.4235575859242
 30
0.0
 11
-151.9758260466157
 21
97.426475056016
 31
0.0
  0
LINE
  5
1AF
  8
1
  6
CONTINUOUS
 62
     9
 10
-156.6347051194171
 20
102.9450225777154
 30
0.0
 11
-156.6363802911964
 21
102.9512461941438
 31
0.0
  0
ARC
  5
1B0
  8
1
  6
CONTINUOUS
 62
     7
 10
-153.0709945419734
 20
102.9820721101194
 30
0.0
 40
3.13042382717002
 50
164.3961878805485
 51
180.2765434072419
  0
LINE
  5
1B1
  8
1
  6
CONTINUOUS
 62
     7
 10
-156.0860455732935
 20
103.8241057295489
 30
0.0
 11
-156.0402602898398
 21
103.9016744641282
 31
0.0
  0
LINE
  5
1B2
  8
1
  6
CONTINUOUS
 62
     7
 10
-156.0072835944668
 20
103.9170252701679
 30
0.0
 11
-152.6767533408279
 21
103.9170252701679
 31
0.0
  0
LINE
  5
1B3
  8
1
  6
CONTINUOUS
 62
     7
 10
-152.6767533390303
 20
103.9170252701678
 30
0.0
 11
-152.643627521592
 21
103.9015432272551
 31
0.0
  0
LINE
  5
1B4
  8
1
  6
CONTINUOUS
 62
     7
 10
-156.0402602898398
 20
103.9016744641282
 30
0.0
 11
-156.0072834929032
 21
103.9170252701678
 31
0.0
  0
LINE
  5
1B5
  8
1
  6
CONTINUOUS
 62
     7
 10
-152.643627521592
 20
103.9015432272551
 30
0.0
 11
-152.5908440767552
 21
103.8053422148851
 31
0.0
  0
ARC
  5
1B6
  8
1
  6
CONTINUOUS
 62
     7
 10
-155.7825726964254
 20
102.9667037301084
 30
0.0
 40
3.300067588666983
 50
0.0044994843701716
 51
14.72190161653129
  0
LINE
  5
1B7
  8
1
  6
CONTINUOUS
 62
     7
 10
-159.8666418297445
 20
103.917027794231
 30
0.0
 11
-156.0024292819089
 21
103.917027690715
 31
0.0
  0
LINE
  5
1B8
  8
1
  6
CONTINUOUS
 62
     7
 10
-148.8174143098861
 20
103.9170275029323
 30
0.0
 11
-148.845833583711
 21
103.9112739000351
 31
0.0
  0
LINE
  5
1B9
  8
1
  6
CONTINUOUS
 62
     7
 10
-152.6816358978221
 20
103.9170276063921
 30
0.0
 11
-148.817409429654
 21
103.9170275028751
 31
0.0
  0
ARC
  5
1BA
  8
1
  6
CONTINUOUS
 62
     7
 10
-150.6578882897035
 20
102.9918045913206
 30
0.0
 40
2.171853277947029
 50
359.3446353588589
 51
19.36525108969204
  0
POLYLINE
  5
1BB
  8
1
  6
CONTINUOUS
 62
     7
 66
     1
 10
0.0
 20
0.0
 30
0.0
  0
VERTEX
  5
526
  8
1
  6
CONTINUOUS
 62
     7
 10
-148.6089099250405
 20
103.7119672965975
 30
0.0
  0
VERTEX
  5
527
  8
1
  6
CONTINUOUS
 62
     7
 10
-148.6576181742378
 20
103.8053870253191
 30
0.0
  0
VERTEX
  5
528
  8
1
  6
CONTINUOUS
 62
     7
 10
-148.7347371586692
 20
103.8910112710899
 30
0.0
  0
VERTEX
  5
529
  8
1
  6
CONTINUOUS
 62
     7
 10
-148.7500591370605
 20
103.9006376324916
 30
0.0
  0
SEQEND
  5
7C8
  8
1
  6
CONTINUOUS
 62
     7
  0
LINE
  5
1BC
  8
1
  6
CONTINUOUS
 62
     7
 10
-145.9249895956456
 20
103.9170252701678
 30
0.0
 11
-145.8094292353276
 21
103.9013825657734
 31
0.0
  0
LINE
  5
1BD
  8
1
  6
CONTINUOUS
 62
     7
 10
-148.8093214554604
 20
103.9170252701679
 30
0.0
 11
-145.9249896047327
 21
103.9170252701679
 31
0.0
  0
LINE
  5
1BE
  8
1
  6
CONTINUOUS
 62
     7
 10
-148.7500591370605
 20
103.9006376324916
 30
0.0
 11
-148.809321440139
 21
103.9170252701678
 31
0.0
  0
LINE
  5
1BF
  8
1
  6
CONTINUOUS
 62
     7
 10
-159.8384094692885
 20
103.9113341751918
 30
0.0
 11
-159.8666442282922
 21
103.917027794173
 31
0.0
  0
POLYLINE
  5
1C0
  8
1
  6
CONTINUOUS
 62
     7
 66
     1
 10
0.0
 20
0.0
 30
0.0
  0
VERTEX
  5
52A
  8
1
  6
CONTINUOUS
 62
     7
 10
-159.9339397195594
 20
103.900646537642
 30
0.0
  0
VERTEX
  5
52B
  8
1
  6
CONTINUOUS
 62
     7
 10
-160.0135852837706
 20
103.824289990835
 30
0.0
  0
VERTEX
  5
52C
  8
1
  6
CONTINUOUS
 62
     7
 10
-160.0750088796505
 20
103.7120933615701
 30
0.0
  0
SEQEND
  5
7C9
  8
1
  6
CONTINUOUS
 62
     7
  0
ARC
  5
1C1
  8
1
  6
CONTINUOUS
 62
     7
 10
-158.1506717273149
 20
103.0125438073673
 30
0.0
 40
2.047545617231605
 50
160.0224005335825
 51
181.2755809124664
  0
LINE
  5
1C2
  8
1
  6
CONTINUOUS
 62
     7
 10
-159.8747038806862
 20
103.9170252701678
 30
0.0
 11
-159.9339397195594
 21
103.900646537642
 31
0.0
  0
ARC
  5
1C3
  8
1
  6
CONTINUOUS
 62
     7
 10
-162.0942469536515
 20
102.9311087654667
 30
0.0
 40
1.324590096168059
 50
149.8973211935736
 51
178.4489233357914
  0
POLYLINE
  5
1C4
  8
1
  6
CONTINUOUS
 62
     7
 66
     1
 10
0.0
 20
0.0
 30
0.0
  0
VERTEX
  5
52D
  8
1
  6
CONTINUOUS
 62
     7
 10
-163.2401868972742
 20
103.5954584990233
 30
0.0
  0
VERTEX
  5
52E
  8
1
  6
CONTINUOUS
 62
     7
 10
-163.1780205181726
 20
103.6852023449864
 30
0.0
  0
VERTEX
  5
52F
  8
1
  6
CONTINUOUS
 62
     7
 10
-163.1087354144362
 20
103.7621742950544
 30
0.0
  0
VERTEX
  5
530
  8
1
  6
CONTINUOUS
 62
     7
 10
-163.0088102926405
 20
103.8413399199901
 30
0.0
  0
VERTEX
  5
531
  8
1
  6
CONTINUOUS
 62
     7
 10
-162.9074038113557
 20
103.8910625624842
 30
0.0
  0
VERTEX
  5
532
  8
1
  6
CONTINUOUS
 62
     7
 10
-162.8748007566683
 20
103.9013200424787
 30
0.0
  0
SEQEND
  5
7CA
  8
1
  6
CONTINUOUS
 62
     7
  0
LINE
  5
1C5
  8
1
  6
CONTINUOUS
 62
     7
 10
-162.7590186428038
 20
103.9170252701679
 30
0.0
 11
-159.8747038747341
 21
103.9170252701679
 31
0.0
  0
LINE
  5
1C6
  8
1
  6
CONTINUOUS
 62
     7
 10
-162.8748007566683
 20
103.9013200424787
 30
0.0
 11
-162.7590186660708
 21
103.9170252701678
 31
0.0
  0
POLYLINE
  5
1C7
  8
1
  6
CONTINUOUS
 62
     7
 66
     1
 10
0.0
 20
0.0
 30
0.0
  0
VERTEX
  5
533
  8
1
  6
CONTINUOUS
 62
     7
 10
-145.8094292353276
 20
103.9013825657734
 30
0.0
  0
VERTEX
  5
534
  8
1
  6
CONTINUOUS
 62
     7
 10
-145.7001153404221
 20
103.8561946123397
 30
0.0
  0
VERTEX
  5
535
  8
1
  6
CONTINUOUS
 62
     7
 10
-145.5991914231673
 20
103.7842396905202
 30
0.0
  0
VERTEX
  5
536
  8
1
  6
CONTINUOUS
 62
     7
 10
-145.5277531009309
 20
103.7117033379284
 30
0.0
  0
VERTEX
  5
537
  8
1
  6
CONTINUOUS
 62
     7
 10
-145.4631064688412
 20
103.6258602469682
 30
0.0
  0
VERTEX
  5
538
  8
1
  6
CONTINUOUS
 62
     7
 10
-145.406207647708
 20
103.5283115917697
 30
0.0
  0
SEQEND
  5
7CB
  8
1
  6
CONTINUOUS
 62
     7
  0
ARC
  5
1C8
  8
1
  6
CONTINUOUS
 62
     7
 10
-146.6267111221326
 20
102.9241566242349
 30
0.0
 40
1.361848727237972
 50
1.801244289900694
 51
26.33562672359085
  0
LINE
  5
1C9
  8
1
  6
CONTINUOUS
 62
     7
 10
-143.1126918086739
 20
103.9170284629606
 30
0.0
 11
-143.0931892831724
 21
103.9127014519059
 31
0.0
  0
LINE
  5
1CA
  8
1
  6
CONTINUOUS
 62
     7
 10
-145.9415092099325
 20
103.9170285664203
 30
0.0
 11
-145.7961292952426
 21
103.9170285694291
 31
0.0
  0
LINE
  5
1CB
  8
1
  6
CONTINUOUS
 62
     7
 10
-145.7961292952426
 20
103.9170285694291
 30
0.0
 11
-143.1126858591211
 21
103.9170284629039
 31
0.0
  0
LINE
  5
1CC
  8
1
  6
CONTINUOUS
 62
     7
 10
-165.571307009101
 20
103.9170311180742
 30
0.0
 11
-162.8865451949978
 21
103.9170310268085
 31
0.0
  0
LINE
  5
1CD
  8
1
  6
CONTINUOUS
 62
     7
 10
-162.8865451949978
 20
103.9170310268085
 30
0.0
 11
-162.7425213805861
 21
103.9170310145581
 31
0.0
  0
LINE
  5
1CE
  8
1
  6
CONTINUOUS
 62
     7
 10
-142.9571836458808
 20
103.9006520844312
 30
0.0
 11
-143.0938211863211
 21
103.9170252701678
 31
0.0
  0
ARC
  5
1CF
  8
1
  6
CONTINUOUS
 62
     7
 10
-143.5764153872366
 20
102.9318875099306
 30
0.0
 40
1.236892663486417
 50
1.624991870807525
 51
27.04637077740789
  0
POLYLINE
  5
1D0
  8
1
  6
CONTINUOUS
 62
     7
 66
     1
 10
0.0
 20
0.0
 30
0.0
  0
VERTEX
  5
539
  8
1
  6
CONTINUOUS
 62
     7
 10
-142.4747907803171
 20
103.4943167822982
 30
0.0
  0
VERTEX
  5
53A
  8
1
  6
CONTINUOUS
 62
     7
 10
-142.5362086984057
 20
103.5951729985703
 30
0.0
  0
VERTEX
  5
53B
  8
1
  6
CONTINUOUS
 62
     7
 10
-142.6075928282685
 20
103.6849788482086
 30
0.0
  0
VERTEX
  5
53C
  8
1
  6
CONTINUOUS
 62
     7
 10
-142.6877440817677
 20
103.7620018657748
 30
0.0
  0
VERTEX
  5
53D
  8
1
  6
CONTINUOUS
 62
     7
 10
-142.7745699124743
 20
103.8243153146108
 30
0.0
  0
VERTEX
  5
53E
  8
1
  6
CONTINUOUS
 62
     7
 10
-142.8925637993931
 20
103.8811974751755
 30
0.0
  0
VERTEX
  5
53F
  8
1
  6
CONTINUOUS
 62
     7
 10
-142.9571836458808
 20
103.9006520844312
 30
0.0
  0
SEQEND
  5
7CC
  8
1
  6
CONTINUOUS
 62
     7
  0
LINE
  5
1D1
  8
1
  6
CONTINUOUS
 62
     7
 10
-165.590758767845
 20
103.9127189930893
 30
0.0
 11
-165.5713102178421
 21
103.9170311180169
 31
0.0
  0
POLYLINE
  5
1D2
  8
1
  6
CONTINUOUS
 62
     7
 66
     1
 10
0.0
 20
0.0
 30
0.0
  0
VERTEX
  5
540
  8
1
  6
CONTINUOUS
 62
     7
 10
-165.7270010637391
 20
103.9006007397641
 30
0.0
  0
VERTEX
  5
541
  8
1
  6
CONTINUOUS
 62
     7
 10
-165.8509635090931
 20
103.8561290045485
 30
0.0
  0
VERTEX
  5
542
  8
1
  6
CONTINUOUS
 62
     7
 10
-165.9392073273183
 20
103.8050808363827
 30
0.0
  0
VERTEX
  5
543
  8
1
  6
CONTINUOUS
 62
     7
 10
-166.0244615553864
 20
103.7372600842053
 30
0.0
  0
VERTEX
  5
544
  8
1
  6
CONTINUOUS
 62
     7
 10
-166.1018143200004
 20
103.6556337781774
 30
0.0
  0
VERTEX
  5
545
  8
1
  6
CONTINUOUS
 62
     7
 10
-166.1699772827187
 20
103.5617367638663
 30
0.0
  0
VERTEX
  5
546
  8
1
  6
CONTINUOUS
 62
     7
 10
-166.227894893379
 20
103.4571927500041
 30
0.0
  0
SEQEND
  5
7CD
  8
1
  6
CONTINUOUS
 62
     7
  0
ARC
  5
1D3
  8
1
  6
CONTINUOUS
 62
     7
 10
-165.1126753680497
 20
102.9345366573255
 30
0.0
 40
1.231618439651572
 50
154.8895062618042
 51
178.4913340379602
  0
LINE
  5
1D4
  8
1
  6
CONTINUOUS
 62
     7
 10
-165.5901557268346
 20
103.9170252701677
 30
0.0
 11
-165.7270010637391
 21
103.9006007397641
 31
0.0
  0
LINE
  5
1D5
  8
1
  6
CONTINUOUS
 62
     7
 10
-141.4285411512194
 20
103.9170252701679
 30
0.0
 11
-141.2647752507561
 21
103.9019626764394
 31
0.0
  0
LINE
  5
1D6
  8
1
  6
CONTINUOUS
 62
     7
 10
-143.0938212174575
 20
103.9170252701678
 30
0.0
 11
-142.9710724707068
 21
103.9170252701678
 31
0.0
  0
LINE
  5
1D7
  8
1
  6
CONTINUOUS
 62
     7
 10
-142.9710724707068
 20
103.9170252701678
 30
0.0
 11
-141.4285411651643
 21
103.9170252701679
 31
0.0
  0
POLYLINE
  5
1D8
  8
1
  6
CONTINUOUS
 62
     7
 66
     1
 10
0.0
 20
0.0
 30
0.0
  0
VERTEX
  5
547
  8
1
  6
CONTINUOUS
 62
     7
 10
-168.2033052665034
 20
102.9669628871116
 30
0.0
  0
VERTEX
  5
548
  8
1
  6
CONTINUOUS
 62
     7
 10
-168.2016578225376
 20
102.9940205316133
 30
0.0
  0
VERTEX
  5
549
  8
1
  6
CONTINUOUS
 62
     7
 10
-168.1991388993026
 20
103.0224702687738
 30
0.0
  0
VERTEX
  5
54A
  8
1
  6
CONTINUOUS
 62
     7
 10
-168.1956360121227
 20
103.0522774011605
 30
0.0
  0
VERTEX
  5
54B
  8
1
  6
CONTINUOUS
 62
     7
 10
-168.1910322851012
 20
103.083399173585
 30
0.0
  0
VERTEX
  5
54C
  8
1
  6
CONTINUOUS
 62
     7
 10
-168.1852069214106
 20
103.115783897392
 30
0.0
  0
VERTEX
  5
54D
  8
1
  6
CONTINUOUS
 62
     7
 10
-168.1780357587641
 20
103.1493700605765
 30
0.0
  0
VERTEX
  5
54E
  8
1
  6
CONTINUOUS
 62
     7
 10
-168.1693919174581
 20
103.1840854319961
 30
0.0
  0
VERTEX
  5
54F
  8
1
  6
CONTINUOUS
 62
     7
 10
-168.1591465481562
 20
103.2198461692233
 30
0.0
  0
VERTEX
  5
550
  8
1
  6
CONTINUOUS
 62
     7
 10
-168.1484997885881
 20
103.2526970243512
 30
0.0
  0
VERTEX
  5
551
  8
1
  6
CONTINUOUS
 62
     7
 10
-168.1363693359159
 20
103.286231594825
 30
0.0
  0
VERTEX
  5
552
  8
1
  6
CONTINUOUS
 62
     7
 10
-168.1226620900407
 20
103.3203624519143
 30
0.0
  0
VERTEX
  5
553
  8
1
  6
CONTINUOUS
 62
     7
 10
-168.1072861625939
 20
103.3549926574718
 30
0.0
  0
VERTEX
  5
554
  8
1
  6
CONTINUOUS
 62
     7
 10
-168.0901516287282
 20
103.3900153583146
 30
0.0
  0
VERTEX
  5
555
  8
1
  6
CONTINUOUS
 62
     7
 10
-168.0715269544142
 20
103.4246814115883
 30
0.0
  0
VERTEX
  5
556
  8
1
  6
CONTINUOUS
 62
     7
 10
-168.0510427284346
 20
103.4594922117072
 30
0.0
  0
VERTEX
  5
557
  8
1
  6
CONTINUOUS
 62
     7
 10
-168.0286241087284
 20
103.4943167824984
 30
0.0
  0
VERTEX
  5
558
  8
1
  6
CONTINUOUS
 62
     7
 10
-168.0042014621288
 20
103.5290139142632
 30
0.0
  0
VERTEX
  5
559
  8
1
  6
CONTINUOUS
 62
     7
 10
-167.97831653449
 20
103.5626791818524
 30
0.0
  0
VERTEX
  5
55A
  8
1
  6
CONTINUOUS
 62
     7
 10
-167.9510606523081
 20
103.5951729972682
 30
0.0
  0
VERTEX
  5
55B
  8
1
  6
CONTINUOUS
 62
     7
 10
-167.9224790495682
 20
103.6264296813802
 30
0.0
  0
VERTEX
  5
55C
  8
1
  6
CONTINUOUS
 62
     7
 10
-167.8926197284242
 20
103.6563855084675
 30
0.0
  0
VERTEX
  5
55D
  8
1
  6
CONTINUOUS
 62
     7
 10
-167.8615333892452
 20
103.6849788461858
 30
0.0
  0
VERTEX
  5
55E
  8
1
  6
CONTINUOUS
 62
     7
 10
-167.8292733545601
 20
103.7121502929497
 30
0.0
  0
VERTEX
  5
55F
  8
1
  6
CONTINUOUS
 62
     7
 10
-167.795895486977
 20
103.737842812418
 30
0.0
  0
VERTEX
  5
560
  8
1
  6
CONTINUOUS
 62
     7
 10
-167.7614581011612
 20
103.7620018647738
 30
0.0
  0
VERTEX
  5
561
  8
1
  6
CONTINUOUS
 62
     7
 10
-167.7260218699777
 20
103.7845755344921
 30
0.0
  0
VERTEX
  5
562
  8
1
  6
CONTINUOUS
 62
     7
 10
-167.6896497249104
 20
103.8055146542886
 30
0.0
  0
VERTEX
  5
563
  8
1
  6
CONTINUOUS
 62
     7
 10
-167.6533412123183
 20
103.8243153144916
 30
0.0
  0
VERTEX
  5
564
  8
1
  6
CONTINUOUS
 62
     7
 10
-167.6167897491004
 20
103.8412483383924
 30
0.0
  0
VERTEX
  5
565
  8
1
  6
CONTINUOUS
 62
     7
 10
-167.5800844331354
 20
103.8563472368833
 30
0.0
  0
VERTEX
  5
566
  8
1
  6
CONTINUOUS
 62
     7
 10
-167.543310181656
 20
103.8696497540762
 30
0.0
  0
VERTEX
  5
567
  8
1
  6
CONTINUOUS
 62
     7
 10
-167.5065476538001
 20
103.8811974746448
 30
0.0
  0
VERTEX
  5
568
  8
1
  6
CONTINUOUS
 62
     7
 10
-167.4698731977043
 20
103.8910354408222
 30
0.0
  0
VERTEX
  5
569
  8
1
  6
CONTINUOUS
 62
     7
 10
-167.4260811850046
 20
103.9006520840602
 30
0.0
  0
VERTEX
  5
56A
  8
1
  6
CONTINUOUS
 62
     7
 10
-167.4192703164624
 20
103.9019436302561
 30
0.0
  0
SEQEND
  5
7CE
  8
1
  6
CONTINUOUS
 62
     7
  0
LINE
  5
1D9
  8
1
  6
CONTINUOUS
 62
     7
 10
-167.2554050119598
 20
103.9170252701679
 30
0.0
 11
-165.5901557146934
 21
103.9170252701679
 31
0.0
  0
LINE
  5
1DA
  8
1
  6
CONTINUOUS
 62
     7
 10
-167.4192703164624
 20
103.9019436302561
 30
0.0
 11
-167.255405047699
 21
103.9170252701677
 31
0.0
  0
POLYLINE
  5
1DB
  8
1
  6
CONTINUOUS
 62
     7
 66
     1
 10
0.0
 20
0.0
 30
0.0
  0
VERTEX
  5
56B
  8
1
  6
CONTINUOUS
 62
     7
 10
-141.2647752507561
 20
103.9019626764394
 30
0.0
  0
VERTEX
  5
56C
  8
1
  6
CONTINUOUS
 62
     7
 10
-141.2575965862812
 20
103.9006007267081
 30
0.0
  0
VERTEX
  5
56D
  8
1
  6
CONTINUOUS
 62
     7
 10
-141.2137229238353
 20
103.8909503545233
 30
0.0
  0
VERTEX
  5
56E
  8
1
  6
CONTINUOUS
 62
     7
 10
-141.1769770526654
 20
103.8810762036126
 30
0.0
  0
VERTEX
  5
56F
  8
1
  6
CONTINUOUS
 62
     7
 10
-141.1401406192111
 20
103.8694842839264
 30
0.0
  0
VERTEX
  5
570
  8
1
  6
CONTINUOUS
 62
     7
 10
-141.1032905795266
 20
103.8561289510373
 30
0.0
  0
VERTEX
  5
571
  8
1
  6
CONTINUOUS
 62
     7
 10
-141.0665082658245
 20
103.8409680507927
 30
0.0
  0
VERTEX
  5
572
  8
1
  6
CONTINUOUS
 62
     7
 10
-141.0298793339036
 20
103.8239633091743
 30
0.0
  0
VERTEX
  5
573
  8
1
  6
CONTINUOUS
 62
     7
 10
-140.993493685536
 20
103.8050807321299
 30
0.0
  0
VERTEX
  5
574
  8
1
  6
CONTINUOUS
 62
     7
 10
-140.9571205808244
 20
103.7840940255171
 30
0.0
  0
VERTEX
  5
575
  8
1
  6
CONTINUOUS
 62
     7
 10
-140.9216838064412
 20
103.7614707473093
 30
0.0
  0
VERTEX
  5
576
  8
1
  6
CONTINUOUS
 62
     7
 10
-140.8872465083878
 20
103.7372599423887
 30
0.0
  0
VERTEX
  5
577
  8
1
  6
CONTINUOUS
 62
     7
 10
-140.8538695875682
 20
103.7115134236353
 30
0.0
  0
VERTEX
  5
578
  8
1
  6
CONTINUOUS
 62
     7
 10
-140.8216115988546
 20
103.6842856490857
 30
0.0
  0
VERTEX
  5
579
  8
1
  6
CONTINUOUS
 62
     7
 10
-140.7905286558114
 20
103.65563359517
 30
0.0
  0
VERTEX
  5
57A
  8
1
  6
CONTINUOUS
 62
     7
 10
-140.7606743411986
 20
103.62561662633
 30
0.0
  0
VERTEX
  5
57B
  8
1
  6
CONTINUOUS
 62
     7
 10
-140.7320996233629
 20
103.5942963613221
 30
0.0
  0
VERTEX
  5
57C
  8
1
  6
CONTINUOUS
 62
     7
 10
-140.7048527786111
 20
103.5617365365123
 30
0.0
  0
VERTEX
  5
57D
  8
1
  6
CONTINUOUS
 62
     7
 10
-140.6789793196461
 20
103.5280028664706
 30
0.0
  0
VERTEX
  5
57E
  8
1
  6
CONTINUOUS
 62
     7
 10
-140.6541837322495
 20
103.4926579685656
 30
0.0
  0
VERTEX
  5
57F
  8
1
  6
CONTINUOUS
 62
     7
 10
-140.6314660818064
 20
103.4571924961431
 30
0.0
  0
VERTEX
  5
580
  8
1
  6
CONTINUOUS
 62
     7
 10
-140.6107519607483
 20
103.4217553448673
 30
0.0
  0
VERTEX
  5
581
  8
1
  6
CONTINUOUS
 62
     7
 10
-140.5919614295361
 20
103.3864843455836
 30
0.0
  0
VERTEX
  5
582
  8
1
  6
CONTINUOUS
 62
     7
 10
-140.5750100350551
 20
103.3515064496925
 30
0.0
  0
VERTEX
  5
583
  8
1
  6
CONTINUOUS
 62
     7
 10
-140.5600663622018
 20
103.3175510612694
 30
0.0
  0
VERTEX
  5
584
  8
1
  6
CONTINUOUS
 62
     7
 10
-140.5467259322903
 20
103.2840911757312
 30
0.0
  0
VERTEX
  5
585
  8
1
  6
CONTINUOUS
 62
     7
 10
-140.5349010960122
 20
103.2512180795935
 30
0.0
  0
VERTEX
  5
586
  8
1
  6
CONTINUOUS
 62
     7
 10
-140.5245031459202
 20
103.2190141922405
 30
0.0
  0
VERTEX
  5
587
  8
1
  6
CONTINUOUS
 62
     7
 10
-140.5143061933897
 20
103.1833246898723
 30
0.0
  0
VERTEX
  5
588
  8
1
  6
CONTINUOUS
 62
     7
 10
-140.5057061804539
 20
103.1486906195907
 30
0.0
  0
VERTEX
  5
589
  8
1
  6
CONTINUOUS
 62
     7
 10
-140.4985737739397
 20
103.1151954786556
 30
0.0
  0
VERTEX
  5
58A
  8
1
  6
CONTINUOUS
 62
     7
 10
-140.4927816905862
 20
103.0829111398219
 30
0.0
  0
VERTEX
  5
58B
  8
1
  6
CONTINUOUS
 62
     7
 10
-140.4882054441423
 20
103.0518987528006
 30
0.0
  0
VERTEX
  5
58C
  8
1
  6
CONTINUOUS
 62
     7
 10
-140.4847239921405
 20
103.0222096485062
 30
0.0
  0
VERTEX
  5
58D
  8
1
  6
CONTINUOUS
 62
     7
 10
-140.4822202896448
 20
102.9938862365209
 30
0.0
  0
VERTEX
  5
58E
  8
1
  6
CONTINUOUS
 62
     7
 10
-140.4805817574865
 20
102.9669628874939
 30
0.0
  0
SEQEND
  5
7CF
  8
1
  6
CONTINUOUS
 62
     7
  0
LINE
  5
1DC
  8
1
  6
CONTINUOUS
 62
     7
 10
-141.4522710352247
 20
103.9170236981226
 30
0.0
 11
-141.4271957259219
 21
103.9170236992617
 31
0.0
  0
LINE
  5
1DD
  8
1
  6
CONTINUOUS
 62
     7
 10
-141.4271957259219
 20
103.9170236992617
 30
0.0
 11
-141.2458667392243
 21
103.917023704953
 31
0.0
  0
LINE
  5
1DE
  8
1
  6
CONTINUOUS
 62
     7
 10
-141.2458667392243
 20
103.917023704953
 30
0.0
 11
-140.4168311728864
 21
103.9170235946063
 31
0.0
  0
LINE
  5
1DF
  8
1
  6
CONTINUOUS
 62
     7
 10
-168.2670716214485
 20
103.917032078188
 30
0.0
 11
-167.4380233296363
 21
103.9170320096955
 31
0.0
  0
LINE
  5
1E0
  8
1
  6
CONTINUOUS
 62
     7
 10
-167.4380233296363
 20
103.9170320096955
 30
0.0
 11
-167.4051842718555
 21
103.9170320043395
 31
0.0
  0
LINE
  5
1E1
  8
1
  6
CONTINUOUS
 62
     7
 10
-167.4051842718555
 20
103.9170320043395
 30
0.0
 11
-167.2316821079006
 21
103.9170319746734
 31
0.0
  0
LINE
  5
1E2
  8
1
  6
CONTINUOUS
 62
     7
 10
-140.1996291627891
 20
103.8977005147768
 30
0.0
 11
-140.3922460590525
 21
103.9170252701677
 31
0.0
  0
POLYLINE
  5
1E3
  8
1
  6
CONTINUOUS
 62
     7
 66
     1
 10
0.0
 20
0.0
 30
0.0
  0
VERTEX
  5
58F
  8
1
  6
CONTINUOUS
 62
     7
 10
-139.4097688887224
 20
102.9669628871117
 30
0.0
  0
VERTEX
  5
590
  8
1
  6
CONTINUOUS
 62
     7
 10
-139.411459912881
 20
102.9940610747085
 30
0.0
  0
VERTEX
  5
591
  8
1
  6
CONTINUOUS
 62
     7
 10
-139.4140139595336
 20
103.0225492477394
 30
0.0
  0
VERTEX
  5
592
  8
1
  6
CONTINUOUS
 62
     7
 10
-139.4175522715965
 20
103.0523926064062
 30
0.0
  0
VERTEX
  5
593
  8
1
  6
CONTINUOUS
 62
     7
 10
-139.422200838826
 20
103.0835482854924
 30
0.0
  0
VERTEX
  5
594
  8
1
  6
CONTINUOUS
 62
     7
 10
-139.4280898972932
 20
103.1159644802827
 30
0.0
  0
VERTEX
  5
595
  8
1
  6
CONTINUOUS
 62
     7
 10
-139.4353533374265
 20
103.1495795585628
 30
0.0
  0
VERTEX
  5
596
  8
1
  6
CONTINUOUS
 62
     7
 10
-139.4441280126135
 20
103.1843211669652
 30
0.0
  0
VERTEX
  5
597
  8
1
  6
CONTINUOUS
 62
     7
 10
-139.4545529405821
 20
103.2201053412042
 30
0.0
  0
VERTEX
  5
598
  8
1
  6
CONTINUOUS
 62
     7
 10
-139.4654104191746
 20
103.2529747200004
 30
0.0
  0
VERTEX
  5
599
  8
1
  6
CONTINUOUS
 62
     7
 10
-139.4778064405675
 20
103.2865253891542
 30
0.0
  0
VERTEX
  5
59A
  8
1
  6
CONTINUOUS
 62
     7
 10
-139.4918415661955
 20
103.3206698438462
 30
0.0
  0
VERTEX
  5
59B
  8
1
  6
CONTINUOUS
 62
     7
 10
-139.5076150968665
 20
103.3553110772433
 30
0.0
  0
VERTEX
  5
59C
  8
1
  6
CONTINUOUS
 62
     7
 10
-139.5252242667624
 20
103.3903421768381
 30
0.0
  0
VERTEX
  5
59D
  8
1
  6
CONTINUOUS
 62
     7
 10
-139.5443969990672
 20
103.4250138733669
 30
0.0
  0
VERTEX
  5
59E
  8
1
  6
CONTINUOUS
 62
     7
 10
-139.565517040981
 20
103.4598277016639
 30
0.0
  0
VERTEX
  5
59F
  8
1
  6
CONTINUOUS
 62
     7
 10
-139.5886655156403
 20
103.4946526672569
 30
0.0
  0
VERTEX
  5
5A0
  8
1
  6
CONTINUOUS
 62
     7
 10
-139.6139179914923
 20
103.5293475585624
 30
0.0
  0
VERTEX
  5
5A1
  8
1
  6
CONTINUOUS
 62
     7
 10
-139.6406995704177
 20
103.5629879431209
 30
0.0
  0
VERTEX
  5
5A2
  8
1
  6
CONTINUOUS
 62
     7
 10
-139.6689319906302
 20
103.5954583260334
 30
0.0
  0
VERTEX
  5
5A3
  8
1
  6
CONTINUOUS
 62
     7
 10
-139.6985671723248
 20
103.6266929926331
 30
0.0
  0
VERTEX
  5
5A4
  8
1
  6
CONTINUOUS
 62
     7
 10
-139.7295540469641
 20
103.6566281674374
 30
0.0
  0
VERTEX
  5
5A5
  8
1
  6
CONTINUOUS
 62
     7
 10
-139.7618386294286
 20
103.6852021546169
 30
0.0
  0
VERTEX
  5
5A6
  8
1
  6
CONTINUOUS
 62
     7
 10
-139.795364096724
 20
103.7123554759462
 30
0.0
  0
VERTEX
  5
5A7
  8
1
  6
CONTINUOUS
 62
     7
 10
-139.8300708731778
 20
103.7380310059245
 30
0.0
  0
VERTEX
  5
5A8
  8
1
  6
CONTINUOUS
 62
     7
 10
-139.8658967220414
 20
103.7621741037546
 30
0.0
  0
VERTEX
  5
5A9
  8
1
  6
CONTINUOUS
 62
     7
 10
-139.9027768434004
 20
103.7847327418702
 30
0.0
  0
VERTEX
  5
5AA
  8
1
  6
CONTINUOUS
 62
     7
 10
-139.9406439782819
 20
103.805657630704
 30
0.0
  0
VERTEX
  5
5AB
  8
1
  6
CONTINUOUS
 62
     7
 10
-139.9784240501855
 20
103.8244307316726
 30
0.0
  0
VERTEX
  5
5AC
  8
1
  6
CONTINUOUS
 62
     7
 10
-140.0164623966213
 20
103.8413397517472
 30
0.0
  0
VERTEX
  5
5AD
  8
1
  6
CONTINUOUS
 62
     7
 10
-140.0546633251633
 20
103.8564180156121
 30
0.0
  0
VERTEX
  5
5AE
  8
1
  6
CONTINUOUS
 62
     7
 10
-140.0929355938264
 20
103.8697030652309
 30
0.0
  0
VERTEX
  5
5AF
  8
1
  6
CONTINUOUS
 62
     7
 10
-140.1311924961267
 20
103.8812362697763
 30
0.0
  0
VERTEX
  5
5B0
  8
1
  6
CONTINUOUS
 62
     7
 10
-140.1693519199387
 20
103.8910624450967
 30
0.0
  0
VERTEX
  5
5B1
  8
1
  6
CONTINUOUS
 62
     7
 10
-140.1996291627891
 20
103.8977005147768
 30
0.0
  0
SEQEND
  5
7D0
  8
1
  6
CONTINUOUS
 62
     7
  0
LINE
  5
1E4
  8
1
  6
CONTINUOUS
 62
     7
 10
-168.3261017049212
 20
103.9126308772468
 30
0.0
 11
-168.2670747835061
 21
103.9170320781308
 31
0.0
  0
POLYLINE
  5
1E5
  8
1
  6
CONTINUOUS
 62
     7
 66
     1
 10
0.0
 20
0.0
 30
0.0
  0
VERTEX
  5
5B2
  8
1
  6
CONTINUOUS
 62
     7
 10
-168.4845758441479
 20
103.8976394943218
 30
0.0
  0
VERTEX
  5
5B3
  8
1
  6
CONTINUOUS
 62
     7
 10
-168.5149203660806
 20
103.8909754256593
 30
0.0
  0
VERTEX
  5
5B4
  8
1
  6
CONTINUOUS
 62
     7
 10
-168.5531551608656
 20
103.8811122002255
 30
0.0
  0
VERTEX
  5
5B5
  8
1
  6
CONTINUOUS
 62
     7
 10
-168.5914900722702
 20
103.8695337294451
 30
0.0
  0
VERTEX
  5
5B6
  8
1
  6
CONTINUOUS
 62
     7
 10
-168.6298423141789
 20
103.85619457887
 30
0.0
  0
VERTEX
  5
5B7
  8
1
  6
CONTINUOUS
 62
     7
 10
-168.668124434384
 20
103.8410527942017
 30
0.0
  0
VERTEX
  5
5B8
  8
1
  6
CONTINUOUS
 62
     7
 10
-168.706244373113
 20
103.8240702888445
 30
0.0
  0
VERTEX
  5
5B9
  8
1
  6
CONTINUOUS
 62
     7
 10
-168.7441055483098
 20
103.8052132413162
 30
0.0
  0
VERTEX
  5
5BA
  8
1
  6
CONTINUOUS
 62
     7
 10
-168.7819720877114
 20
103.784239647379
 30
0.0
  0
VERTEX
  5
5BB
  8
1
  6
CONTINUOUS
 62
     7
 10
-168.8188510425033
 20
103.7616302242828
 30
0.0
  0
VERTEX
  5
5BC
  8
1
  6
CONTINUOUS
 62
     7
 10
-168.8546749143617
 20
103.7374341321721
 30
0.0
  0
VERTEX
  5
5BD
  8
1
  6
CONTINUOUS
 62
     7
 10
-168.8893786489492
 20
103.7117032896112
 30
0.0
  0
VERTEX
  5
5BE
  8
1
  6
CONTINUOUS
 62
     7
 10
-168.92289974154
 20
103.684492249969
 30
0.0
  0
VERTEX
  5
5BF
  8
1
  6
CONTINUOUS
 62
     7
 10
-168.95517833652
 20
103.6558580739379
 30
0.0
  0
VERTEX
  5
5C0
  8
1
  6
CONTINUOUS
 62
     7
 10
-168.9861573206406
 20
103.6258601984909
 30
0.0
  0
VERTEX
  5
5C1
  8
1
  6
CONTINUOUS
 62
     7
 10
-169.0157824099226
 20
103.5945603025833
 30
0.0
  0
VERTEX
  5
5C2
  8
1
  6
CONTINUOUS
 62
     7
 10
-169.04400223012
 20
103.5620221699073
 30
0.0
  0
VERTEX
  5
5C3
  8
1
  6
CONTINUOUS
 62
     7
 10
-169.0707683906668
 20
103.5283115490101
 30
0.0
  0
VERTEX
  5
5C4
  8
1
  6
CONTINUOUS
 62
     7
 10
-169.0964010268831
 20
103.4929686606362
 30
0.0
  0
VERTEX
  5
5C5
  8
1
  6
CONTINUOUS
 62
     7
 10
-169.119852075654
 20
103.4575026751386
 30
0.0
  0
VERTEX
  5
5C6
  8
1
  6
CONTINUOUS
 62
     7
 10
-169.1412022965305
 20
103.4220624918812
 30
0.0
  0
VERTEX
  5
5C7
  8
1
  6
CONTINUOUS
 62
     7
 10
-169.1605383465617
 20
103.3867859614994
 30
0.0
  0
VERTEX
  5
5C8
  8
1
  6
CONTINUOUS
 62
     7
 10
-169.1779516856124
 20
103.3518000693054
 30
0.0
  0
VERTEX
  5
5C9
  8
1
  6
CONTINUOUS
 62
     7
 10
-169.193274695457
 20
103.3178344723404
 30
0.0
  0
VERTEX
  5
5CA
  8
1
  6
CONTINUOUS
 62
     7
 10
-169.2069278053916
 20
103.2843620980058
 30
0.0
  0
VERTEX
  5
5CB
  8
1
  6
CONTINUOUS
 62
     7
 10
-169.2190057432482
 20
103.2514742939086
 30
0.0
  0
VERTEX
  5
5CC
  8
1
  6
CONTINUOUS
 62
     7
 10
-169.2296043340906
 20
103.2192535466888
 30
0.0
  0
VERTEX
  5
5CD
  8
1
  6
CONTINUOUS
 62
     7
 10
-169.2399746317152
 20
103.1835423646225
 30
0.0
  0
VERTEX
  5
5CE
  8
1
  6
CONTINUOUS
 62
     7
 10
-169.2486997884412
 20
103.1488840388521
 30
0.0
  0
VERTEX
  5
5CF
  8
1
  6
CONTINUOUS
 62
     7
 10
-169.2559193537668
 20
103.1153621793319
 30
0.0
  0
VERTEX
  5
5D0
  8
1
  6
CONTINUOUS
 62
     7
 10
-169.261770624542
 20
103.0830487716531
 30
0.0
  0
VERTEX
  5
5D1
  8
1
  6
CONTINUOUS
 62
     7
 10
-169.2663878471544
 20
103.0520050763182
 30
0.0
  0
VERTEX
  5
5D2
  8
1
  6
CONTINUOUS
 62
     7
 10
-169.2699015275728
 20
103.022282531035
 30
0.0
  0
VERTEX
  5
5D3
  8
1
  6
CONTINUOUS
 62
     7
 10
-169.2724378413222
 20
102.9939236464599
 30
0.0
  0
VERTEX
  5
5D4
  8
1
  6
CONTINUOUS
 62
     7
 10
-169.2741181352494
 20
102.9669628871116
 30
0.0
  0
SEQEND
  5
7D1
  8
1
  6
CONTINUOUS
 62
     7
  0
LINE
  5
1E6
  8
1
  6
CONTINUOUS
 62
     7
 10
-168.2916584041158
 20
103.9170252701677
 30
0.0
 11
-168.4845758441479
 21
103.8976394943218
 31
0.0
  0
POLYLINE
  5
1E7
  8
1
  6
CONTINUOUS
 62
     7
 66
     1
 10
0.0
 20
0.0
 30
0.0
  0
VERTEX
  5
5D5
  8
1
  6
CONTINUOUS
 62
     7
 10
-140.293192731711
 20
103.9170252701679
 30
0.0
  0
VERTEX
  5
5D6
  8
1
  6
CONTINUOUS
 62
     7
 10
-140.2456844358802
 20
103.9158961135842
 30
0.0
  0
VERTEX
  5
5D7
  8
1
  6
CONTINUOUS
 62
     7
 10
-140.1982834286595
 20
103.9125111938224
 30
0.0
  0
VERTEX
  5
5D8
  8
1
  6
CONTINUOUS
 62
     7
 10
-140.1510967563676
 20
103.9068781550913
 30
0.0
  0
VERTEX
  5
5D9
  8
1
  6
CONTINUOUS
 62
     7
 10
-140.1042309812878
 20
103.8990097185564
 30
0.0
  0
VERTEX
  5
5DA
  8
1
  6
CONTINUOUS
 62
     7
 10
-140.0577919410172
 20
103.8889236536117
 30
0.0
  0
VERTEX
  5
5DB
  8
1
  6
CONTINUOUS
 62
     7
 10
-140.0118845094517
 20
103.8766427377503
 30
0.0
  0
VERTEX
  5
5DC
  8
1
  6
CONTINUOUS
 62
     7
 10
-139.9666123599487
 20
103.8621947051263
 30
0.0
  0
VERTEX
  5
5DD
  8
1
  6
CONTINUOUS
 62
     7
 10
-139.9220777311994
 20
103.8456121839219
 30
0.0
  0
VERTEX
  5
5DE
  8
1
  6
CONTINUOUS
 62
     7
 10
-139.8783811963423
 20
103.8269326226632
 30
0.0
  0
VERTEX
  5
5DF
  8
1
  6
CONTINUOUS
 62
     7
 10
-139.8356214358375
 20
103.8061982056493
 30
0.0
  0
VERTEX
  5
5E0
  8
1
  6
CONTINUOUS
 62
     7
 10
-139.7938950146152
 20
103.7834557576872
 30
0.0
  0
VERTEX
  5
5E1
  8
1
  6
CONTINUOUS
 62
     7
 10
-139.7532961640019
 20
103.7587566383465
 30
0.0
  0
VERTEX
  5
5E2
  8
1
  6
CONTINUOUS
 62
     7
 10
-139.7139165689163
 20
103.7321566259737
 30
0.0
  0
VERTEX
  5
5E3
  8
1
  6
CONTINUOUS
 62
     7
 10
-139.6758451608168
 20
103.703715791727
 30
0.0
  0
VERTEX
  5
5E4
  8
1
  6
CONTINUOUS
 62
     7
 10
-139.6391679168654
 20
103.6734983639168
 30
0.0
  0
VERTEX
  5
5E5
  8
1
  6
CONTINUOUS
 62
     7
 10
-139.6039676657652
 20
103.6415725829584
 30
0.0
  0
VERTEX
  5
5E6
  8
1
  6
CONTINUOUS
 62
     7
 10
-139.5703239007066
 20
103.608010547263
 30
0.0
  0
VERTEX
  5
5E7
  8
1
  6
CONTINUOUS
 62
     7
 10
-139.5383125998473
 20
103.572888050418
 30
0.0
  0
VERTEX
  5
5E8
  8
1
  6
CONTINUOUS
 62
     7
 10
-139.5080060547296
 20
103.5362844100204
 30
0.0
  0
VERTEX
  5
5E9
  8
1
  6
CONTINUOUS
 62
     7
 10
-139.4794727070233
 20
103.4982822885532
 30
0.0
  0
VERTEX
  5
5EA
  8
1
  6
CONTINUOUS
 62
     7
 10
-139.4527769939633
 20
103.4589675067079
 30
0.0
  0
VERTEX
  5
5EB
  8
1
  6
CONTINUOUS
 62
     7
 10
-139.4279792028299
 20
103.4184288495738
 30
0.0
  0
VERTEX
  5
5EC
  8
1
  6
CONTINUOUS
 62
     7
 10
-139.4051353348013
 20
103.3767578661342
 30
0.0
  0
VERTEX
  5
5ED
  8
1
  6
CONTINUOUS
 62
     7
 10
-139.3842969784855
 20
103.3340486625196
 30
0.0
  0
VERTEX
  5
5EE
  8
1
  6
CONTINUOUS
 62
     7
 10
-139.3655111934169
 20
103.2903976894871
 30
0.0
  0
VERTEX
  5
5EF
  8
1
  6
CONTINUOUS
 62
     7
 10
-139.3488204037814
 20
103.2459035246037
 30
0.0
  0
VERTEX
  5
5F0
  8
1
  6
CONTINUOUS
 62
     7
 10
-139.3342623026089
 20
103.2006666496278
 30
0.0
  0
VERTEX
  5
5F1
  8
1
  6
CONTINUOUS
 62
     7
 10
-139.321869766651
 20
103.1547892235899
 30
0.0
  0
VERTEX
  5
5F2
  8
1
  6
CONTINUOUS
 62
     7
 10
-139.3116707821348
 20
103.1083748520853
 30
0.0
  0
VERTEX
  5
5F3
  8
1
  6
CONTINUOUS
 62
     7
 10
-139.3036883815614
 20
103.0615283533002
 30
0.0
  0
VERTEX
  5
5F4
  8
1
  6
CONTINUOUS
 62
     7
 10
-139.297940591691
 20
103.0143555212998
 30
0.0
  0
VERTEX
  5
5F5
  8
1
  6
CONTINUOUS
 62
     7
 10
-139.2944403928332
 20
102.9669628871118
 30
0.0
  0
SEQEND
  5
7D2
  8
1
  6
CONTINUOUS
 62
     7
  0
LINE
  5
1E8
  8
1
  6
CONTINUOUS
 62
     7
 10
-140.3922454389727
 20
103.9170252701671
 30
0.0
 11
-140.2931914612499
 21
103.9170252701671
 31
0.0
  0
LINE
  5
1E9
  8
1
  6
CONTINUOUS
 62
     7
 10
-168.3644949588126
 20
103.9170252701677
 30
0.0
 11
-168.2916585214955
 21
103.9170252701677
 31
0.0
  0
LINE
  5
1EA
  8
1
  6
CONTINUOUS
 62
     7
 10
-155.771198762402
 20
91.03563451245113
 30
0.0
 11
-161.2709893392549
 21
90.98805559387057
 31
0.0
  0
LINE
  5
1EB
  8
1
  6
CONTINUOUS
 62
     7
 10
-155.771198762402
 20
91.03563451245113
 30
0.0
 11
-152.9129928828554
 21
91.03563451245113
 31
0.0
  0
LINE
  5
1EC
  8
1
  6
CONTINUOUS
 62
     7
 10
-147.4132023060024
 20
90.98805559387057
 30
0.0
 11
-152.9129928828554
 21
91.03563451245114
 31
0.0
  0
LINE
  5
1ED
  8
1
  6
CONTINUOUS
 62
     7
 10
-147.4132023060024
 20
90.98805559387057
 30
0.0
 11
-147.4127072964123
 21
90.9875605842804
 31
0.0
  0
LINE
  5
1EE
  8
1
  6
CONTINUOUS
 62
     9
 10
-149.7714843488451
 20
90.9875605842804
 30
0.0
 11
-147.4127072964123
 21
90.9875605842804
 31
0.0
  0
LINE
  5
1EF
  8
1
  6
CONTINUOUS
 62
     7
 10
-149.8420958226287
 20
90.91694911049682
 30
0.0
 11
-149.7714843488451
 21
90.9875605842804
 31
0.0
  0
LINE
  5
1F0
  8
1
  6
CONTINUOUS
 62
     7
 10
-158.8420958226287
 20
90.91694911049682
 30
0.0
 11
-149.8420958226287
 21
90.91694911049682
 31
0.0
  0
LINE
  5
1F1
  8
1
  6
CONTINUOUS
 62
     7
 10
-158.9127072964122
 20
90.9875605842804
 30
0.0
 11
-158.8420958226287
 21
90.91694911049682
 31
0.0
  0
LINE
  5
1F2
  8
1
  6
CONTINUOUS
 62
     9
 10
-161.2714843488451
 20
90.9875605842804
 30
0.0
 11
-158.9127072964122
 21
90.9875605842804
 31
0.0
  0
LINE
  5
1F3
  8
1
  6
CONTINUOUS
 62
     7
 10
-161.2714843488451
 20
90.9875605842804
 30
0.0
 11
-161.2709893392549
 21
90.98805559387057
 31
0.0
  0
LINE
  5
1F4
  8
1
  6
CONTINUOUS
 62
     7
 10
-154.3420958226287
 20
90.9549109853866
 30
0.0
 11
-157.0920958226287
 21
90.9789098718112
 31
0.0
  0
LINE
  5
1F5
  8
1
  6
CONTINUOUS
 62
     9
 10
-152.9129928828554
 20
91.03563451245113
 30
0.0
 11
-152.9129928828554
 21
93.9169491104968
 31
0.0
  0
LINE
  5
1F6
  8
1
  6
CONTINUOUS
 62
     9
 10
-155.771198762402
 20
93.9169491104968
 30
0.0
 11
-155.771198762402
 21
91.03563451245113
 31
0.0
  0
LINE
  5
1F7
  8
1
  6
CONTINUOUS
 62
     7
 10
-155.771198762402
 20
93.9169491104968
 30
0.0
 11
-152.9129928828554
 21
93.9169491104968
 31
0.0
  0
LINE
  5
1F8
  8
1
  6
CONTINUOUS
 62
     9
 10
-161.2709893392549
 20
90.98805559387057
 30
0.0
 11
-161.2709893392549
 21
93.9169491104968
 31
0.0
  0
LINE
  5
1F9
  8
1
  6
CONTINUOUS
 62
     7
 10
-161.2709893392549
 20
93.9169491104968
 30
0.0
 11
-155.771198762402
 21
93.9169491104968
 31
0.0
  0
LINE
  5
1FA
  8
1
  6
CONTINUOUS
 62
     9
 10
-147.4132023060024
 20
93.9169491104968
 30
0.0
 11
-147.4132023060024
 21
90.98805559387057
 31
0.0
  0
LINE
  5
1FB
  8
1
  6
CONTINUOUS
 62
     7
 10
-152.9129928828554
 20
93.9169491104968
 30
0.0
 11
-147.4132023060024
 21
93.9169491104968
 31
0.0
  0
LINE
  5
1FC
  8
1
  6
CONTINUOUS
 62
     7
 10
-151.5920958226287
 20
90.9789098718112
 30
0.0
 11
-154.3420958226287
 21
90.9549109853866
 31
0.0
  0
LINE
  5
1FD
  8
1
  6
CONTINUOUS
 62
     7
 10
-157.0920958226287
 20
90.9789098718112
 30
0.0
 11
-151.5920958226287
 21
90.9789098718112
 31
0.0
  0
LINE
  5
1FE
  8
1
  6
CONTINUOUS
 62
     7
 10
-147.3778811096135
 20
91.9169491104968
 30
0.0
 11
-147.3778811096135
 21
93.9169491104968
 31
0.0
  0
LINE
  5
1FF
  8
1
  6
CONTINUOUS
 62
     7
 10
-147.3420958226287
 20
88.81694911049681
 30
0.0
 11
-147.3420958226287
 21
91.9169491104968
 31
0.0
  0
LINE
  5
200
  8
1
  6
CONTINUOUS
 62
     7
 10
-147.3778811096135
 20
88.781163823512
 30
0.0
 11
-147.3420958226287
 21
88.81694911049681
 31
0.0
  0
LINE
  5
201
  8
1
  6
CONTINUOUS
 62
     7
 10
-147.3778811096135
 20
88.781163823512
 30
0.0
 11
-147.3778811096135
 21
86.71566687961625
 31
0.0
  0
LINE
  5
202
  8
1
  6
CONTINUOUS
 62
     7
 10
-147.4040565839431
 20
86.71309512132159
 30
0.0
 11
-147.3778811096135
 21
86.7156668796162
 31
0.0
  0
LINE
  5
203
  8
1
  6
CONTINUOUS
 62
     7
 10
-147.4040565839431
 20
89.98759866121623
 30
0.0
 11
-147.4040565839431
 21
86.71309512132159
 31
0.0
  0
LINE
  5
204
  8
1
  6
CONTINUOUS
 62
     7
 10
-147.4127072964123
 20
90.9875605842804
 30
0.0
 11
-147.4040565839431
 21
89.98759866121623
 31
0.0
  0
LINE
  5
205
  8
1
  6
CONTINUOUS
 62
     7
 10
-147.4132023060024
 20
93.9169491104968
 30
0.0
 11
-147.3778811096135
 21
93.9169491104968
 31
0.0
  0
LINE
  5
206
  8
1
  6
CONTINUOUS
 62
     7
 10
-161.3420958226287
 20
88.81694911049681
 30
0.0
 11
-161.3063105356439
 21
88.781163823512
 31
0.0
  0
LINE
  5
207
  8
1
  6
CONTINUOUS
 62
     7
 10
-161.3420958226287
 20
91.9169491104968
 30
0.0
 11
-161.3420958226287
 21
88.81694911049681
 31
0.0
  0
LINE
  5
208
  8
1
  6
CONTINUOUS
 62
     7
 10
-161.3063105356439
 20
93.9169491104968
 30
0.0
 11
-161.3063105356439
 21
91.9169491104968
 31
0.0
  0
LINE
  5
209
  8
1
  6
CONTINUOUS
 62
     7
 10
-161.2801350613143
 20
89.98759866121623
 30
0.0
 11
-161.2714843488451
 21
90.9875605842804
 31
0.0
  0
LINE
  5
20A
  8
1
  6
CONTINUOUS
 62
     7
 10
-161.2801350613143
 20
86.71309512132159
 30
0.0
 11
-161.2801350613143
 21
89.98759866121623
 31
0.0
  0
LINE
  5
20B
  8
1
  6
CONTINUOUS
 62
     7
 10
-161.3063105356439
 20
86.7156668796162
 30
0.0
 11
-161.2801350613143
 21
86.71309512132159
 31
0.0
  0
LINE
  5
20C
  8
1
  6
CONTINUOUS
 62
     7
 10
-161.3063105356439
 20
86.71566687961625
 30
0.0
 11
-161.3063105356439
 21
88.781163823512
 31
0.0
  0
LINE
  5
20D
  8
1
  6
CONTINUOUS
 62
     7
 10
-161.3063105356439
 20
93.9169491104968
 30
0.0
 11
-161.2709893392549
 21
93.9169491104968
 31
0.0
  0
LINE
  5
20E
  8
1
  6
CONTINUOUS
 62
     9
 10
-147.4040565839431
 20
89.98759866121623
 30
0.0
 11
-149.7801350613143
 21
89.98759866121623
 31
0.0
  0
LINE
  5
20F
  8
1
  6
CONTINUOUS
 62
     7
 10
-149.7801350613143
 20
89.98759866121623
 30
0.0
 11
-149.7714843488451
 21
90.9875605842804
 31
0.0
  0
LINE
  5
210
  8
1
  6
CONTINUOUS
 62
     7
 10
-158.9127072964122
 20
90.9875605842804
 30
0.0
 11
-158.904056583943
 21
89.98759866121623
 31
0.0
  0
LINE
  5
211
  8
1
  6
CONTINUOUS
 62
     9
 10
-158.904056583943
 20
89.98759866121623
 30
0.0
 11
-161.2801350613143
 21
89.98759866121623
 31
0.0
  0
LINE
  5
212
  8
1
  6
CONTINUOUS
 62
     7
 10
-158.8420958226287
 20
90.91694911049682
 30
0.0
 11
-158.8420958226287
 21
86.7169491104968
 31
0.0
  0
LINE
  5
213
  8
1
  6
CONTINUOUS
 62
     7
 10
-158.8159152192564
 20
86.7169491104968
 30
0.0
 11
-158.8159152192564
 21
82.51694911049681
 31
0.0
  0
LINE
  5
214
  8
1
  6
CONTINUOUS
 62
     7
 10
-158.8159152192564
 20
82.51694911049681
 30
0.0
 11
-158.8996931500477
 21
82.51694911049681
 31
0.0
  0
LINE
  5
215
  8
1
  6
CONTINUOUS
 62
     7
 10
-158.904056583943
 20
83.01694911049681
 30
0.0
 11
-158.8996931500477
 21
82.51694911049681
 31
0.0
  0
LINE
  5
216
  8
1
  6
CONTINUOUS
 62
     7
 10
-158.904056583943
 20
89.98759866121623
 30
0.0
 11
-158.904056583943
 21
83.01694911049681
 31
0.0
  0
LINE
  5
217
  8
1
  6
CONTINUOUS
 62
     7
 10
-149.868276426001
 20
86.7169491104968
 30
0.0
 11
-149.868276426001
 21
82.51694911049681
 31
0.0
  0
LINE
  5
218
  8
1
  6
CONTINUOUS
 62
     7
 10
-149.8420958226287
 20
86.7169491104968
 30
0.0
 11
-149.8420958226287
 21
90.91694911049682
 31
0.0
  0
LINE
  5
219
  8
1
  6
CONTINUOUS
 62
     7
 10
-149.7801350613143
 20
83.01694911049681
 30
0.0
 11
-149.7801350613143
 21
89.98759866121623
 31
0.0
  0
LINE
  5
21A
  8
1
  6
CONTINUOUS
 62
     7
 10
-149.7844984952097
 20
82.51694911049681
 30
0.0
 11
-149.7801350613143
 21
83.01694911049681
 31
0.0
  0
LINE
  5
21B
  8
1
  6
CONTINUOUS
 62
     7
 10
-149.868276426001
 20
82.51694911049681
 30
0.0
 11
-149.7844984952097
 21
82.51694911049681
 31
0.0
  0
ARC
  5
21C
  8
1
  6
CONTINUOUS
 62
     7
 10
-147.3420958226287
 20
86.2169491104968
 30
0.0
 40
0.5000000000000004
 50
97.11847934809242
 51
180.0
  0
LINE
  5
21D
  8
1
  6
CONTINUOUS
 62
     7
 10
-147.8420958226287
 20
83.01694911049681
 30
0.0
 11
-147.8420958226287
 21
86.2169491104968
 31
0.0
  0
LINE
  5
21E
  8
1
  6
CONTINUOUS
 62
     9
 10
-149.7801350613143
 20
83.01694911049681
 30
0.0
 11
-147.8420958226287
 21
83.01694911049681
 31
0.0
  0
LINE
  5
21F
  8
1
  6
CONTINUOUS
 62
     9
 10
-160.8420958226287
 20
83.01694911049681
 30
0.0
 11
-158.904056583943
 21
83.01694911049681
 31
0.0
  0
LINE
  5
220
  8
1
  6
CONTINUOUS
 62
     7
 10
-160.8420958226287
 20
83.01694911049681
 30
0.0
 11
-160.8420958226287
 21
86.2169491104968
 31
0.0
  0
ARC
  5
221
  8
1
  6
CONTINUOUS
 62
     7
 10
-161.3420958226287
 20
86.2169491104968
 30
0.0
 40
0.4999999999999973
 50
0.0
 51
82.88152065190764
  0
LINE
  5
222
  8
1
  6
CONTINUOUS
 62
     7
 10
-158.8996931500477
 20
82.51694911049681
 30
0.0
 11
-160.8420958226287
 21
82.51694911049681
 31
0.0
  0
LINE
  5
223
  8
1
  6
CONTINUOUS
 62
     7
 10
-160.8420958226287
 20
82.51694911049681
 30
0.0
 11
-160.8420958226287
 21
83.01694911049681
 31
0.0
  0
LINE
  5
224
  8
1
  6
CONTINUOUS
 62
     7
 10
-147.8420958226287
 20
83.01694911049681
 30
0.0
 11
-147.8420958226287
 21
82.51694911049681
 31
0.0
  0
LINE
  5
225
  8
1
  6
CONTINUOUS
 62
     7
 10
-147.8420958226287
 20
82.51694911049681
 30
0.0
 11
-149.7844984952097
 21
82.51694911049681
 31
0.0
  0
LINE
  5
226
  8
1
  6
CONTINUOUS
 62
     7
 10
-147.3778811096135
 20
88.781163823512
 30
0.0
 11
-142.5235798696368
 21
88.81694911049681
 31
0.0
  0
LINE
  5
227
  8
1
  6
CONTINUOUS
 62
     7
 10
-142.5235798696368
 20
88.81694911049681
 30
0.0
 11
-142.5235798696368
 21
91.9169491104968
 31
0.0
  0
LINE
  5
228
  8
1
  6
CONTINUOUS
 62
     7
 10
-142.5235798696368
 20
91.9169491104968
 30
0.0
 11
-147.3778811096135
 21
91.9169491104968
 31
0.0
  0
LINE
  5
229
  8
1
  6
CONTINUOUS
 62
     7
 10
-142.4420958226287
 20
93.9169491104968
 30
0.0
 11
-142.4420958226287
 21
86.7169491104968
 31
0.0
  0
LINE
  5
22A
  8
1
  6
CONTINUOUS
 62
     7
 10
-147.3420958226287
 20
86.7169491104968
 30
0.0
 11
-142.4420958226287
 21
86.7169491104968
 31
0.0
  0
LINE
  5
22B
  8
1
  6
CONTINUOUS
 62
     7
 10
-147.3778811096135
 20
86.71566687961625
 30
0.0
 11
-147.3420958226287
 21
86.7169491104968
 31
0.0
  0
LINE
  5
22C
  8
1
  6
CONTINUOUS
 62
     7
 10
-147.3778811096135
 20
93.9169491104968
 30
0.0
 11
-142.4420958226287
 21
93.9169491104968
 31
0.0
  0
LINE
  5
22D
  8
1
  6
CONTINUOUS
 62
     7
 10
-161.3063105356439
 20
91.9169491104968
 30
0.0
 11
-166.1606117756206
 21
91.9169491104968
 31
0.0
  0
LINE
  5
22E
  8
1
  6
CONTINUOUS
 62
     7
 10
-166.1606117756206
 20
91.9169491104968
 30
0.0
 11
-166.1606117756206
 21
88.81694911049681
 31
0.0
  0
LINE
  5
22F
  8
1
  6
CONTINUOUS
 62
     7
 10
-166.1606117756206
 20
88.81694911049681
 30
0.0
 11
-161.3063105356439
 21
88.781163823512
 31
0.0
  0
LINE
  5
230
  8
1
  6
CONTINUOUS
 62
     7
 10
-166.2420958226287
 20
86.7169491104968
 30
0.0
 11
-161.3420958226287
 21
86.7169491104968
 31
0.0
  0
LINE
  5
231
  8
1
  6
CONTINUOUS
 62
     7
 10
-166.2420958226287
 20
86.7169491104968
 30
0.0
 11
-166.2420958226287
 21
93.9169491104968
 31
0.0
  0
LINE
  5
232
  8
1
  6
CONTINUOUS
 62
     7
 10
-161.3420958226287
 20
86.7169491104968
 30
0.0
 11
-161.3063105356439
 21
86.71566687961625
 31
0.0
  0
LINE
  5
233
  8
1
  6
CONTINUOUS
 62
     7
 10
-166.2420958226287
 20
93.9169491104968
 30
0.0
 11
-161.3063105356439
 21
93.9169491104968
 31
0.0
  0
LINE
  5
234
  8
1
  6
CONTINUOUS
 62
     7
 10
-142.5235798696368
 20
88.81694911049681
 30
0.0
 11
-147.3420958226287
 21
88.81694911049681
 31
0.0
  0
LINE
  5
235
  8
1
  6
CONTINUOUS
 62
     7
 10
-161.3420958226287
 20
88.81694911049681
 30
0.0
 11
-166.1606117756206
 21
88.81694911049681
 31
0.0
  0
LINE
  5
236
  8
1
  6
CONTINUOUS
 62
     7
 10
-149.8420958226287
 20
86.7169491104968
 30
0.0
 11
-158.8420958226287
 21
86.7169491104968
 31
0.0
  0
ARC
  5
237
  8
1
  6
CONTINUOUS
 62
     7
 10
-147.3420958226287
 20
85.2169491104968
 30
0.0
 40
0.5000000000000004
 50
180.0
 51
269.9999999999982
  0
LINE
  5
238
  8
1
  6
CONTINUOUS
 62
     7
 10
-147.3420958226287
 20
84.7169491104968
 30
0.0
 11
-146.4420958226287
 21
84.7169491104968
 31
0.0
  0
LINE
  5
239
  8
1
  6
CONTINUOUS
 62
     9
 10
-146.4420958226287
 20
83.01592859606315
 30
0.0
 11
-146.4420958226287
 21
84.7169491104968
 31
0.0
  0
ARC
  5
23A
  8
1
  6
CONTINUOUS
 62
     7
 10
-147.4420958226287
 20
78.11694911049679
 30
0.0
 40
5.000000000000001
 50
78.46304096718455
 51
85.0608144165375
  0
POLYLINE
  5
23B
  8
1
  6
CONTINUOUS
 62
     7
 66
     1
 10
0.0
 20
0.0
 30
0.0
  0
VERTEX
  5
5F6
  8
1
  6
CONTINUOUS
 62
     7
 10
-147.5546724171295
 20
82.60024230372039
 30
0.0
  0
VERTEX
  5
5F7
  8
1
  6
CONTINUOUS
 62
     7
 10
-147.5545917734451
 20
82.60922195555608
 30
0.0
  0
VERTEX
  5
5F8
  8
1
  6
CONTINUOUS
 62
     7
 10
-147.5539458935602
 20
82.6271841648626
 30
0.0
  0
VERTEX
  5
5F9
  8
1
  6
CONTINUOUS
 62
     7
 10
-147.5526550198435
 20
82.64511156760173
 30
0.0
  0
VERTEX
  5
5FA
  8
1
  6
CONTINUOUS
 62
     7
 10
-147.5498868506778
 20
82.66919034774533
 30
0.0
  0
VERTEX
  5
5FB
  8
1
  6
CONTINUOUS
 62
     7
 10
-147.5459395743534
 20
82.69316197306367
 30
0.0
  0
VERTEX
  5
5FC
  8
1
  6
CONTINUOUS
 62
     7
 10
-147.5408331547322
 20
82.7169432880952
 30
0.0
  0
VERTEX
  5
5FD
  8
1
  6
CONTINUOUS
 62
     7
 10
-147.5345875556767
 20
82.74045113737833
 30
0.0
  0
VERTEX
  5
5FE
  8
1
  6
CONTINUOUS
 62
     7
 10
-147.5272227410488
 20
82.76360236545155
 30
0.0
  0
VERTEX
  5
5FF
  8
1
  6
CONTINUOUS
 62
     7
 10
-147.518758674711
 20
82.78631381685324
 30
0.0
  0
VERTEX
  5
600
  8
1
  6
CONTINUOUS
 62
     7
 10
-147.5091880166624
 20
82.80858156102127
 30
0.0
  0
VERTEX
  5
601
  8
1
  6
CONTINUOUS
 62
     7
 10
-147.4985187903001
 20
82.83040784825306
 30
0.0
  0
VERTEX
  5
602
  8
1
  6
CONTINUOUS
 62
     7
 10
-147.4867940138137
 20
82.8517187713552
 30
0.0
  0
VERTEX
  5
603
  8
1
  6
CONTINUOUS
 62
     7
 10
-147.4740567053928
 20
82.87244042313426
 30
0.0
  0
VERTEX
  5
604
  8
1
  6
CONTINUOUS
 62
     7
 10
-147.4603498832269
 20
82.8924988963969
 30
0.0
  0
VERTEX
  5
605
  8
1
  6
CONTINUOUS
 62
     7
 10
-147.4457165655056
 20
82.9118202839497
 30
0.0
  0
VERTEX
  5
606
  8
1
  6
CONTINUOUS
 62
     7
 10
-147.4324356788785
 20
82.92779269550743
 30
0.0
  0
VERTEX
  5
607
  8
1
  6
CONTINUOUS
 62
     7
 10
-147.418490768739
 20
82.94321300875387
 30
0.0
  0
VERTEX
  5
608
  8
1
  6
CONTINUOUS
 62
     7
 10
-147.4039187211806
 20
82.95804210252395
 30
0.0
  0
VERTEX
  5
609
  8
1
  6
CONTINUOUS
 62
     7
 10
-147.3887564222969
 20
82.97224085565253
 30
0.0
  0
VERTEX
  5
60A
  8
1
  6
CONTINUOUS
 62
     7
 10
-147.3725496762024
 20
82.98617872245667
 30
0.0
  0
VERTEX
  5
60B
  8
1
  6
CONTINUOUS
 62
     7
 10
-147.3557466449465
 20
82.9994232785129
 30
0.0
  0
VERTEX
  5
60C
  8
1
  6
CONTINUOUS
 62
     7
 10
-147.3383941058593
 20
83.01193924937698
 30
0.0
  0
VERTEX
  5
60D
  8
1
  6
CONTINUOUS
 62
     7
 10
-147.3205388362711
 20
83.02369136060469
 30
0.0
  0
VERTEX
  5
60E
  8
1
  6
CONTINUOUS
 62
     7
 10
-147.3027191952357
 20
83.03436789347207
 30
0.0
  0
VERTEX
  5
60F
  8
1
  6
CONTINUOUS
 62
     7
 10
-147.284455689565
 20
83.04430364008967
 30
0.0
  0
VERTEX
  5
610
  8
1
  6
CONTINUOUS
 62
     7
 10
-147.2657960759981
 20
83.05347389273189
 30
0.0
  0
VERTEX
  5
611
  8
1
  6
CONTINUOUS
 62
     7
 10
-147.246788111274
 20
83.06185394367321
 30
0.0
  0
VERTEX
  5
612
  8
1
  6
CONTINUOUS
 62
     7
 10
-147.2268809006858
 20
83.06964209050068
 30
0.0
  0
VERTEX
  5
613
  8
1
  6
CONTINUOUS
 62
     7
 10
-147.2066404877618
 20
83.07657861510572
 30
0.0
  0
VERTEX
  5
614
  8
1
  6
CONTINUOUS
 62
     7
 10
-147.1861226899514
 20
83.08264571265033
 30
0.0
  0
VERTEX
  5
615
  8
1
  6
CONTINUOUS
 62
     7
 10
-147.1653833247047
 20
83.08782557829655
 30
0.0
  0
VERTEX
  5
616
  8
1
  6
CONTINUOUS
 62
     7
 10
-147.140149607243
 20
83.09286529725621
 30
0.0
  0
VERTEX
  5
617
  8
1
  6
CONTINUOUS
 62
     7
 10
-147.1146213200699
 20
83.09660225354473
 30
0.0
  0
VERTEX
  5
618
  8
1
  6
CONTINUOUS
 62
     7
 10
-147.0889005503428
 20
83.09902944135119
 30
0.0
  0
VERTEX
  5
619
  8
1
  6
CONTINUOUS
 62
     7
 10
-147.0630893852196
 20
83.10013985486461
 30
0.0
  0
VERTEX
  5
61A
  8
1
  6
CONTINUOUS
 62
     7
 10
-147.0372899118578
 20
83.09992648827404
 30
0.0
  0
VERTEX
  5
61B
  8
1
  6
CONTINUOUS
 62
     7
 10
-147.0116042174152
 20
83.09838233576849
 30
0.0
  0
SEQEND
  5
7D3
  8
1
  6
CONTINUOUS
 62
     7
  0
LINE
  5
23C
  8
1
  6
CONTINUOUS
 62
     7
 10
-147.5546724171295
 20
81.81694911049681
 30
0.0
 11
-147.5546724171295
 21
82.60024230372039
 31
0.0
  0
LINE
  5
23D
  8
1
  6
CONTINUOUS
 62
     7
 10
-147.5546724171295
 20
81.81694911049681
 30
0.0
 11
-161.199334170454
 21
81.81694911049681
 31
0.0
  0
LINE
  5
23E
  8
1
  6
CONTINUOUS
 62
     7
 10
-161.199334170454
 20
82.59366112973042
 30
0.0
 11
-161.199334170454
 21
81.81694911049681
 31
0.0
  0
POLYLINE
  5
23F
  8
1
  6
CONTINUOUS
 62
     7
 66
     1
 10
0.0
 20
0.0
 30
0.0
  0
VERTEX
  5
61C
  8
1
  6
CONTINUOUS
 62
     7
 10
-161.7501595859821
 20
83.09106925504167
 30
0.0
  0
VERTEX
  5
61D
  8
1
  6
CONTINUOUS
 62
     7
 10
-161.7413207432936
 20
83.09189285973012
 30
0.0
  0
VERTEX
  5
61E
  8
1
  6
CONTINUOUS
 62
     7
 10
-161.7235921546138
 20
83.0930693234396
 30
0.0
  0
VERTEX
  5
61F
  8
1
  6
CONTINUOUS
 62
     7
 10
-161.7058329676819
 20
83.0936154029601
 30
0.0
  0
VERTEX
  5
620
  8
1
  6
CONTINUOUS
 62
     7
 10
-161.6818816545764
 20
83.0933439977792
 30
0.0
  0
VERTEX
  5
621
  8
1
  6
CONTINUOUS
 62
     7
 10
-161.6579162057595
 20
83.09191668663368
 30
0.0
  0
VERTEX
  5
622
  8
1
  6
CONTINUOUS
 62
     7
 10
-161.6340184365744
 20
83.08934424906325
 30
0.0
  0
VERTEX
  5
623
  8
1
  6
CONTINUOUS
 62
     7
 10
-161.6102701623645
 20
83.08563746460771
 30
0.0
  0
VERTEX
  5
624
  8
1
  6
CONTINUOUS
 62
     7
 10
-161.586753198473
 20
83.08080711280682
 30
0.0
  0
VERTEX
  5
625
  8
1
  6
CONTINUOUS
 62
     7
 10
-161.5635493602432
 20
83.07486397320035
 30
0.0
  0
VERTEX
  5
626
  8
1
  6
CONTINUOUS
 62
     7
 10
-161.5406616033698
 20
83.06780067174005
 30
0.0
  0
VERTEX
  5
627
  8
1
  6
CONTINUOUS
 62
     7
 10
-161.5180886184646
 20
83.05962503592806
 30
0.0
  0
VERTEX
  5
628
  8
1
  6
CONTINUOUS
 62
     7
 10
-161.4959057937824
 20
83.05037063931545
 30
0.0
  0
VERTEX
  5
629
  8
1
  6
CONTINUOUS
 62
     7
 10
-161.4741885175781
 20
83.04007105545328
 30
0.0
  0
VERTEX
  5
62A
  8
1
  6
CONTINUOUS
 62
     7
 10
-161.4530121781066
 20
83.02875985789265
 30
0.0
  0
VERTEX
  5
62B
  8
1
  6
CONTINUOUS
 62
     7
 10
-161.432452163623
 20
83.01647062018462
 30
0.0
  0
VERTEX
  5
62C
  8
1
  6
CONTINUOUS
 62
     7
 10
-161.4151200686188
 20
83.00501833539376
 30
0.0
  0
VERTEX
  5
62D
  8
1
  6
CONTINUOUS
 62
     7
 10
-161.3982640695306
 20
82.99284547613591
 30
0.0
  0
VERTEX
  5
62E
  8
1
  6
CONTINUOUS
 62
     7
 10
-161.3819271039705
 20
82.97998442053984
 30
0.0
  0
VERTEX
  5
62F
  8
1
  6
CONTINUOUS
 62
     7
 10
-161.3661521095511
 20
82.96646754673422
 30
0.0
  0
VERTEX
  5
630
  8
1
  6
CONTINUOUS
 62
     7
 10
-161.3505220349822
 20
82.95188376600352
 30
0.0
  0
VERTEX
  5
631
  8
1
  6
CONTINUOUS
 62
     7
 10
-161.335515888256
 20
82.9366312551345
 30
0.0
  0
VERTEX
  5
632
  8
1
  6
CONTINUOUS
 62
     7
 10
-161.3211738708569
 20
82.92075265161422
 30
0.0
  0
VERTEX
  5
633
  8
1
  6
CONTINUOUS
 62
     7
 10
-161.3075361842692
 20
82.90429059292975
 30
0.0
  0
VERTEX
  5
634
  8
1
  6
CONTINUOUS
 62
     7
 10
-161.2949725179069
 20
82.88774727917236
 30
0.0
  0
VERTEX
  5
635
  8
1
  6
CONTINUOUS
 62
     7
 10
-161.2830966088093
 20
82.87068162528
 30
0.0
  0
VERTEX
  5
636
  8
1
  6
CONTINUOUS
 62
     7
 10
-161.2719382548097
 20
82.85313839624672
 30
0.0
  0
VERTEX
  5
637
  8
1
  6
CONTINUOUS
 62
     7
 10
-161.2615272537416
 20
82.83516235706662
 30
0.0
  0
VERTEX
  5
638
  8
1
  6
CONTINUOUS
 62
     7
 10
-161.2516061507597
 20
82.8162275605269
 30
0.0
  0
VERTEX
  5
639
  8
1
  6
CONTINUOUS
 62
     7
 10
-161.2424951345635
 20
82.79686827944957
 30
0.0
  0
VERTEX
  5
63A
  8
1
  6
CONTINUOUS
 62
     7
 10
-161.2342180240602
 20
82.77713805358265
 30
0.0
  0
VERTEX
  5
63B
  8
1
  6
CONTINUOUS
 62
     7
 10
-161.2267986381571
 20
82.75709042267424
 30
0.0
  0
VERTEX
  5
63C
  8
1
  6
CONTINUOUS
 62
     7
 10
-161.2204948501125
 20
82.73757259227841
 30
0.0
  0
VERTEX
  5
63D
  8
1
  6
CONTINUOUS
 62
     7
 10
-161.2149922362432
 20
82.71779597905041
 30
0.0
  0
VERTEX
  5
63E
  8
1
  6
CONTINUOUS
 62
     7
 10
-161.2103036496785
 20
82.69781072592241
 30
0.0
  0
VERTEX
  5
63F
  8
1
  6
CONTINUOUS
 62
     7
 10
-161.2064419435478
 20
82.67766697582665
 30
0.0
  0
VERTEX
  5
640
  8
1
  6
CONTINUOUS
 62
     7
 10
-161.2033394099744
 20
82.65680591364391
 30
0.0
  0
VERTEX
  5
641
  8
1
  6
CONTINUOUS
 62
     7
 10
-161.2011174400876
 20
82.63581386550304
 30
0.0
  0
VERTEX
  5
642
  8
1
  6
CONTINUOUS
 62
     7
 10
-161.1997807786574
 20
82.61474691099993
 30
0.0
  0
VERTEX
  5
643
  8
1
  6
CONTINUOUS
 62
     7
 10
-161.199334170454
 20
82.59366112973042
 30
0.0
  0
SEQEND
  5
7D4
  8
1
  6
CONTINUOUS
 62
     7
  0
ARC
  5
240
  8
1
  6
CONTINUOUS
 62
     7
 10
-161.2420958226287
 20
78.11694911049679
 30
0.0
 40
4.999999999999992
 50
95.8320475189098
 51
101.5369590328155
  0
LINE
  5
241
  8
1
  6
CONTINUOUS
 62
     9
 10
-162.2420958226287
 20
84.7169491104968
 30
0.0
 11
-162.2420958226287
 21
83.01592859606315
 31
0.0
  0
LINE
  5
242
  8
1
  6
CONTINUOUS
 62
     7
 10
-162.2420958226287
 20
84.7169491104968
 30
0.0
 11
-161.3420958226287
 21
84.7169491104968
 31
0.0
  0
ARC
  5
243
  8
1
  6
CONTINUOUS
 62
     7
 10
-161.3420958226287
 20
85.2169491104968
 30
0.0
 40
0.5000000000000004
 50
269.9999999999994
 51
0.0
  0
LINE
  5
244
  8
1
  6
CONTINUOUS
 62
     7
 10
-166.2420958226287
 20
81.81694911049681
 30
0.0
 11
-166.2420958226287
 21
84.7169491104968
 31
0.0
  0
LINE
  5
245
  8
1
  6
CONTINUOUS
 62
     7
 10
-166.2420958226287
 20
84.7169491104968
 30
0.0
 11
-162.2420958226287
 21
84.7169491104968
 31
0.0
  0
ARC
  5
246
  8
1
  6
CONTINUOUS
 62
     7
 10
-161.2420958226287
 20
78.11694911049676
 30
0.0
 40
5.00000000000001
 50
101.5369590328152
 51
132.268584429572
  0
LINE
  5
247
  8
1
  6
CONTINUOUS
 62
     7
 10
-164.6051301667887
 20
81.81694911049681
 30
0.0
 11
-166.2420958226287
 21
81.81694911049681
 31
0.0
  0
LINE
  5
248
  8
1
  6
CONTINUOUS
 62
     7
 10
-146.4420958226287
 20
84.7169491104968
 30
0.0
 11
-142.4420958226287
 21
84.7169491104968
 31
0.0
  0
LINE
  5
249
  8
1
  6
CONTINUOUS
 62
     7
 10
-142.4420958226287
 20
84.7169491104968
 30
0.0
 11
-142.4420958226287
 21
81.81694911049681
 31
0.0
  0
LINE
  5
24A
  8
1
  6
CONTINUOUS
 62
     7
 10
-142.4420958226287
 20
81.81694911049681
 30
0.0
 11
-144.0790614784686
 21
81.81694911049681
 31
0.0
  0
ARC
  5
24B
  8
1
  6
CONTINUOUS
 62
     7
 10
-147.4421073454685
 20
78.11692640046164
 30
0.0
 40
5.000024555771776
 50
47.73149289670909
 51
78.46296364090381
  0
LINE
  5
24C
  8
1
  6
CONTINUOUS
 62
     7
 10
-147.5033785507259
 20
81.81694911049681
 30
0.0
 11
-147.5546724171295
 21
81.81694911049681
 31
0.0
  0
ARC
  5
24D
  8
1
  6
CONTINUOUS
 62
     9
 10
-147.9420767841607
 20
78.11694911049679
 30
0.0
 40
4.500000000000032
 50
83.67841763606575
 51
85.06130104321214
  0
LINE
  5
24E
  8
1
  6
CONTINUOUS
 62
     7
 10
-147.4465875810572
 20
82.58958708484792
 30
0.0
 11
-147.4465875810572
 21
80.51243831360041
 31
0.0
  0
LINE
  5
24F
  8
1
  6
CONTINUOUS
 62
     9
 10
-147.497271646395
 20
80.46175424826258
 30
0.0
 11
-147.4465875810572
 21
80.51243831360041
 31
0.0
  0
LINE
  5
250
  8
1
  6
CONTINUOUS
 62
     9
 10
-147.5033785507259
 20
80.39177605588773
 30
0.0
 11
-147.497271646395
 21
80.46175424826258
 31
0.0
  0
LINE
  5
251
  8
1
  6
CONTINUOUS
 62
     7
 10
-147.5033785507259
 20
81.81694911049681
 30
0.0
 11
-147.5033785507259
 21
80.39177605588773
 31
0.0
  0
POLYLINE
  5
252
  8
1
  6
CONTINUOUS
 62
     7
 66
     1
 10
0.0
 20
0.0
 30
0.0
  0
VERTEX
  5
644
  8
1
  6
CONTINUOUS
 62
     7
 10
-161.7910071231224
 20
83.08672741382082
 30
0.0
  0
VERTEX
  5
645
  8
1
  6
CONTINUOUS
 62
     7
 10
-161.785103562249
 20
83.08734382851055
 30
0.0
  0
VERTEX
  5
646
  8
1
  6
CONTINUOUS
 62
     7
 10
-161.7620803206823
 20
83.08907052651665
 30
0.0
  0
VERTEX
  5
647
  8
1
  6
CONTINUOUS
 62
     7
 10
-161.7389697079263
 20
83.08972704319564
 30
0.0
  0
VERTEX
  5
648
  8
1
  6
CONTINUOUS
 62
     7
 10
-161.7178225792607
 20
83.08938633269054
 30
0.0
  0
VERTEX
  5
649
  8
1
  6
CONTINUOUS
 62
     7
 10
-161.6966793991164
 20
83.08814447114153
 30
0.0
  0
VERTEX
  5
64A
  8
1
  6
CONTINUOUS
 62
     7
 10
-161.673354279916
 20
83.08572075440523
 30
0.0
  0
VERTEX
  5
64B
  8
1
  6
CONTINUOUS
 62
     7
 10
-161.6501205241665
 20
83.0821917586502
 30
0.0
  0
VERTEX
  5
64C
  8
1
  6
CONTINUOUS
 62
     7
 10
-161.6298445309275
 20
83.07818417561529
 30
0.0
  0
VERTEX
  5
64D
  8
1
  6
CONTINUOUS
 62
     7
 10
-161.6096549697209
 20
83.07331223883206
 30
0.0
  0
VERTEX
  5
64E
  8
1
  6
CONTINUOUS
 62
     7
 10
-161.5896436259064
 20
83.06758887688363
 30
0.0
  0
VERTEX
  5
64F
  8
1
  6
CONTINUOUS
 62
     7
 10
-161.56968777636
 20
83.06096226549069
 30
0.0
  0
VERTEX
  5
650
  8
1
  6
CONTINUOUS
 62
     7
 10
-161.5499803362159
 20
83.0534789037496
 30
0.0
  0
VERTEX
  5
651
  8
1
  6
CONTINUOUS
 62
     7
 10
-161.5304024169045
 20
83.04507493481894
 30
0.0
  0
VERTEX
  5
652
  8
1
  6
CONTINUOUS
 62
     7
 10
-161.5111464002273
 20
83.03581320239175
 30
0.0
  0
VERTEX
  5
653
  8
1
  6
CONTINUOUS
 62
     7
 10
-161.4921927561033
 20
83.02567094536238
 30
0.0
  0
VERTEX
  5
654
  8
1
  6
CONTINUOUS
 62
     7
 10
-161.4752015312098
 20
83.0156537853299
 30
0.0
  0
VERTEX
  5
655
  8
1
  6
CONTINUOUS
 62
     7
 10
-161.4585251742651
 20
83.00490859017069
 30
0.0
  0
VERTEX
  5
656
  8
1
  6
CONTINUOUS
 62
     7
 10
-161.4422386780993
 20
82.9934714315591
 30
0.0
  0
VERTEX
  5
657
  8
1
  6
CONTINUOUS
 62
     7
 10
-161.4262516703166
 20
82.9812586743031
 30
0.0
  0
VERTEX
  5
658
  8
1
  6
CONTINUOUS
 62
     7
 10
-161.4107171044618
 20
82.96836576428643
 30
0.0
  0
VERTEX
  5
659
  8
1
  6
CONTINUOUS
 62
     7
 10
-161.3955511702913
 20
82.9547001002031
 30
0.0
  0
VERTEX
  5
65A
  8
1
  6
CONTINUOUS
 62
     7
 10
-161.3809029387836
 20
82.94037147391214
 30
0.0
  0
VERTEX
  5
65B
  8
1
  6
CONTINUOUS
 62
     7
 10
-161.3667630228934
 20
82.92535281140779
 30
0.0
  0
VERTEX
  5
65C
  8
1
  6
CONTINUOUS
 62
     7
 10
-161.3500376268674
 20
82.90585172625542
 30
0.0
  0
VERTEX
  5
65D
  8
1
  6
CONTINUOUS
 62
     7
 10
-161.3420184566874
 20
82.89573640547957
 30
0.0
  0
VERTEX
  5
65E
  8
1
  6
CONTINUOUS
 62
     7
 10
-161.334252352148
 20
82.88540301567677
 30
0.0
  0
VERTEX
  5
65F
  8
1
  6
CONTINUOUS
 62
     7
 10
-161.322003891832
 20
82.86788593794617
 30
0.0
  0
VERTEX
  5
660
  8
1
  6
CONTINUOUS
 62
     7
 10
-161.3104679613726
 20
82.84978503720004
 30
0.0
  0
VERTEX
  5
661
  8
1
  6
CONTINUOUS
 62
     7
 10
-161.3007630917005
 20
82.83309472703927
 30
0.0
  0
VERTEX
  5
662
  8
1
  6
CONTINUOUS
 62
     7
 10
-161.2916779772582
 20
82.81598194395629
 30
0.0
  0
VERTEX
  5
663
  8
1
  6
CONTINUOUS
 62
     7
 10
-161.2832113280298
 20
82.79842144305223
 30
0.0
  0
VERTEX
  5
664
  8
1
  6
CONTINUOUS
 62
     7
 10
-161.2779321172615
 20
82.78649713402814
 30
0.0
  0
VERTEX
  5
665
  8
1
  6
CONTINUOUS
 62
     7
 10
-161.2729596268388
 20
82.77442631391344
 30
0.0
  0
VERTEX
  5
666
  8
1
  6
CONTINUOUS
 62
     7
 10
-161.2682849031682
 20
82.76218011493833
 30
0.0
  0
VERTEX
  5
667
  8
1
  6
CONTINUOUS
 62
     7
 10
-161.263927859042
 20
82.7498040283301
 30
0.0
  0
VERTEX
  5
668
  8
1
  6
CONTINUOUS
 62
     7
 10
-161.2574363657785
 20
82.7290960611613
 30
0.0
  0
VERTEX
  5
669
  8
1
  6
CONTINUOUS
 62
     7
 10
-161.2518295216052
 20
82.70805569178594
 30
0.0
  0
VERTEX
  5
66A
  8
1
  6
CONTINUOUS
 62
     7
 10
-161.2475711524539
 20
82.68894101096805
 30
0.0
  0
VERTEX
  5
66B
  8
1
  6
CONTINUOUS
 62
     7
 10
-161.2440544991133
 20
82.66962813192855
 30
0.0
  0
VERTEX
  5
66C
  8
1
  6
CONTINUOUS
 62
     7
 10
-161.24128367391
 20
82.65009105997301
 30
0.0
  0
VERTEX
  5
66D
  8
1
  6
CONTINUOUS
 62
     7
 10
-161.2393389890905
 20
82.63113433394098
 30
0.0
  0
VERTEX
  5
66E
  8
1
  6
CONTINUOUS
 62
     7
 10
-161.2381141622846
 20
82.61208682580684
 30
0.0
  0
VERTEX
  5
66F
  8
1
  6
CONTINUOUS
 62
     7
 10
-161.2377742073497
 20
82.60256898416102
 30
0.0
  0
SEQEND
  5
7D5
  8
1
  6
CONTINUOUS
 62
     7
  0
ARC
  5
253
  8
1
  6
CONTINUOUS
 62
     9
 10
-160.7421148610966
 20
78.11694911049678
 30
0.0
 40
4.500000000000035
 50
95.83156017681736
 51
96.32158236393458
  0
LINE
  5
254
  8
1
  6
CONTINUOUS
 62
     7
 10
-161.2376040642002
 20
82.58958708484792
 30
0.0
 11
-161.2377742073497
 21
82.60256898416102
 31
0.0
  0
LINE
  5
255
  8
1
  6
CONTINUOUS
 62
     7
 10
-161.2180969362041
 20
81.81694911049681
 30
0.0
 11
-161.2180969362041
 21
80.49293118560429
 31
0.0
  0
LINE
  5
256
  8
1
  6
CONTINUOUS
 62
     9
 10
-161.2376040642002
 20
80.5124383136004
 30
0.0
 11
-161.2180969362041
 21
80.49293118560429
 31
0.0
  0
LINE
  5
257
  8
1
  6
CONTINUOUS
 62
     7
 10
-161.2376040642002
 20
82.58958708484792
 30
0.0
 11
-161.2376040642002
 21
80.5124383136004
 31
0.0
  0
LINE
  5
258
  8
1
  6
CONTINUOUS
 62
     7
 10
-161.2180969362041
 20
81.81694911049681
 30
0.0
 11
-161.199334170454
 21
81.81694911049681
 31
0.0
  0
LINE
  5
259
  8
1
  6
CONTINUOUS
 62
     7
 10
-147.4464174379069
 20
82.60256898416114
 30
0.0
 11
-147.4465875810572
 21
82.58958708484792
 31
0.0
  0
POLYLINE
  5
25A
  8
1
  6
CONTINUOUS
 62
     7
 66
     1
 10
0.0
 20
0.0
 30
0.0
  0
VERTEX
  5
670
  8
1
  6
CONTINUOUS
 62
     7
 10
-147.4464174379069
 20
82.60256898416114
 30
0.0
  0
VERTEX
  5
671
  8
1
  6
CONTINUOUS
 62
     7
 10
-147.4455135799292
 20
82.62226110975058
 30
0.0
  0
VERTEX
  5
672
  8
1
  6
CONTINUOUS
 62
     7
 10
-147.4438368928796
 20
82.64190627316873
 30
0.0
  0
VERTEX
  5
673
  8
1
  6
CONTINUOUS
 62
     7
 10
-147.4413688654052
 20
82.66161089115101
 30
0.0
  0
VERTEX
  5
674
  8
1
  6
CONTINUOUS
 62
     7
 10
-147.4381245414359
 20
82.68119638392601
 30
0.0
  0
VERTEX
  5
675
  8
1
  6
CONTINUOUS
 62
     7
 10
-147.434061116086
 20
82.70084194366501
 30
0.0
  0
VERTEX
  5
676
  8
1
  6
CONTINUOUS
 62
     7
 10
-147.4292200231547
 20
82.72029393396764
 30
0.0
  0
VERTEX
  5
677
  8
1
  6
CONTINUOUS
 62
     7
 10
-147.4235669636985
 20
82.73965854767484
 30
0.0
  0
VERTEX
  5
678
  8
1
  6
CONTINUOUS
 62
     7
 10
-147.4171484935302
 20
82.75875669218145
 30
0.0
  0
VERTEX
  5
679
  8
1
  6
CONTINUOUS
 62
     7
 10
-147.410172646385
 20
82.77707372048563
 30
0.0
  0
VERTEX
  5
67A
  8
1
  6
CONTINUOUS
 62
     7
 10
-147.4024988391081
 20
82.79507634890633
 30
0.0
  0
VERTEX
  5
67B
  8
1
  6
CONTINUOUS
 62
     7
 10
-147.3940831149709
 20
82.81285500710544
 30
0.0
  0
VERTEX
  5
67C
  8
1
  6
CONTINUOUS
 62
     7
 10
-147.384993508139
 20
82.8302582551514
 30
0.0
  0
VERTEX
  5
67D
  8
1
  6
CONTINUOUS
 62
     7
 10
-147.3751450786795
 20
82.84743067018879
 30
0.0
  0
VERTEX
  5
67E
  8
1
  6
CONTINUOUS
 62
     7
 10
-147.3646476441269
 20
82.86416709465976
 30
0.0
  0
VERTEX
  5
67F
  8
1
  6
CONTINUOUS
 62
     7
 10
-147.3534450485334
 20
82.88054966822853
 30
0.0
  0
VERTEX
  5
680
  8
1
  6
CONTINUOUS
 62
     7
 10
-147.3416274955421
 20
82.89644203206042
 30
0.0
  0
VERTEX
  5
681
  8
1
  6
CONTINUOUS
 62
     7
 10
-147.3299505914804
 20
82.91094624531074
 30
0.0
  0
VERTEX
  5
682
  8
1
  6
CONTINUOUS
 62
     7
 10
-147.3177667499613
 20
82.92497810163202
 30
0.0
  0
VERTEX
  5
683
  8
1
  6
CONTINUOUS
 62
     7
 10
-147.3050220408874
 20
82.9385959847505
 30
0.0
  0
VERTEX
  5
684
  8
1
  6
CONTINUOUS
 62
     7
 10
-147.2918043321403
 20
82.95170372987158
 30
0.0
  0
VERTEX
  5
685
  8
1
  6
CONTINUOUS
 62
     7
 10
-147.2808016302698
 20
82.96190363958118
 30
0.0
  0
VERTEX
  5
686
  8
1
  6
CONTINUOUS
 62
     7
 10
-147.2695145741264
 20
82.97175395450553
 30
0.0
  0
VERTEX
  5
687
  8
1
  6
CONTINUOUS
 62
     7
 10
-147.2579124236003
 20
82.98128055470312
 30
0.0
  0
VERTEX
  5
688
  8
1
  6
CONTINUOUS
 62
     7
 10
-147.2460458354401
 20
82.9904413237229
 30
0.0
  0
VERTEX
  5
689
  8
1
  6
CONTINUOUS
 62
     7
 10
-147.2255790370746
 20
83.0049674076809
 30
0.0
  0
VERTEX
  5
68A
  8
1
  6
CONTINUOUS
 62
     7
 10
-147.2082499974366
 20
83.01610920084681
 30
0.0
  0
VERTEX
  5
68B
  8
1
  6
CONTINUOUS
 62
     7
 10
-147.1904225870026
 20
83.02655493568783
 30
0.0
  0
VERTEX
  5
68C
  8
1
  6
CONTINUOUS
 62
     7
 10
-147.1721744404712
 20
83.0362542105831
 30
0.0
  0
VERTEX
  5
68D
  8
1
  6
CONTINUOUS
 62
     7
 10
-147.1533855532087
 20
83.04525832188149
 30
0.0
  0
VERTEX
  5
68E
  8
1
  6
CONTINUOUS
 62
     7
 10
-147.1342277422993
 20
83.05347226194854
 30
0.0
  0
VERTEX
  5
68F
  8
1
  6
CONTINUOUS
 62
     7
 10
-147.1145763113313
 20
83.06093649245966
 30
0.0
  0
VERTEX
  5
690
  8
1
  6
CONTINUOUS
 62
     7
 10
-147.0946117442321
 20
83.06756919592893
 30
0.0
  0
VERTEX
  5
691
  8
1
  6
CONTINUOUS
 62
     7
 10
-147.0743068501933
 20
83.0733727418718
 30
0.0
  0
VERTEX
  5
692
  8
1
  6
CONTINUOUS
 62
     7
 10
-147.0532102416393
 20
83.07843213153599
 30
0.0
  0
VERTEX
  5
693
  8
1
  6
CONTINUOUS
 62
     7
 10
-147.031816385635
 20
83.08258358696614
 30
0.0
  0
VERTEX
  5
694
  8
1
  6
CONTINUOUS
 62
     7
 10
-147.0102282758384
 20
83.08579821618143
 30
0.0
  0
VERTEX
  5
695
  8
1
  6
CONTINUOUS
 62
     7
 10
-146.9882939112655
 20
83.08808121378382
 30
0.0
  0
VERTEX
  5
696
  8
1
  6
CONTINUOUS
 62
     7
 10
-146.9662380499651
 20
83.08939121432941
 30
0.0
  0
VERTEX
  5
697
  8
1
  6
CONTINUOUS
 62
     7
 10
-146.9439075805036
 20
83.08971853149819
 30
0.0
  0
VERTEX
  5
698
  8
1
  6
CONTINUOUS
 62
     7
 10
-146.9215341957624
 20
83.08904035778166
 30
0.0
  0
VERTEX
  5
699
  8
1
  6
CONTINUOUS
 62
     7
 10
-146.8990880830082
 20
83.08734382851054
 30
0.0
  0
VERTEX
  5
69A
  8
1
  6
CONTINUOUS
 62
     7
 10
-146.8931845221349
 20
83.08672741382082
 30
0.0
  0
SEQEND
  5
7D6
  8
1
  6
CONTINUOUS
 62
     7
  0
POLYLINE
  5
25B
  8
1
  6
CONTINUOUS
 62
     9
 66
     1
 10
0.0
 20
0.0
 30
0.0
  0
VERTEX
  5
69B
  8
1
  6
CONTINUOUS
 62
     9
 10
-153.6920958226287
 20
79.96944289155283
 30
0.0
  0
VERTEX
  5
69C
  8
1
  6
CONTINUOUS
 62
     9
 10
-152.5665332192925
 20
79.9809825369372
 30
0.0
  0
VERTEX
  5
69D
  8
1
  6
CONTINUOUS
 62
     9
 10
-151.4809355184191
 20
80.01519173950388
 30
0.0
  0
VERTEX
  5
69E
  8
1
  6
CONTINUOUS
 62
     9
 10
-150.4738486046183
 20
80.07085584674053
 30
0.0
  0
VERTEX
  5
69F
  8
1
  6
CONTINUOUS
 62
     9
 10
-149.5810307112947
 20
80.14599841539133
 30
0.0
  0
VERTEX
  5
6A0
  8
1
  6
CONTINUOUS
 62
     9
 10
-148.8341827673153
 20
80.23795138823934
 30
0.0
  0
VERTEX
  5
6A1
  8
1
  6
CONTINUOUS
 62
     9
 10
-148.2598228047711
 20
80.34344982775008
 30
0.0
  0
SEQEND
  5
7D7
  8
1
  6
CONTINUOUS
 62
     9
  0
LINE
  5
25C
  8
1
  6
CONTINUOUS
 62
     9
 10
-153.6920958226287
 20
79.96944289155284
 30
0.0
 11
-153.6920958226287
 21
81.81694911049681
 31
0.0
  0
LINE
  5
25D
  8
1
  6
CONTINUOUS
 62
     7
 10
-148.2598228047711
 20
80.3434498277501
 30
0.0
 11
-148.2598228047711
 21
81.81694911049681
 31
0.0
  0
ARC
  5
25E
  8
1
  6
CONTINUOUS
 62
     7
 10
-151.0178522901722
 20
87.5480230953192
 30
0.0
 40
8.036569938462824
 50
250.5636592964136
 51
267.8809141601785
  0
LINE
  5
25F
  8
1
  6
CONTINUOUS
 62
     7
 10
-148.5960011194197
 20
79.51694911049681
 30
0.0
 11
-151.3150172714762
 21
79.51694911049681
 31
0.0
  0
LINE
  5
260
  8
1
  6
CONTINUOUS
 62
     9
 10
-148.5960011194197
 20
77.01694911049681
 30
0.0
 11
-148.5960011194197
 21
79.51694911049681
 31
0.0
  0
LINE
  5
261
  8
1
  6
CONTINUOUS
 62
     7
 10
-148.5960011194197
 20
77.01694911049681
 30
0.0
 11
-164.8420958226287
 21
77.01694911049681
 31
0.0
  0
LINE
  5
262
  8
1
  6
CONTINUOUS
 62
     9
 10
-164.8420958226287
 20
79.99295022407222
 30
0.0
 11
-164.8420958226287
 21
77.01694911049681
 31
0.0
  0
LINE
  5
263
  8
1
  6
CONTINUOUS
 62
     7
 10
-164.8420958226287
 20
79.99295022407222
 30
0.0
 11
-161.7180778977362
 21
79.99295022407223
 31
0.0
  0
POLYLINE
  5
264
  8
1
  6
CONTINUOUS
 62
     7
 66
     1
 10
0.0
 20
0.0
 30
0.0
  0
VERTEX
  5
6A2
  8
1
  6
CONTINUOUS
 62
     7
 10
-161.7180778977362
 20
79.9929502240722
 30
0.0
  0
VERTEX
  5
6A3
  8
1
  6
CONTINUOUS
 62
     7
 10
-161.6205344224851
 20
80.00255702115268
 30
0.0
  0
VERTEX
  5
6A4
  8
1
  6
CONTINUOUS
 62
     7
 10
-161.5267405891642
 20
80.03100826425006
 30
0.0
  0
VERTEX
  5
6A5
  8
1
  6
CONTINUOUS
 62
     7
 10
-161.4403004938318
 20
80.07721069371743
 30
0.0
  0
VERTEX
  5
6A6
  8
1
  6
CONTINUOUS
 62
     7
 10
-161.3645356598315
 20
80.13938894769963
 30
0.0
  0
VERTEX
  5
6A7
  8
1
  6
CONTINUOUS
 62
     7
 10
-161.3023574058493
 20
80.21515378169994
 30
0.0
  0
VERTEX
  5
6A8
  8
1
  6
CONTINUOUS
 62
     7
 10
-161.2561549763819
 20
80.30159387703236
 30
0.0
  0
VERTEX
  5
6A9
  8
1
  6
CONTINUOUS
 62
     7
 10
-161.2277037332845
 20
80.39538771035325
 30
0.0
  0
VERTEX
  5
6AA
  8
1
  6
CONTINUOUS
 62
     7
 10
-161.2180969362041
 20
80.49293118560429
 30
0.0
  0
SEQEND
  5
7D8
  8
1
  6
CONTINUOUS
 62
     7
  0
LINE
  5
265
  8
1
  6
CONTINUOUS
 62
     7
 10
-166.8420958226287
 20
80.01040395965374
 30
0.0
 11
-164.8420958226287
 21
79.99295022407223
 31
0.0
  0
LINE
  5
266
  8
1
  6
CONTINUOUS
 62
     7
 10
-166.8420958226287
 20
80.01694911049681
 30
0.0
 11
-166.8420958226287
 21
80.01040395965374
 31
0.0
  0
LINE
  5
267
  8
1
  6
CONTINUOUS
 62
     7
 10
-161.9420882073633
 20
80.01694911049681
 30
0.0
 11
-166.8420958226287
 21
80.01694911049681
 31
0.0
  0
LINE
  5
268
  8
1
  6
CONTINUOUS
 62
     9
 10
-161.7361159930738
 20
80.0109883194098
 30
0.0
 11
-161.9420882073633
 21
80.01694911049681
 31
0.0
  0
LINE
  5
269
  8
1
  6
CONTINUOUS
 62
     9
 10
-161.7180778977362
 20
79.99295022407223
 30
0.0
 11
-161.7361159930738
 21
80.0109883194098
 31
0.0
  0
POLYLINE
  5
26A
  8
1
  6
CONTINUOUS
 62
     7
 66
     1
 10
0.0
 20
0.0
 30
0.0
  0
VERTEX
  5
6AB
  8
1
  6
CONTINUOUS
 62
     7
 10
-161.7361159930738
 20
80.0109883194098
 30
0.0
  0
VERTEX
  5
6AC
  8
1
  6
CONTINUOUS
 62
     7
 10
-161.7303085109979
 20
80.01103766905156
 30
0.0
  0
VERTEX
  5
6AD
  8
1
  6
CONTINUOUS
 62
     7
 10
-161.7092247597479
 20
80.01178829910366
 30
0.0
  0
VERTEX
  5
6AE
  8
1
  6
CONTINUOUS
 62
     7
 10
-161.6881931071727
 20
80.01343166471771
 30
0.0
  0
VERTEX
  5
6AF
  8
1
  6
CONTINUOUS
 62
     7
 10
-161.6672655807805
 20
80.01596233031896
 30
0.0
  0
VERTEX
  5
6B0
  8
1
  6
CONTINUOUS
 62
     7
 10
-161.6462343501875
 20
80.01942119975479
 30
0.0
  0
VERTEX
  5
6B1
  8
1
  6
CONTINUOUS
 62
     7
 10
-161.6253624930377
 20
80.02377825641081
 30
0.0
  0
VERTEX
  5
6B2
  8
1
  6
CONTINUOUS
 62
     7
 10
-161.6047023362791
 20
80.02902230543918
 30
0.0
  0
VERTEX
  5
6B3
  8
1
  6
CONTINUOUS
 62
     7
 10
-161.5848515437933
 20
80.03496341055934
 30
0.0
  0
VERTEX
  5
6B4
  8
1
  6
CONTINUOUS
 62
     7
 10
-161.5652565157253
 20
80.04172715042418
 30
0.0
  0
VERTEX
  5
6B5
  8
1
  6
CONTINUOUS
 62
     7
 10
-161.5457759044013
 20
80.0493762991213
 30
0.0
  0
VERTEX
  5
6B6
  8
1
  6
CONTINUOUS
 62
     7
 10
-161.5266189678182
 20
80.05784203110179
 30
0.0
  0
VERTEX
  5
6B7
  8
1
  6
CONTINUOUS
 62
     7
 10
-161.5075688621423
 20
80.06724214546483
 30
0.0
  0
VERTEX
  5
6B8
  8
1
  6
CONTINUOUS
 62
     7
 10
-161.488915632334
 20
80.07745507842014
 30
0.0
  0
VERTEX
  5
6B9
  8
1
  6
CONTINUOUS
 62
     7
 10
-161.4705242664378
 20
80.08857308133678
 30
0.0
  0
VERTEX
  5
6BA
  8
1
  6
CONTINUOUS
 62
     7
 10
-161.4526024814085
 20
80.10048836025322
 30
0.0
  0
VERTEX
  5
6BB
  8
1
  6
CONTINUOUS
 62
     7
 10
-161.4406019894738
 20
80.1091108604784
 30
0.0
  0
VERTEX
  5
6BC
  8
1
  6
CONTINUOUS
 62
     7
 10
-161.4288479181989
 20
80.11809443196167
 30
0.0
  0
VERTEX
  5
6BD
  8
1
  6
CONTINUOUS
 62
     7
 10
-161.4096864960016
 20
80.13398147713735
 30
0.0
  0
VERTEX
  5
6BE
  8
1
  6
CONTINUOUS
 62
     7
 10
-161.3912976811602
 20
80.15083884456112
 30
0.0
  0
VERTEX
  5
6BF
  8
1
  6
CONTINUOUS
 62
     7
 10
-161.3769818703214
 20
80.16520424095823
 30
0.0
  0
VERTEX
  5
6C0
  8
1
  6
CONTINUOUS
 62
     7
 10
-161.3632313207216
 20
80.18016750780761
 30
0.0
  0
VERTEX
  5
6C1
  8
1
  6
CONTINUOUS
 62
     7
 10
-161.3499567728673
 20
80.19585013486305
 30
0.0
  0
VERTEX
  5
6C2
  8
1
  6
CONTINUOUS
 62
     7
 10
-161.3373082919461
 20
80.21209885543104
 30
0.0
  0
VERTEX
  5
6C3
  8
1
  6
CONTINUOUS
 62
     7
 10
-161.3260149388171
 20
80.22786445455178
 30
0.0
  0
VERTEX
  5
6C4
  8
1
  6
CONTINUOUS
 62
     7
 10
-161.3153166992399
 20
80.24408889585035
 30
0.0
  0
VERTEX
  5
6C5
  8
1
  6
CONTINUOUS
 62
     7
 10
-161.3051120312384
 20
80.26096386993768
 30
0.0
  0
VERTEX
  5
6C6
  8
1
  6
CONTINUOUS
 62
     7
 10
-161.2955501281029
 20
80.2782776636802
 30
0.0
  0
VERTEX
  5
6C7
  8
1
  6
CONTINUOUS
 62
     7
 10
-161.2866574928881
 20
80.29599000923731
 30
0.0
  0
VERTEX
  5
6C8
  8
1
  6
CONTINUOUS
 62
     7
 10
-161.2784606286484
 20
80.3140606387684
 30
0.0
  0
VERTEX
  5
6C9
  8
1
  6
CONTINUOUS
 62
     7
 10
-161.2708711089764
 20
80.33273825108846
 30
0.0
  0
VERTEX
  5
6CA
  8
1
  6
CONTINUOUS
 62
     7
 10
-161.2640245445048
 20
80.3517400425413
 30
0.0
  0
VERTEX
  5
6CB
  8
1
  6
CONTINUOUS
 62
     7
 10
-161.2595171636162
 20
80.36575928327949
 30
0.0
  0
VERTEX
  5
6CC
  8
1
  6
CONTINUOUS
 62
     7
 10
-161.2554178589638
 20
80.37992078278832
 30
0.0
  0
VERTEX
  5
6CD
  8
1
  6
CONTINUOUS
 62
     7
 10
-161.2513139058528
 20
80.39595242600556
 30
0.0
  0
VERTEX
  5
6CE
  8
1
  6
CONTINUOUS
 62
     7
 10
-161.2477351834189
 20
80.41213237369566
 30
0.0
  0
VERTEX
  5
6CF
  8
1
  6
CONTINUOUS
 62
     7
 10
-161.2446899238347
 20
80.42843111926028
 30
0.0
  0
VERTEX
  5
6D0
  8
1
  6
CONTINUOUS
 62
     7
 10
-161.2421433247338
 20
80.44512836856724
 30
0.0
  0
VERTEX
  5
6D1
  8
1
  6
CONTINUOUS
 62
     7
 10
-161.2401575756606
 20
80.46191729676464
 30
0.0
  0
VERTEX
  5
6D2
  8
1
  6
CONTINUOUS
 62
     7
 10
-161.2387375681698
 20
80.47876514414439
 30
0.0
  0
VERTEX
  5
6D3
  8
1
  6
CONTINUOUS
 62
     7
 10
-161.2379401103711
 20
80.49411440870732
 30
0.0
  0
VERTEX
  5
6D4
  8
1
  6
CONTINUOUS
 62
     7
 10
-161.237612885685
 20
80.50948202162989
 30
0.0
  0
SEQEND
  5
7D9
  8
1
  6
CONTINUOUS
 62
     7
  0
LINE
  5
26B
  8
1
  6
CONTINUOUS
 62
     7
 10
-161.237612885685
 20
80.50948202162989
 30
0.0
 11
-161.2376040642002
 21
80.5124383136004
 31
0.0
  0
LINE
  5
26C
  8
1
  6
CONTINUOUS
 62
     9
 10
-146.9974882460882
 20
79.96197182574467
 30
0.0
 11
-147.0064244957354
 21
79.8595725473153
 31
0.0
  0
LINE
  5
26D
  8
1
  6
CONTINUOUS
 62
     7
 10
-146.9970921458487
 20
79.96197182574467
 30
0.0
 11
-146.9974882309514
 21
79.96197199763463
 31
0.0
  0
LINE
  5
26E
  8
1
  6
CONTINUOUS
 62
     7
 10
-146.9970921458487
 20
79.96197182574467
 30
0.0
 11
-142.2392496405824
 21
79.96197182574467
 31
0.0
  0
POLYLINE
  5
26F
  8
1
  6
CONTINUOUS
 62
     7
 66
     1
 10
0.0
 20
0.0
 30
0.0
  0
VERTEX
  5
6D5
  8
1
  6
CONTINUOUS
 62
     7
 10
-143.7186205848566
 20
79.76682712951857
 30
0.0
  0
VERTEX
  5
6D6
  8
1
  6
CONTINUOUS
 62
     7
 10
-143.1199736255192
 20
79.82340817796245
 30
0.0
  0
VERTEX
  5
6D7
  8
1
  6
CONTINUOUS
 62
     7
 10
-142.6223479935927
 20
79.88905026938818
 30
0.0
  0
VERTEX
  5
6D8
  8
1
  6
CONTINUOUS
 62
     7
 10
-142.2392496405824
 20
79.96197182574467
 30
0.0
  0
SEQEND
  5
7DA
  8
1
  6
CONTINUOUS
 62
     7
  0
LINE
  5
270
  8
1
  6
CONTINUOUS
 62
     7
 10
-145.4725258816476
 20
79.62651470577529
 30
0.0
 11
-143.7186205848566
 21
79.76682712951857
 31
0.0
  0
POLYLINE
  5
271
  8
1
  6
CONTINUOUS
 62
     7
 66
     1
 10
0.0
 20
0.0
 30
0.0
  0
VERTEX
  5
6D9
  8
1
  6
CONTINUOUS
 62
     7
 10
-148.5960011194197
 20
79.51694911049681
 30
0.0
  0
VERTEX
  5
6DA
  8
1
  6
CONTINUOUS
 62
     7
 10
-147.4808901929094
 20
79.5295424258732
 30
0.0
  0
VERTEX
  5
6DB
  8
1
  6
CONTINUOUS
 62
     7
 10
-146.4219510407079
 20
79.56668800563372
 30
0.0
  0
VERTEX
  5
6DC
  8
1
  6
CONTINUOUS
 62
     7
 10
-145.4725258816476
 20
79.62651470577529
 30
0.0
  0
SEQEND
  5
7DB
  8
1
  6
CONTINUOUS
 62
     7
  0
POLYLINE
  5
272
  8
1
  6
CONTINUOUS
 62
     9
 66
     1
 10
0.0
 20
0.0
 30
0.0
  0
VERTEX
  5
6DD
  8
1
  6
CONTINUOUS
 62
     9
 10
-151.3150172714762
 20
79.51694911049681
 30
0.0
  0
VERTEX
  5
6DE
  8
1
  6
CONTINUOUS
 62
     9
 10
-150.2626198208835
 20
79.56975861159
 30
0.0
  0
VERTEX
  5
6DF
  8
1
  6
CONTINUOUS
 62
     9
 10
-149.3227598934976
 20
79.64068731180927
 30
0.0
  0
VERTEX
  5
6E0
  8
1
  6
CONTINUOUS
 62
     9
 10
-148.5262787922858
 20
79.72740770099185
 30
0.0
  0
VERTEX
  5
6E1
  8
1
  6
CONTINUOUS
 62
     9
 10
-147.8993128746293
 20
79.82707406807134
 30
0.0
  0
SEQEND
  5
7DC
  8
1
  6
CONTINUOUS
 62
     9
  0
LINE
  5
273
  8
1
  6
CONTINUOUS
 62
     9
 10
-147.0064244957354
 20
79.8595725473153
 30
0.0
 11
-147.8993128746293
 21
79.82707406807134
 31
0.0
  0
POLYLINE
  5
274
  8
1
  6
CONTINUOUS
 62
     7
 66
     1
 10
0.0
 20
0.0
 30
0.0
  0
VERTEX
  5
6E2
  8
1
  6
CONTINUOUS
 62
     7
 10
-148.2589444019681
 20
80.31772740363533
 30
0.0
  0
VERTEX
  5
6E3
  8
1
  6
CONTINUOUS
 62
     7
 10
-148.2579017541365
 20
80.30440588396584
 30
0.0
  0
VERTEX
  5
6E4
  8
1
  6
CONTINUOUS
 62
     7
 10
-148.2566012341282
 20
80.29110604244228
 30
0.0
  0
VERTEX
  5
6E5
  8
1
  6
CONTINUOUS
 62
     7
 10
-148.2544770740456
 20
80.27349063838467
 30
0.0
  0
VERTEX
  5
6E6
  8
1
  6
CONTINUOUS
 62
     7
 10
-148.2519045598021
 20
80.2559518000171
 30
0.0
  0
VERTEX
  5
6E7
  8
1
  6
CONTINUOUS
 62
     7
 10
-148.2488910471071
 20
80.23852714101969
 30
0.0
  0
VERTEX
  5
6E8
  8
1
  6
CONTINUOUS
 62
     7
 10
-148.2453930198886
 20
80.22101004115268
 30
0.0
  0
VERTEX
  5
6E9
  8
1
  6
CONTINUOUS
 62
     7
 10
-148.2414539964796
 20
80.20364722161601
 30
0.0
  0
VERTEX
  5
6EA
  8
1
  6
CONTINUOUS
 62
     7
 10
-148.2370850779322
 20
80.18647529762592
 30
0.0
  0
VERTEX
  5
6EB
  8
1
  6
CONTINUOUS
 62
     7
 10
-148.2334563822393
 20
80.17347686523613
 30
0.0
  0
VERTEX
  5
6EC
  8
1
  6
CONTINUOUS
 62
     7
 10
-148.2295846751553
 20
80.16061038383293
 30
0.0
  0
VERTEX
  5
6ED
  8
1
  6
CONTINUOUS
 62
     7
 10
-148.2255982343766
 20
80.1482567452706
 30
0.0
  0
VERTEX
  5
6EE
  8
1
  6
CONTINUOUS
 62
     7
 10
-148.2213913722157
 20
80.13604543137734
 30
0.0
  0
VERTEX
  5
6EF
  8
1
  6
CONTINUOUS
 62
     7
 10
-148.2154741791717
 20
80.12007110566644
 30
0.0
  0
VERTEX
  5
6F0
  8
1
  6
CONTINUOUS
 62
     7
 10
-148.2091853777355
 20
80.10437617670067
 30
0.0
  0
VERTEX
  5
6F1
  8
1
  6
CONTINUOUS
 62
     7
 10
-148.2025402443125
 20
80.08898893577543
 30
0.0
  0
VERTEX
  5
6F2
  8
1
  6
CONTINUOUS
 62
     7
 10
-148.1954643919801
 20
80.07374900708649
 30
0.0
  0
VERTEX
  5
6F3
  8
1
  6
CONTINUOUS
 62
     7
 10
-148.1880434566274
 20
80.05884862175168
 30
0.0
  0
VERTEX
  5
6F4
  8
1
  6
CONTINUOUS
 62
     7
 10
-148.1802946002845
 20
80.04431323372899
 30
0.0
  0
VERTEX
  5
6F5
  8
1
  6
CONTINUOUS
 62
     7
 10
-148.1741568335804
 20
80.03345613105073
 30
0.0
  0
VERTEX
  5
6F6
  8
1
  6
CONTINUOUS
 62
     7
 10
-148.1678391781313
 20
80.02282486310786
 30
0.0
  0
VERTEX
  5
6F7
  8
1
  6
CONTINUOUS
 62
     7
 10
-148.1560233106903
 20
80.00426524933007
 30
0.0
  0
VERTEX
  5
6F8
  8
1
  6
CONTINUOUS
 62
     7
 10
-148.1436695523463
 20
79.98648102367046
 30
0.0
  0
VERTEX
  5
6F9
  8
1
  6
CONTINUOUS
 62
     7
 10
-148.1308254179201
 20
79.96952247863777
 30
0.0
  0
VERTEX
  5
6FA
  8
1
  6
CONTINUOUS
 62
     7
 10
-148.1192756314106
 20
79.95546011872794
 30
0.0
  0
VERTEX
  5
6FB
  8
1
  6
CONTINUOUS
 62
     7
 10
-148.1073927542693
 20
79.9420478465973
 30
0.0
  0
VERTEX
  5
6FC
  8
1
  6
CONTINUOUS
 62
     7
 10
-148.0952082235027
 20
79.92931177296289
 30
0.0
  0
VERTEX
  5
6FD
  8
1
  6
CONTINUOUS
 62
     7
 10
-148.0867803539864
 20
79.92106298388994
 30
0.0
  0
VERTEX
  5
6FE
  8
1
  6
CONTINUOUS
 62
     7
 10
-148.0782283909183
 20
79.91313372235604
 30
0.0
  0
VERTEX
  5
6FF
  8
1
  6
CONTINUOUS
 62
     7
 10
-148.0649559604798
 20
79.90166010413374
 30
0.0
  0
VERTEX
  5
700
  8
1
  6
CONTINUOUS
 62
     7
 10
-148.0514341031837
 20
79.8909521315459
 30
0.0
  0
VERTEX
  5
701
  8
1
  6
CONTINUOUS
 62
     7
 10
-148.037579136081
 20
79.88094845558076
 30
0.0
  0
VERTEX
  5
702
  8
1
  6
CONTINUOUS
 62
     7
 10
-148.0235185465411
 20
79.87174526026654
 30
0.0
  0
VERTEX
  5
703
  8
1
  6
CONTINUOUS
 62
     7
 10
-148.0091380161653
 20
79.86327636036721
 30
0.0
  0
VERTEX
  5
704
  8
1
  6
CONTINUOUS
 62
     7
 10
-147.994595907621
 20
79.85564293638855
 30
0.0
  0
VERTEX
  5
705
  8
1
  6
CONTINUOUS
 62
     7
 10
-147.979802710533
 20
79.84880514308085
 30
0.0
  0
VERTEX
  5
706
  8
1
  6
CONTINUOUS
 62
     7
 10
-147.964893715353
 20
79.84283204875976
 30
0.0
  0
VERTEX
  5
707
  8
1
  6
CONTINUOUS
 62
     7
 10
-147.9495070405142
 20
79.83761188175957
 30
0.0
  0
VERTEX
  5
708
  8
1
  6
CONTINUOUS
 62
     7
 10
-147.9340494046634
 20
79.8333152827441
 30
0.0
  0
VERTEX
  5
709
  8
1
  6
CONTINUOUS
 62
     7
 10
-147.9184887501333
 20
79.82993794945483
 30
0.0
  0
VERTEX
  5
70A
  8
1
  6
CONTINUOUS
 62
     7
 10
-147.9029080490494
 20
79.82750194102476
 30
0.0
  0
VERTEX
  5
70B
  8
1
  6
CONTINUOUS
 62
     7
 10
-147.8993128746293
 20
79.82707406807134
 30
0.0
  0
SEQEND
  5
7DD
  8
1
  6
CONTINUOUS
 62
     7
  0
LINE
  5
275
  8
1
  6
CONTINUOUS
 62
     7
 10
-148.2598228047711
 20
80.3434498277501
 30
0.0
 11
-148.2589444019681
 21
80.31772740363533
 31
0.0
  0
LINE
  5
276
  8
1
  6
CONTINUOUS
 62
     9
 10
-145.4725258816476
 20
79.62651470577529
 30
0.0
 11
-145.4725258816476
 21
77.01694911049681
 31
0.0
  0
LINE
  5
277
  8
1
  6
CONTINUOUS
 62
     7
 10
-145.4725258816476
 20
77.01694911049681
 30
0.0
 11
-148.5960011194197
 21
77.01694911049681
 31
0.0
  0
LINE
  5
278
  8
1
  6
CONTINUOUS
 62
     7
 10
-166.8420958226287
 20
77.01694911049681
 30
0.0
 11
-166.8420958226287
 21
80.01040395965374
 31
0.0
  0
LINE
  5
279
  8
1
  6
CONTINUOUS
 62
     7
 10
-164.8420958226287
 20
77.01694911049681
 30
0.0
 11
-166.8420958226287
 21
77.01694911049681
 31
0.0
  0
LINE
  5
27A
  8
1
  6
CONTINUOUS
 62
     9
 10
-143.7186205848566
 20
77.01694911049681
 30
0.0
 11
-143.7186205848566
 21
79.76682712951857
 31
0.0
  0
LINE
  5
27B
  8
1
  6
CONTINUOUS
 62
     7
 10
-143.7186205848566
 20
77.01694911049681
 30
0.0
 11
-145.4725258816476
 21
77.01694911049681
 31
0.0
  0
LINE
  5
27C
  8
1
  6
CONTINUOUS
 62
     9
 10
-161.2377742073496
 20
82.60256898416102
 30
0.0
 11
-161.4420958226282
 21
82.5621712646755
 31
0.0
  0
LINE
  5
27D
  8
1
  6
CONTINUOUS
 62
     7
 10
-161.4911709038433
 20
80.30093047415964
 30
0.0
 11
-161.4778213067068
 21
80.33135201975676
 31
0.0
  0
LINE
  5
27E
  8
1
  6
CONTINUOUS
 62
     7
 10
-161.4778213067068
 20
80.33135201975676
 30
0.0
 11
-161.4648509103313
 21
80.36783722346614
 31
0.0
  0
LINE
  5
27F
  8
1
  6
CONTINUOUS
 62
     7
 10
-161.4648509103313
 20
80.36783722346614
 30
0.0
 11
-161.4420958226287
 21
80.51696814968967
 31
0.0
  0
POLYLINE
  5
280
  8
1
  6
CONTINUOUS
 62
     7
 66
     1
 10
0.0
 20
0.0
 30
0.0
  0
VERTEX
  5
70C
  8
1
  6
CONTINUOUS
 62
     7
 10
-161.9420882073633
 20
80.01694911049681
 30
0.0
  0
VERTEX
  5
70D
  8
1
  6
CONTINUOUS
 62
     7
 10
-161.9213834198921
 20
80.01737817832877
 30
0.0
  0
VERTEX
  5
70E
  8
1
  6
CONTINUOUS
 62
     7
 10
-161.9007141381123
 20
80.01866391261267
 30
0.0
  0
VERTEX
  5
70F
  8
1
  6
CONTINUOUS
 62
     7
 10
-161.8799731017681
 20
80.02082270292499
 30
0.0
  0
VERTEX
  5
710
  8
1
  6
CONTINUOUS
 62
     7
 10
-161.8593400688614
 20
80.02384411252328
 30
0.0
  0
VERTEX
  5
711
  8
1
  6
CONTINUOUS
 62
     7
 10
-161.8384070652938
 20
80.02781755499802
 30
0.0
  0
VERTEX
  5
712
  8
1
  6
CONTINUOUS
 62
     7
 10
-161.8176622663412
 20
80.03267885098593
 30
0.0
  0
VERTEX
  5
713
  8
1
  6
CONTINUOUS
 62
     7
 10
-161.796993463537
 20
80.03846546535308
 30
0.0
  0
VERTEX
  5
714
  8
1
  6
CONTINUOUS
 62
     7
 10
-161.7765919303595
 20
80.04513343043988
 30
0.0
  0
VERTEX
  5
715
  8
1
  6
CONTINUOUS
 62
     7
 10
-161.7571963155789
 20
80.05239170027751
 30
0.0
  0
VERTEX
  5
716
  8
1
  6
CONTINUOUS
 62
     7
 10
-161.7381177712574
 20
80.06044660562281
 30
0.0
  0
VERTEX
  5
717
  8
1
  6
CONTINUOUS
 62
     7
 10
-161.7192605050967
 20
80.06934911525116
 30
0.0
  0
VERTEX
  5
718
  8
1
  6
CONTINUOUS
 62
     7
 10
-161.7007906905947
 20
80.07902987541583
 30
0.0
  0
VERTEX
  5
719
  8
1
  6
CONTINUOUS
 62
     7
 10
-161.6823529408806
 20
80.08970830261912
 30
0.0
  0
VERTEX
  5
71A
  8
1
  6
CONTINUOUS
 62
     7
 10
-161.6643866736662
 20
80.10116223930498
 30
0.0
  0
VERTEX
  5
71B
  8
1
  6
CONTINUOUS
 62
     7
 10
-161.6467984050181
 20
80.11346417662544
 30
0.0
  0
VERTEX
  5
71C
  8
1
  6
CONTINUOUS
 62
     7
 10
-161.6297540693925
 20
80.12650930909169
 30
0.0
  0
VERTEX
  5
71D
  8
1
  6
CONTINUOUS
 62
     7
 10
-161.6138543869262
 20
80.13977845206573
 30
0.0
  0
VERTEX
  5
71E
  8
1
  6
CONTINUOUS
 62
     7
 10
-161.5985175790756
 20
80.15369435610751
 30
0.0
  0
VERTEX
  5
71F
  8
1
  6
CONTINUOUS
 62
     7
 10
-161.5836701249982
 20
80.1683368163847
 30
0.0
  0
VERTEX
  5
720
  8
1
  6
CONTINUOUS
 62
     7
 10
-161.5694458632386
 20
80.18358538734682
 30
0.0
  0
VERTEX
  5
721
  8
1
  6
CONTINUOUS
 62
     7
 10
-161.5555820832945
 20
80.19976472144111
 30
0.0
  0
VERTEX
  5
722
  8
1
  6
CONTINUOUS
 62
     7
 10
-161.5424198666375
 20
80.21651975959124
 30
0.0
  0
VERTEX
  5
723
  8
1
  6
CONTINUOUS
 62
     7
 10
-161.5298949956424
 20
80.23394983488967
 30
0.0
  0
VERTEX
  5
724
  8
1
  6
CONTINUOUS
 62
     7
 10
-161.5181293424278
 20
80.25190113925248
 30
0.0
  0
VERTEX
  5
725
  8
1
  6
CONTINUOUS
 62
     7
 10
-161.5075174885885
 20
80.2696856681064
 30
0.0
  0
VERTEX
  5
726
  8
1
  6
CONTINUOUS
 62
     7
 10
-161.497650859716
 20
80.28789419765006
 30
0.0
  0
VERTEX
  5
727
  8
1
  6
CONTINUOUS
 62
     7
 10
-161.4911709038433
 20
80.30093047415964
 30
0.0
  0
SEQEND
  5
7DE
  8
1
  6
CONTINUOUS
 62
     7
  0
LINE
  5
281
  8
1
  6
CONTINUOUS
 62
     9
 10
-161.4420958226287
 20
80.51696814968967
 30
0.0
 11
-161.237612885685
 21
80.50948202162989
 31
0.0
  0
LINE
  5
282
  8
1
  6
CONTINUOUS
 62
     7
 10
-142.2392496405824
 20
79.96197182574467
 30
0.0
 11
-141.8420958226287
 21
79.97901450041402
 31
0.0
  0
LINE
  5
283
  8
1
  6
CONTINUOUS
 62
     7
 10
-141.8420958226287
 20
79.97901450041402
 30
0.0
 11
-141.8420958226287
 21
77.01694911049681
 31
0.0
  0
LINE
  5
284
  8
1
  6
CONTINUOUS
 62
     7
 10
-141.8420958226287
 20
77.01694911049681
 30
0.0
 11
-143.7186205848566
 21
77.01694911049681
 31
0.0
  0
ARC
  5
285
  8
1
  6
CONTINUOUS
 62
     7
 10
-141.4420958226287
 20
83.81694911049681
 30
0.0
 40
1.000000000000001
 50
180.0
 51
270.0
  0
LINE
  5
286
  8
1
  6
CONTINUOUS
 62
     7
 10
-136.5420958226287
 20
82.81694911049681
 30
0.0
 11
-141.4420958226287
 21
82.81694911049681
 31
0.0
  0
LINE
  5
287
  8
1
  6
CONTINUOUS
 62
     9
 10
-136.5420958226287
 20
81.81694911049681
 30
0.0
 11
-136.5420958226287
 21
82.81694911049681
 31
0.0
  0
LINE
  5
288
  8
1
  6
CONTINUOUS
 62
     7
 10
-137.5420958226287
 20
81.81694911049681
 30
0.0
 11
-136.5420958226287
 21
81.81694911049681
 31
0.0
  0
LINE
  5
289
  8
1
  6
CONTINUOUS
 62
     7
 10
-142.4420958226287
 20
81.81694911049681
 30
0.0
 11
-137.5420958226287
 21
81.81694911049681
 31
0.0
  0
LINE
  5
28A
  8
1
  6
CONTINUOUS
 62
     7
 10
-135.0420958226287
 20
82.81694911049682
 30
0.0
 11
-135.0420958226287
 21
81.81694911049681
 31
0.0
  0
LINE
  5
28B
  8
1
  6
CONTINUOUS
 62
     7
 10
-136.5420958226287
 20
82.81694911049681
 30
0.0
 11
-135.0420958226287
 21
82.81694911049681
 31
0.0
  0
LINE
  5
28C
  8
1
  6
CONTINUOUS
 62
     7
 10
-135.0420958226287
 20
81.81694911049681
 30
0.0
 11
-136.5420958226287
 21
81.81694911049682
 31
0.0
  0
LINE
  5
28D
  8
1
  6
CONTINUOUS
 62
     7
 10
-136.5420958226287
 20
80.81694911049681
 30
0.0
 11
-137.5420958226287
 21
80.81694911049681
 31
0.0
  0
LINE
  5
28E
  8
1
  6
CONTINUOUS
 62
     7
 10
-137.5420958226287
 20
80.81694911049681
 30
0.0
 11
-137.5420958226287
 21
81.81694911049681
 31
0.0
  0
LINE
  5
28F
  8
1
  6
CONTINUOUS
 62
     7
 10
-136.5420958226287
 20
81.81694911049681
 30
0.0
 11
-136.5420958226287
 21
80.81694911049681
 31
0.0
  0
LINE
  5
290
  8
1
  6
CONTINUOUS
 62
     9
 10
-148.2589444019681
 20
80.31772740363533
 30
0.0
 11
-147.5012215282968
 21
80.34530626081923
 31
0.0
  0
POLYLINE
  5
291
  8
1
  6
CONTINUOUS
 62
     7
 66
     1
 10
0.0
 20
0.0
 30
0.0
  0
VERTEX
  5
728
  8
1
  6
CONTINUOUS
 62
     7
 10
-147.5012215282968
 20
80.34530626081923
 30
0.0
  0
VERTEX
  5
729
  8
1
  6
CONTINUOUS
 62
     7
 10
-147.4985501731189
 20
80.32231099269752
 30
0.0
  0
VERTEX
  5
72A
  8
1
  6
CONTINUOUS
 62
     7
 10
-147.494830357506
 20
80.2993898227434
 30
0.0
  0
VERTEX
  5
72B
  8
1
  6
CONTINUOUS
 62
     7
 10
-147.4900700064246
 20
80.27659158388899
 30
0.0
  0
VERTEX
  5
72C
  8
1
  6
CONTINUOUS
 62
     7
 10
-147.4842792616738
 20
80.2539648471651
 30
0.0
  0
VERTEX
  5
72D
  8
1
  6
CONTINUOUS
 62
     7
 10
-147.4774704602787
 20
80.23155781822186
 30
0.0
  0
VERTEX
  5
72E
  8
1
  6
CONTINUOUS
 62
     7
 10
-147.4696581082061
 20
80.20941823462792
 30
0.0
  0
VERTEX
  5
72F
  8
1
  6
CONTINUOUS
 62
     7
 10
-147.4608588494609
 20
80.18759326416688
 30
0.0
  0
VERTEX
  5
730
  8
1
  6
CONTINUOUS
 62
     7
 10
-147.4510914306256
 20
80.16612940434756
 30
0.0
  0
VERTEX
  5
731
  8
1
  6
CONTINUOUS
 62
     7
 10
-147.4403766609215
 20
80.1450723833423
 30
0.0
  0
VERTEX
  5
732
  8
1
  6
CONTINUOUS
 62
     7
 10
-147.4287373678756
 20
80.1244670625644
 30
0.0
  0
VERTEX
  5
733
  8
1
  6
CONTINUOUS
 62
     7
 10
-147.4161983486866
 20
80.10435734109204
 30
0.0
  0
VERTEX
  5
734
  8
1
  6
CONTINUOUS
 62
     7
 10
-147.4027863173956
 20
80.0847860621425
 30
0.0
  0
VERTEX
  5
735
  8
1
  6
CONTINUOUS
 62
     7
 10
-147.3885298479721
 20
80.06579492179583
 30
0.0
  0
VERTEX
  5
736
  8
1
  6
CONTINUOUS
 62
     7
 10
-147.3734593134383
 20
80.04742438016248
 30
0.0
  0
VERTEX
  5
737
  8
1
  6
CONTINUOUS
 62
     7
 10
-147.3576068211602
 20
80.02971357518418
 30
0.0
  0
VERTEX
  5
738
  8
1
  6
CONTINUOUS
 62
     7
 10
-147.3410061444435
 20
80.01270023925152
 30
0.0
  0
VERTEX
  5
739
  8
1
  6
CONTINUOUS
 62
     7
 10
-147.3236926505805
 20
79.9964206188162
 30
0.0
  0
VERTEX
  5
73A
  8
1
  6
CONTINUOUS
 62
     7
 10
-147.3057032255014
 20
79.98090939716892
 30
0.0
  0
VERTEX
  5
73B
  8
1
  6
CONTINUOUS
 62
     7
 10
-147.2870761951893
 20
79.9661996205475
 30
0.0
  0
VERTEX
  5
73C
  8
1
  6
CONTINUOUS
 62
     7
 10
-147.267851244028
 20
79.95232262773294
 30
0.0
  0
VERTEX
  5
73D
  8
1
  6
CONTINUOUS
 62
     7
 10
-147.2480693302558
 20
79.93930798328277
 30
0.0
  0
VERTEX
  5
73E
  8
1
  6
CONTINUOUS
 62
     7
 10
-147.2277725987043
 20
79.92718341454473
 30
0.0
  0
VERTEX
  5
73F
  8
1
  6
CONTINUOUS
 62
     7
 10
-147.2070042910109
 20
79.91597475258432
 30
0.0
  0
VERTEX
  5
740
  8
1
  6
CONTINUOUS
 62
     7
 10
-147.1858086534929
 20
79.90570587715247
 30
0.0
  0
VERTEX
  5
741
  8
1
  6
CONTINUOUS
 62
     7
 10
-147.1642308428822
 20
79.89639866581031
 30
0.0
  0
VERTEX
  5
742
  8
1
  6
CONTINUOUS
 62
     7
 10
-147.1423168301205
 20
79.88807294731971
 30
0.0
  0
VERTEX
  5
743
  8
1
  6
CONTINUOUS
 62
     7
 10
-147.1201133024186
 20
79.88074645939855
 30
0.0
  0
VERTEX
  5
744
  8
1
  6
CONTINUOUS
 62
     7
 10
-147.0976675637913
 20
79.874434810931
 30
0.0
  0
VERTEX
  5
745
  8
1
  6
CONTINUOUS
 62
     7
 10
-147.0750274342773
 20
79.86915144871334
 30
0.0
  0
VERTEX
  5
746
  8
1
  6
CONTINUOUS
 62
     7
 10
-147.0522411480597
 20
79.86490762880571
 30
0.0
  0
VERTEX
  5
747
  8
1
  6
CONTINUOUS
 62
     7
 10
-147.0293572507044
 20
79.86171239255158
 30
0.0
  0
VERTEX
  5
748
  8
1
  6
CONTINUOUS
 62
     7
 10
-147.0064244957354
 20
79.8595725473153
 30
0.0
  0
SEQEND
  5
7DF
  8
1
  6
CONTINUOUS
 62
     7
  0
LINE
  5
292
  8
1
  6
CONTINUOUS
 62
     7
 10
-147.5012215282968
 20
80.34530626081923
 30
0.0
 11
-147.5033785507259
 21
80.39177605588773
 31
0.0
  0
POLYLINE
  5
293
  8
1
  6
CONTINUOUS
 62
     7
 66
     1
 10
0.0
 20
0.0
 30
0.0
  0
VERTEX
  5
749
  8
1
  6
CONTINUOUS
 62
     7
 10
-147.497271646395
 20
80.46175424826258
 30
0.0
  0
VERTEX
  5
74A
  8
1
  6
CONTINUOUS
 62
     7
 10
-147.4966584600132
 20
80.43724463162135
 30
0.0
  0
VERTEX
  5
74B
  8
1
  6
CONTINUOUS
 62
     7
 10
-147.4948435823262
 20
80.41279399554449
 30
0.0
  0
VERTEX
  5
74C
  8
1
  6
CONTINUOUS
 62
     7
 10
-147.4918313807021
 20
80.38846117866404
 30
0.0
  0
VERTEX
  5
74D
  8
1
  6
CONTINUOUS
 62
     7
 10
-147.4876291037791
 20
80.36430473608897
 30
0.0
  0
VERTEX
  5
74E
  8
1
  6
CONTINUOUS
 62
     7
 10
-147.4822468640233
 20
80.34038279849656
 30
0.0
  0
VERTEX
  5
74F
  8
1
  6
CONTINUOUS
 62
     7
 10
-147.4756976133933
 20
80.31675293224542
 30
0.0
  0
VERTEX
  5
750
  8
1
  6
CONTINUOUS
 62
     7
 10
-147.4679971121722
 20
80.29347200084622
 30
0.0
  0
VERTEX
  5
751
  8
1
  6
CONTINUOUS
 62
     7
 10
-147.4591638910418
 20
80.27059602812396
 30
0.0
  0
VERTEX
  5
752
  8
1
  6
CONTINUOUS
 62
     7
 10
-147.44921920649
 20
80.24818006340072
 30
0.0
  0
VERTEX
  5
753
  8
1
  6
CONTINUOUS
 62
     7
 10
-147.4381869896584
 20
80.22627804902375
 30
0.0
  0
VERTEX
  5
754
  8
1
  6
CONTINUOUS
 62
     7
 10
-147.426093788754
 20
80.20494269055705
 30
0.0
  0
VERTEX
  5
755
  8
1
  6
CONTINUOUS
 62
     7
 10
-147.4129687051627
 20
80.18422532994941
 30
0.0
  0
VERTEX
  5
756
  8
1
  6
CONTINUOUS
 62
     7
 10
-147.3988433234193
 20
80.16417582198397
 30
0.0
  0
VERTEX
  5
757
  8
1
  6
CONTINUOUS
 62
     7
 10
-147.3837516352014
 20
80.14484241430621
 30
0.0
  0
VERTEX
  5
758
  8
1
  6
CONTINUOUS
 62
     7
 10
-147.3677299575311
 20
80.12627163131968
 30
0.0
  0
VERTEX
  5
759
  8
1
  6
CONTINUOUS
 62
     7
 10
-147.3508168453806
 20
80.10850816222857
 30
0.0
  0
VERTEX
  5
75A
  8
1
  6
CONTINUOUS
 62
     7
 10
-147.3330529988929
 20
80.09159475349632
 30
0.0
  0
VERTEX
  5
75B
  8
1
  6
CONTINUOUS
 62
     7
 10
-147.3144811654396
 20
80.07557210597955
 30
0.0
  0
VERTEX
  5
75C
  8
1
  6
CONTINUOUS
 62
     7
 10
-147.2951460367528
 20
80.06047877698441
 30
0.0
  0
VERTEX
  5
75D
  8
1
  6
CONTINUOUS
 62
     7
 10
-147.2750941413774
 20
80.04635108748141
 30
0.0
  0
VERTEX
  5
75E
  8
1
  6
CONTINUOUS
 62
     7
 10
-147.2543737327042
 20
80.03322303470162
 30
0.0
  0
VERTEX
  5
75F
  8
1
  6
CONTINUOUS
 62
     7
 10
-147.2330346728511
 20
80.02112621032487
 30
0.0
  0
VERTEX
  5
760
  8
1
  6
CONTINUOUS
 62
     7
 10
-147.2111283126741
 20
80.01008972445676
 30
0.0
  0
VERTEX
  5
761
  8
1
  6
CONTINUOUS
 62
     7
 10
-147.1887073681951
 20
80.0001401355774
 30
0.0
  0
VERTEX
  5
762
  8
1
  6
CONTINUOUS
 62
     7
 10
-147.1658257937445
 20
79.99130138663028
 30
0.0
  0
VERTEX
  5
763
  8
1
  6
CONTINUOUS
 62
     7
 10
-147.1425386521249
 20
79.98359474740555
 30
0.0
  0
VERTEX
  5
764
  8
1
  6
CONTINUOUS
 62
     7
 10
-147.1189019821054
 20
79.97703876335564
 30
0.0
  0
VERTEX
  5
765
  8
1
  6
CONTINUOUS
 62
     7
 10
-147.0949726635696
 20
79.97164921096723
 30
0.0
  0
VERTEX
  5
766
  8
1
  6
CONTINUOUS
 62
     7
 10
-147.0708082806378
 20
79.96743905979613
 30
0.0
  0
VERTEX
  5
767
  8
1
  6
CONTINUOUS
 62
     7
 10
-147.0464669830951
 20
79.96441844125715
 30
0.0
  0
VERTEX
  5
768
  8
1
  6
CONTINUOUS
 62
     7
 10
-147.0220073464586
 20
79.96259462424347
 30
0.0
  0
VERTEX
  5
769
  8
1
  6
CONTINUOUS
 62
     7
 10
-146.9974882310195
 20
79.9619719976347
 30
0.0
  0
SEQEND
  5
7E0
  8
1
  6
CONTINUOUS
 62
     7
  0
LINE
  5
294
  8
1
  6
CONTINUOUS
 62
     7
 10
-147.4465875810572
 20
80.51243831360041
 30
0.0
 11
-147.4465787595723
 21
80.50948202162989
 31
0.0
  0
POLYLINE
  5
295
  8
1
  6
CONTINUOUS
 62
     7
 66
     1
 10
0.0
 20
0.0
 30
0.0
  0
VERTEX
  5
76A
  8
1
  6
CONTINUOUS
 62
     7
 10
-147.4465787595723
 20
80.50948202162989
 30
0.0
  0
VERTEX
  5
76B
  8
1
  6
CONTINUOUS
 62
     7
 10
-147.4460719823499
 20
80.48973688419575
 30
0.0
  0
VERTEX
  5
76C
  8
1
  6
CONTINUOUS
 62
     7
 10
-147.4447893818791
 20
80.47002988910614
 30
0.0
  0
VERTEX
  5
76D
  8
1
  6
CONTINUOUS
 62
     7
 10
-147.4427156270763
 20
80.45025415865663
 30
0.0
  0
VERTEX
  5
76E
  8
1
  6
CONTINUOUS
 62
     7
 10
-147.4398631983912
 20
80.43058853050776
 30
0.0
  0
VERTEX
  5
76F
  8
1
  6
CONTINUOUS
 62
     7
 10
-147.4361478643724
 20
80.41063015783722
 30
0.0
  0
VERTEX
  5
770
  8
1
  6
CONTINUOUS
 62
     7
 10
-147.4316352842505
 20
80.39086010894603
 30
0.0
  0
VERTEX
  5
771
  8
1
  6
CONTINUOUS
 62
     7
 10
-147.4262933935632
 20
80.37116883894957
 30
0.0
  0
VERTEX
  5
772
  8
1
  6
CONTINUOUS
 62
     7
 10
-147.4201671007525
 20
80.3517400425413
 30
0.0
  0
VERTEX
  5
773
  8
1
  6
CONTINUOUS
 62
     7
 10
-147.4135349240771
 20
80.33329870166088
 30
0.0
  0
VERTEX
  5
774
  8
1
  6
CONTINUOUS
 62
     7
 10
-147.4062028269038
 20
80.31516169418852
 30
0.0
  0
VERTEX
  5
775
  8
1
  6
CONTINUOUS
 62
     7
 10
-147.3980466323902
 20
80.29706647904098
 30
0.0
  0
VERTEX
  5
776
  8
1
  6
CONTINUOUS
 62
     7
 10
-147.3891933759976
 20
80.27932799515811
 30
0.0
  0
VERTEX
  5
777
  8
1
  6
CONTINUOUS
 62
     7
 10
-147.3796695005636
 20
80.26198664437287
 30
0.0
  0
VERTEX
  5
778
  8
1
  6
CONTINUOUS
 62
     7
 10
-147.3695014489259
 20
80.2450828285181
 30
0.0
  0
VERTEX
  5
779
  8
1
  6
CONTINUOUS
 62
     7
 10
-147.3585085097894
 20
80.22834770704674
 30
0.0
  0
VERTEX
  5
77A
  8
1
  6
CONTINUOUS
 62
     7
 10
-147.3468833533112
 20
80.21209885543104
 30
0.0
  0
VERTEX
  5
77B
  8
1
  6
CONTINUOUS
 62
     7
 10
-147.3346309679335
 20
80.19633858783023
 30
0.0
  0
VERTEX
  5
77C
  8
1
  6
CONTINUOUS
 62
     7
 10
-147.321789475443
 20
80.18110970122545
 30
0.0
  0
VERTEX
  5
77D
  8
1
  6
CONTINUOUS
 62
     7
 10
-147.3082944948819
 20
80.16634120889604
 30
0.0
  0
VERTEX
  5
77E
  8
1
  6
CONTINUOUS
 62
     7
 10
-147.2942499816292
 20
80.15215049549593
 30
0.0
  0
VERTEX
  5
77F
  8
1
  6
CONTINUOUS
 62
     7
 10
-147.2793919805827
 20
80.13829850117173
 30
0.0
  0
VERTEX
  5
780
  8
1
  6
CONTINUOUS
 62
     7
 10
-147.264013704004
 20
80.12508392571688
 30
0.0
  0
VERTEX
  5
781
  8
1
  6
CONTINUOUS
 62
     7
 10
-147.2480383464064
 20
80.11244655804006
 30
0.0
  0
VERTEX
  5
782
  8
1
  6
CONTINUOUS
 62
     7
 10
-147.2315891638488
 20
80.10048836025322
 30
0.0
  0
VERTEX
  5
783
  8
1
  6
CONTINUOUS
 62
     7
 10
-147.2142466659265
 20
80.08894103096026
 30
0.0
  0
VERTEX
  5
784
  8
1
  6
CONTINUOUS
 62
     7
 10
-147.1964630930246
 20
80.0781404396125
 30
0.0
  0
VERTEX
  5
785
  8
1
  6
CONTINUOUS
 62
     7
 10
-147.1781474866457
 20
80.06803857648877
 30
0.0
  0
VERTEX
  5
786
  8
1
  6
CONTINUOUS
 62
     7
 10
-147.159445482146
 20
80.05872182365026
 30
0.0
  0
VERTEX
  5
787
  8
1
  6
CONTINUOUS
 62
     7
 10
-147.1399984232883
 20
80.0500395883449
 30
0.0
  0
VERTEX
  5
788
  8
1
  6
CONTINUOUS
 62
     7
 10
-147.1202140728868
 20
80.04220058538522
 30
0.0
  0
VERTEX
  5
789
  8
1
  6
CONTINUOUS
 62
     7
 10
-147.0999886651395
 20
80.03517280992668
 30
0.0
  0
VERTEX
  5
78A
  8
1
  6
CONTINUOUS
 62
     7
 10
-147.0794893089782
 20
80.02902230543918
 30
0.0
  0
VERTEX
  5
78B
  8
1
  6
CONTINUOUS
 62
     7
 10
-147.0590996134835
 20
80.02384083012355
 30
0.0
  0
VERTEX
  5
78C
  8
1
  6
CONTINUOUS
 62
     7
 10
-147.038503363647
 20
80.01952332145869
 30
0.0
  0
VERTEX
  5
78D
  8
1
  6
CONTINUOUS
 62
     7
 10
-147.0177508589266
 20
80.01608057690298
 30
0.0
  0
VERTEX
  5
78E
  8
1
  6
CONTINUOUS
 62
     7
 10
-146.9965515185143
 20
80.01348704198647
 30
0.0
  0
VERTEX
  5
78F
  8
1
  6
CONTINUOUS
 62
     7
 10
-146.9752442433254
 20
80.01180417577488
 30
0.0
  0
VERTEX
  5
790
  8
1
  6
CONTINUOUS
 62
     7
 10
-146.9538831342594
 20
80.01103766905156
 30
0.0
  0
VERTEX
  5
791
  8
1
  6
CONTINUOUS
 62
     7
 10
-146.9480756521836
 20
80.0109883194098
 30
0.0
  0
SEQEND
  5
7E1
  8
1
  6
CONTINUOUS
 62
     7
  0
LINE
  5
296
  8
1
  6
CONTINUOUS
 62
     9
 10
-146.9480756521836
 20
80.0109883194098
 30
0.0
 11
-146.9970921458487
 21
79.96197182574467
 31
0.0
  0
LINE
  5
297
  8
1
  6
CONTINUOUS
 62
     7
 10
-141.8420958226287
 20
80.01694911049681
 30
0.0
 11
-141.8420958226287
 21
79.97901450041402
 31
0.0
  0
LINE
  5
298
  8
1
  6
CONTINUOUS
 62
     9
 10
-146.7421034378941
 20
80.01694911049681
 30
0.0
 11
-146.9480756521836
 21
80.0109883194098
 31
0.0
  0
LINE
  5
299
  8
1
  6
CONTINUOUS
 62
     7
 10
-146.7421034378941
 20
80.01694911049681
 30
0.0
 11
-141.8420958226287
 21
80.01694911049681
 31
0.0
  0
LINE
  5
29A
  8
1
  6
CONTINUOUS
 62
     9
 10
-147.2420958226292
 20
82.5621712646755
 30
0.0
 11
-147.4464174379077
 21
82.60256898416102
 31
0.0
  0
LINE
  5
29B
  8
1
  6
CONTINUOUS
 62
     7
 10
-147.2027358320966
 20
80.32250647814682
 30
0.0
 11
-147.219341975799
 21
80.36784119500795
 31
0.0
  0
LINE
  5
29C
  8
1
  6
CONTINUOUS
 62
     7
 10
-147.219341975799
 20
80.36784119500795
 30
0.0
 11
-147.2420958226287
 21
80.51696814968967
 31
0.0
  0
LINE
  5
29D
  8
1
  6
CONTINUOUS
 62
     9
 10
-147.4465787595723
 20
80.50948202162989
 30
0.0
 11
-147.2420958226287
 21
80.51696814968967
 31
0.0
  0
POLYLINE
  5
29E
  8
1
  6
CONTINUOUS
 62
     7
 66
     1
 10
0.0
 20
0.0
 30
0.0
  0
VERTEX
  5
792
  8
1
  6
CONTINUOUS
 62
     7
 10
-146.7421034378941
 20
80.01694911049681
 30
0.0
  0
VERTEX
  5
793
  8
1
  6
CONTINUOUS
 62
     7
 10
-146.7627904725195
 20
80.01737725874466
 30
0.0
  0
VERTEX
  5
794
  8
1
  6
CONTINUOUS
 62
     7
 10
-146.783477507145
 20
80.01866391261267
 30
0.0
  0
VERTEX
  5
795
  8
1
  6
CONTINUOUS
 62
     7
 10
-146.8042005584837
 20
80.02082026086214
 30
0.0
  0
VERTEX
  5
796
  8
1
  6
CONTINUOUS
 62
     7
 10
-146.824851576396
 20
80.02384411252328
 30
0.0
  0
VERTEX
  5
797
  8
1
  6
CONTINUOUS
 62
     7
 10
-146.8457656831001
 20
80.02781333896533
 30
0.0
  0
VERTEX
  5
798
  8
1
  6
CONTINUOUS
 62
     7
 10
-146.8665293789162
 20
80.03267885098593
 30
0.0
  0
VERTEX
  5
799
  8
1
  6
CONTINUOUS
 62
     7
 10
-146.8871793036689
 20
80.03845951917289
 30
0.0
  0
VERTEX
  5
79A
  8
1
  6
CONTINUOUS
 62
     7
 10
-146.9075997148979
 20
80.04513343043988
 30
0.0
  0
VERTEX
  5
79B
  8
1
  6
CONTINUOUS
 62
     7
 10
-146.9269788814418
 20
80.05238495601138
 30
0.0
  0
VERTEX
  5
79C
  8
1
  6
CONTINUOUS
 62
     7
 10
-146.9460738739999
 20
80.06044660562281
 30
0.0
  0
VERTEX
  5
79D
  8
1
  6
CONTINUOUS
 62
     7
 10
-146.9650670280651
 20
80.06941679894702
 30
0.0
  0
VERTEX
  5
79E
  8
1
  6
CONTINUOUS
 62
     7
 10
-146.9836668326255
 20
80.07917648850719
 30
0.0
  0
VERTEX
  5
79F
  8
1
  6
CONTINUOUS
 62
     7
 10
-147.0019684143103
 20
80.0897871818779
 30
0.0
  0
VERTEX
  5
7A0
  8
1
  6
CONTINUOUS
 62
     7
 10
-147.0198049715911
 20
80.10116223930498
 30
0.0
  0
VERTEX
  5
7A1
  8
1
  6
CONTINUOUS
 62
     7
 10
-147.0373773948043
 20
80.11345231701277
 30
0.0
  0
VERTEX
  5
7A2
  8
1
  6
CONTINUOUS
 62
     7
 10
-147.0544375758649
 20
80.12650930909169
 30
0.0
  0
VERTEX
  5
7A3
  8
1
  6
CONTINUOUS
 62
     7
 10
-147.0703239702789
 20
80.1397666440329
 30
0.0
  0
VERTEX
  5
7A4
  8
1
  6
CONTINUOUS
 62
     7
 10
-147.0856740661817
 20
80.15369435610751
 30
0.0
  0
VERTEX
  5
7A5
  8
1
  6
CONTINUOUS
 62
     7
 10
-147.10062733654
 20
80.16844565588407
 30
0.0
  0
VERTEX
  5
7A6
  8
1
  6
CONTINUOUS
 62
     7
 10
-147.1149481278747
 20
80.18381172495285
 30
0.0
  0
VERTEX
  5
7A7
  8
1
  6
CONTINUOUS
 62
     7
 10
-147.1287058438695
 20
80.19988207950841
 30
0.0
  0
VERTEX
  5
7A8
  8
1
  6
CONTINUOUS
 62
     7
 10
-147.1417717786199
 20
80.21651975959124
 30
0.0
  0
VERTEX
  5
7A9
  8
1
  6
CONTINUOUS
 62
     7
 10
-147.1542856242043
 20
80.23393340107576
 30
0.0
  0
VERTEX
  5
7AA
  8
1
  6
CONTINUOUS
 62
     7
 10
-147.1660623028295
 20
80.25190113925248
 30
0.0
  0
VERTEX
  5
7AB
  8
1
  6
CONTINUOUS
 62
     7
 10
-147.1766655261726
 20
80.26967012778704
 30
0.0
  0
VERTEX
  5
7AC
  8
1
  6
CONTINUOUS
 62
     7
 10
-147.1865407855413
 20
80.28789419765008
 30
0.0
  0
VERTEX
  5
7AD
  8
1
  6
CONTINUOUS
 62
     7
 10
-147.195697694792
 20
80.30660981149515
 30
0.0
  0
VERTEX
  5
7AE
  8
1
  6
CONTINUOUS
 62
     7
 10
-147.2027358320966
 20
80.32250647814682
 30
0.0
  0
SEQEND
  5
7E2
  8
1
  6
CONTINUOUS
 62
     7
  0
LINE
  5
29F
  8
1
  6
CONTINUOUS
 62
     7
 10
-138.841184840019
 20
93.90185179325753
 30
0.0
 11
-139.294440394722
 21
102.9669628864079
 31
0.0
  0
LINE
  5
2A0
  8
1
  6
CONTINUOUS
 62
     7
 10
-169.3894465812926
 20
102.9669628518471
 30
0.0
 11
-169.8427021342903
 21
93.90185179325753
 31
0.0
  0
LINE
  5
2A1
  8
1
  6
CONTINUOUS
 62
     7
 10
-156.036537065846
 20
103.9017798848566
 30
0.0
 11
-156.0402139058092
 21
103.9016136058328
 31
0.0
  0
LINE
  5
2A2
  8
1
  6
CONTINUOUS
 62
     7
 10
-150.4792422077097
 20
95.91702542643031
 30
0.0
 11
-150.4791342520528
 21
95.91702542643031
 31
0.0
  0
LINE
  5
2A3
  8
1
  6
CONTINUOUS
 62
     7
 10
-148.7484480733793
 20
103.901446469064
 30
0.0
 11
-148.7540709947206
 21
103.9027237440829
 31
0.0
  0
LINE
  5
2A4
  8
1
  6
CONTINUOUS
 62
     7
 10
-148.7540709947206
 20
103.9027237440829
 30
0.0
 11
-148.845915415384
 21
103.912181990849
 31
0.0
  0
LINE
  5
2A5
  8
1
  6
CONTINUOUS
 62
     7
 10
-159.8383330844012
 20
103.9121888624613
 30
0.0
 11
-159.9300973619309
 21
103.9026457776523
 31
0.0
  0
LINE
  5
2A6
  8
1
  6
CONTINUOUS
 62
     7
 10
-159.9300973619309
 20
103.9026457776523
 30
0.0
 11
-159.9354960693455
 21
103.9014161873787
 31
0.0
  0
LINE
  5
2A7
  8
1
  6
CONTINUOUS
 62
     7
 10
-142.9563749037043
 20
103.9008747918519
 30
0.0
 11
-142.964396269443
 21
103.9023301698888
 31
0.0
  0
LINE
  5
2A8
  8
1
  6
CONTINUOUS
 62
     7
 10
-142.964396269443
 20
103.9023301698888
 30
0.0
 11
-143.0931738610522
 21
103.9134896466037
 31
0.0
  0
LINE
  5
2A9
  8
1
  6
CONTINUOUS
 62
     7
 10
-165.5907763550601
 20
103.9134486861902
 30
0.0
 11
-165.7210193317733
 21
103.9019954511098
 31
0.0
  0
LINE
  5
2AA
  8
1
  6
CONTINUOUS
 62
     7
 10
-165.7210193317733
 20
103.9019954511098
 30
0.0
 11
-165.7273793566878
 21
103.9008362098195
 31
0.0
  0
LINE
  5
2AB
  8
1
  6
CONTINUOUS
 62
     7
 10
-167.4113556310765
 20
103.9030442692836
 30
0.0
 11
-167.4429926663096
 21
103.8971929967112
 31
0.0
  0
LINE
  5
2AC
  8
1
  6
CONTINUOUS
 62
     7
 10
-141.2377603475222
 20
103.8964513334787
 30
0.0
 11
-141.2730877120799
 21
103.9030285608152
 31
0.0
  0
LINE
  5
2AD
  8
1
  6
CONTINUOUS
 62
     7
 10
-140.1890522947101
 20
103.8954776281234
 30
0.0
 11
-140.3576533134395
 21
103.913421177977
 31
0.0
  0
LINE
  5
2AE
  8
1
  6
CONTINUOUS
 62
     7
 10
-168.3261766079929
 20
103.9133588219633
 30
0.0
 11
-168.4953110269778
 21
103.8952871739622
 31
0.0
  0
ARC
  5
2AF
  8
1
  6
CONTINUOUS
 62
     7
 10
-168.3906942922608
 20
102.9170252701678
 30
0.0
 40
0.9999999999999176
 50
90.0000000000003
 51
177.1375694219896
  0
LINE
  5
2B0
  8
1
  6
CONTINUOUS
 62
     7
 10
-168.3261263704761
 20
103.9134222128177
 30
0.0
 11
-168.4948256669972
 21
103.8954795197523
 31
0.0
  0
ARC
  5
2B1
  8
1
  6
CONTINUOUS
 62
     7
 10
-161.9420958226287
 20
82.56217126467538
 30
0.0
 40
0.5000000000000013
 50
0.0
 51
98.94901806532921
  0
LINE
  5
2B2
  8
1
  6
CONTINUOUS
 62
     7
 10
-161.4405619158365
 20
80.51627083294889
 30
0.0
 11
-161.4714728922897
 21
80.34785666871015
 31
0.0
  0
LINE
  5
2B3
  8
1
  6
CONTINUOUS
 62
     7
 10
-161.4714728922897
 20
80.34785666871015
 30
0.0
 11
-161.4861102724618
 21
80.3118414191622
 31
0.0
  0
LINE
  5
2B4
  8
1
  6
CONTINUOUS
 62
     7
 10
-161.4861102724618
 20
80.3118414191622
 30
0.0
 11
-161.4939419884999
 21
80.29527530817373
 31
0.0
  0
LINE
  5
2B5
  8
1
  6
CONTINUOUS
 62
     7
 10
-161.4420958226287
 20
82.56217126467538
 30
0.0
 11
-161.4420958226287
 21
80.51696814968967
 31
0.0
  0
LINE
  5
2B6
  8
1
  6
CONTINUOUS
 62
     7
 10
-161.4412796535805
 20
80.51645937599181
 30
0.0
 11
-161.4647714855461
 21
80.36781214675786
 31
0.0
  0
LINE
  5
2B7
  8
1
  6
CONTINUOUS
 62
     7
 10
-161.4647714855461
 20
80.36781214675786
 30
0.0
 11
-161.4778117777108
 21
80.33134668804873
 31
0.0
  0
LINE
  5
2B8
  8
1
  6
CONTINUOUS
 62
     7
 10
-161.4778117777108
 20
80.33134668804873
 30
0.0
 11
-161.4814555795919
 21
80.32250698906348
 31
0.0
  0
ARC
  5
2B9
  8
1
  6
CONTINUOUS
 62
     7
 10
-146.7420958226287
 20
82.56217126467538
 30
0.0
 40
0.5000000000000004
 50
81.05098193467092
 51
180.0
  0
LINE
  5
2BA
  8
1
  6
CONTINUOUS
 62
     7
 10
-147.2027360683701
 20
80.3225069954536
 30
0.0
 11
-147.2063830661184
 21
80.3313546600563
 31
0.0
  0
LINE
  5
2BB
  8
1
  6
CONTINUOUS
 62
     7
 10
-147.2063830661184
 20
80.3313546600563
 30
0.0
 11
-147.2194214103964
 21
80.36781611520513
 31
0.0
  0
LINE
  5
2BC
  8
1
  6
CONTINUOUS
 62
     7
 10
-147.2194214103964
 20
80.36781611520513
 30
0.0
 11
-147.2429119916768
 21
80.51645937599181
 31
0.0
  0
LINE
  5
2BD
  8
1
  6
CONTINUOUS
 62
     7
 10
-147.2420958226287
 20
80.51696814968967
 30
0.0
 11
-147.2420958226287
 21
82.56217126467538
 31
0.0
  0
LINE
  5
2BE
  8
1
  6
CONTINUOUS
 62
     7
 10
-147.1902496567588
 20
80.29527530817641
 30
0.0
 11
-147.2060182649319
 21
80.33039665548661
 31
0.0
  0
ENDBLK
  8
0
  0
BLOCK
  8
0
  2
D_FRAME_VIEW_2626
 70
     0
 10
0.0
 20
0.0
 30
0.0
  0
LINE
  5
2C3
  8
1
  6
CONTINUOUS
 62
     9
 10
-140.293192731711
 20
156.1785043936972
 30
0.0
 11
-139.2944403928332
 21
156.1785043936972
 31
0.0
  0
LINE
  5
2C4
  8
1
  6
CONTINUOUS
 62
     9
 10
-139.2944403945923
 20
156.1785043819679
 30
0.0
 11
-139.4097688892182
 21
154.3190659997108
 31
0.0
  0
LINE
  5
2C5
  8
1
  6
CONTINUOUS
 62
     7
 10
-139.4097688887224
 20
154.3190659996455
 30
0.0
 11
-140.3922460590525
 21
154.5131642603982
 31
0.0
  0
LINE
  5
2C6
  8
1
  6
CONTINUOUS
 62
     9
 10
-140.3922454389727
 20
154.5131642317984
 30
0.0
 11
-140.2931914612498
 21
156.1785043936972
 31
0.0
  0
ARC
  5
2C7
  8
1
  6
CONTINUOUS
 62
     9
 10
-154.3419520273202
 20
156.1785066754329
 30
0.0
 40
14.02377325029561
 50
336.7993301183812
 51
353.1999214440759
  0
ARC
  5
2C8
  8
1
  6
CONTINUOUS
 62
     9
 10
-154.3419435119871
 20
156.1785043936993
 30
0.0
 40
14.04875078031845
 50
113.1921460333639
 51
126.8072379019292
  0
ARC
  5
2C9
  8
1
  6
CONTINUOUS
 62
     9
 10
-154.3419412304281
 20
156.1784958785943
 30
0.0
 40
14.02376435371076
 50
96.79933645283953
 51
113.1999277540201
  0
ARC
  5
2CA
  8
1
  6
CONTINUOUS
 62
     9
 10
-154.3419435119858
 20
156.1785043936976
 30
0.0
 40
14.04875146281952
 50
83.19214949318746
 51
96.80723849608951
  0
ARC
  5
2CB
  8
1
  6
CONTINUOUS
 62
     9
 10
-154.3419457936627
 20
156.1784958785784
 30
0.0
 40
14.02376448766017
 50
66.79934044320781
 51
83.19993803174322
  0
ARC
  5
2CC
  8
1
  6
CONTINUOUS
 62
     9
 10
-154.3419435119847
 20
156.1785043936991
 30
0.0
 40
14.04875078028207
 50
53.19214901881786
 51
66.80723616884175
  0
ARC
  5
2CD
  8
1
  6
CONTINUOUS
 62
     9
 10
-154.3419497456256
 20
156.1784981601364
 30
0.0
 40
14.0237726995372
 50
36.79934258604337
 51
53.19993713031673
  0
ARC
  5
2CE
  8
1
  6
CONTINUOUS
 62
     9
 10
-154.3419435119847
 20
156.1785043936979
 30
0.0
 40
14.04875078027971
 50
23.19214644144125
 51
36.80723863562124
  0
ARC
  5
2CF
  8
1
  6
CONTINUOUS
 62
     9
 10
-154.3419520274672
 20
156.1785021120384
 30
0.0
 40
14.02377338438926
 50
6.79933666035542
 51
23.19992823182855
  0
LINE
  5
2D0
  8
1
  6
CONTINUOUS
 62
     9
 10
-140.2931927317007
 20
156.1785043936972
 30
0.0
 11
-140.3922288125618
 21
157.8436945603853
 31
0.0
  0
ARC
  5
2D1
  8
1
  6
CONTINUOUS
 62
     9
 10
-154.3419435119845
 20
156.1785043936964
 30
0.0
 40
14.04875078027411
 50
323.1921494962237
 51
336.8072379233171
  0
ARC
  5
2D2
  8
1
  6
CONTINUOUS
 62
     9
 10
-154.3419497454455
 20
156.1785106272355
 30
0.0
 40
14.02376977855066
 50
306.7993443395242
 51
323.1999419283997
  0
ARC
  5
2D3
  8
1
  6
CONTINUOUS
 62
     9
 10
-154.3419435119846
 20
156.178504393695
 30
0.0
 40
14.04875078027377
 50
293.1921479893786
 51
306.8072361708678
  0
ARC
  5
2D4
  8
1
  6
CONTINUOUS
 62
     9
 10
-154.3419457935905
 20
156.1785129089826
 30
0.0
 40
14.02377046332544
 50
276.7993409392408
 51
293.199935315164
  0
ARC
  5
2D5
  8
1
  6
CONTINUOUS
 62
     9
 10
-154.3419435119859
 20
156.1785043936966
 30
0.0
 40
14.04875078028728
 50
263.1921458934461
 51
276.8072383741325
  0
ARC
  5
2D6
  8
1
  6
CONTINUOUS
 62
     9
 10
-154.341941230261
 20
156.1785129089957
 30
0.0
 40
14.02377032942481
 50
246.7993344106007
 51
263.1999259624509
  0
ARC
  5
2D7
  8
1
  6
CONTINUOUS
 62
     9
 10
-154.341943511986
 20
156.1785043936968
 30
0.0
 40
14.04875078032723
 50
233.1921463421457
 51
246.8072383579774
  0
ARC
  5
2D8
  8
1
  6
CONTINUOUS
 62
     9
 10
-154.3419372784148
 20
156.1785106271898
 30
0.0
 40
14.02376795912182
 50
216.7993262220325
 51
233.1999175736276
  0
ARC
  5
2D9
  8
1
  6
CONTINUOUS
 62
     9
 10
-154.3419435119863
 20
156.1785043936969
 30
0.0
 40
14.04875078027994
 50
203.1921494949466
 51
216.8072384864117
  0
ARC
  5
2DA
  8
1
  6
CONTINUOUS
 62
     9
 10
-154.341934996599
 20
156.1785066753299
 30
0.0
 40
14.02376727465435
 50
186.7993296096259
 51
203.1999271979771
  0
ARC
  5
2DB
  8
1
  6
CONTINUOUS
 62
     9
 10
-154.3419435119872
 20
156.1785043936972
 30
0.0
 40
14.04875102858409
 50
173.1921499891724
 51
186.8072361696405
  0
ARC
  5
2DC
  8
1
  6
CONTINUOUS
 62
     9
 10
-154.3419349963392
 20
156.1785021118786
 30
0.0
 40
14.02376740884761
 50
156.7993386900717
 51
173.1999333928406
  0
ARC
  5
2DD
  8
1
  6
CONTINUOUS
 62
     9
 10
-154.3419435119875
 20
156.1785043936981
 30
0.0
 40
14.04875121035321
 50
143.1921462238922
 51
156.8072390505203
  0
ARC
  5
2DE
  8
1
  6
CONTINUOUS
 62
     9
 10
-154.34193727839
 20
156.1784981600237
 30
0.0
 40
14.02376503843887
 50
126.7993305141318
 51
143.1999220502214
  0
CIRCLE
  5
2DF
  8
1
  6
CONTINUOUS
 62
     7
 10
-154.341943511986
 20
156.1785043936972
 30
0.0
 40
12.0585
  0
LINE
  5
2E0
  8
1
  6
CONTINUOUS
 62
     7
 10
-148.4861770863753
 20
142.3171426391797
 30
0.0
 11
-148.8093214401391
 21
143.2650427126042
 31
0.0
  0
LINE
  5
2E1
  8
1
  6
CONTINUOUS
 62
     7
 10
-145.9249895956456
 20
144.9302918386877
 30
0.0
 11
-145.2655353143333
 21
144.1765810332315
 31
0.0
  0
ARC
  5
2E2
  8
1
  6
CONTINUOUS
 62
     9
 10
-154.3419434716866
 20
156.178504355204
 30
0.0
 40
15.047503061879
 50
292.9017466015191
 51
307.0982532801852
  0
LINE
  5
2E3
  8
1
  6
CONTINUOUS
 62
     7
 10
-145.2655353143333
 20
168.1804277541629
 30
0.0
 11
-145.9248688833772
 21
167.4266266492261
 31
0.0
  0
LINE
  5
2E4
  8
1
  6
CONTINUOUS
 62
     7
 10
-148.8091826498938
 20
169.0919065850398
 30
0.0
 11
-148.4861770863754
 21
170.0398661482147
 31
0.0
  0
ARC
  5
2E5
  8
1
  6
CONTINUOUS
 62
     9
 10
-154.3419434794136
 20
156.1785043953481
 30
0.0
 40
15.04750307732831
 50
52.90174678096412
 51
67.09825342596935
  0
LINE
  5
2E6
  8
1
  6
CONTINUOUS
 62
     7
 10
-142.3400201515202
 20
147.1020961960445
 30
0.0
 11
-143.0938211863211
 21
147.7614298588148
 31
0.0
  0
LINE
  5
2E7
  8
1
  6
CONTINUOUS
 62
     7
 10
-141.4285411512194
 20
150.6457439270393
 30
0.0
 11
-140.4805817574865
 21
150.3227379680928
 31
0.0
  0
ARC
  5
2E8
  8
1
  6
CONTINUOUS
 62
     9
 10
-154.3419434603745
 20
156.1785043665156
 30
0.0
 40
15.04750306187864
 50
322.9017466498468
 51
337.0982533330109
  0
LINE
  5
2E9
  8
1
  6
CONTINUOUS
 62
     7
 10
-165.5901557268346
 20
147.7615500227726
 30
0.0
 11
-166.3438668724517
 21
147.1020961960446
 31
0.0
  0
ARC
  5
2EA
  8
1
  6
CONTINUOUS
 62
     9
 10
-154.3419435005204
 20
156.1785043742419
 30
0.0
 40
15.04750307732657
 50
202.901746600603
 51
217.0982532287474
  0
LINE
  5
2EB
  8
1
  6
CONTINUOUS
 62
     7
 10
-168.2033052665034
 20
150.3227379680867
 30
0.0
 11
-167.255405047699
 21
150.6458819825296
 31
0.0
  0
LINE
  5
2EC
  8
1
  6
CONTINUOUS
 62
     7
 10
-152.4825051179342
 20
171.1106790169607
 30
0.0
 11
-152.6766042403025
 21
170.128201655063
 31
0.0
  0
LINE
  5
2ED
  8
1
  6
CONTINUOUS
 62
     7
 10
-156.0071337781821
 20
170.1282194307629
 30
0.0
 11
-156.2013819060377
 21
171.1106790169607
 31
0.0
  0
ARC
  5
2EE
  8
1
  6
CONTINUOUS
 62
     9
 10
-154.3419434871387
 20
156.1785044128723
 30
0.0
 40
15.04750306290191
 50
82.90174677098487
 51
97.09825341707416
  0
LINE
  5
2EF
  8
1
  6
CONTINUOUS
 62
     7
 10
-156.2013819060378
 20
141.2463297704337
 30
0.0
 11
-156.0072834929032
 21
142.2288075511716
 31
0.0
  0
LINE
  5
2F0
  8
1
  6
CONTINUOUS
 62
     7
 10
-152.6767533390303
 20
142.2287896797546
 30
0.0
 11
-152.4825051179343
 21
141.2463297704337
 31
0.0
  0
ARC
  5
2F1
  8
1
  6
CONTINUOUS
 62
     9
 10
-154.3419434871387
 20
156.1785043356122
 30
0.0
 40
15.04750304745546
 50
262.9017465646264
 51
277.0982532476114
  0
LINE
  5
2F2
  8
1
  6
CONTINUOUS
 62
     7
 10
-140.4805817574684
 20
162.0342708193078
 30
0.0
 11
-141.428481681418
 21
161.7111261166586
 31
0.0
  0
LINE
  5
2F3
  8
1
  6
CONTINUOUS
 62
     7
 10
-143.0937313190555
 20
164.5954587939132
 30
0.0
 11
-142.3400201515202
 21
165.2549125913499
 31
0.0
  0
ARC
  5
2F4
  8
1
  6
CONTINUOUS
 62
     9
 10
-154.3419434603753
 20
156.1785043974197
 30
0.0
 40
15.04750306187953
 50
22.90174674925061
 51
37.09825342139663
  0
LINE
  5
2F5
  8
1
  6
CONTINUOUS
 62
     7
 10
-160.1977099375966
 20
170.0398661482147
 30
0.0
 11
-159.8745651429761
 21
169.0919662636682
 31
0.0
  0
LINE
  5
2F6
  8
1
  6
CONTINUOUS
 62
     7
 10
-162.7588977681704
 20
167.4267166944037
 30
0.0
 11
-163.4183517096386
 21
168.1804277541628
 31
0.0
  0
ARC
  5
2F7
  8
1
  6
CONTINUOUS
 62
     9
 10
-154.3419434948645
 20
156.1785043953492
 30
0.0
 40
15.04750307732695
 50
112.9017467483341
 51
127.0982533699588
  0
LINE
  5
2F8
  8
1
  6
CONTINUOUS
 62
     7
 10
-159.8747038806862
 20
143.2651019909597
 30
0.0
 11
-160.1977099375966
 21
142.3171426391798
 31
0.0
  0
ARC
  5
2F9
  8
1
  6
CONTINUOUS
 62
     9
 10
-154.3419435025906
 20
156.1785043552043
 30
0.0
 40
15.04750306443724
 50
232.9017465688921
 51
247.0982532241757
  0
LINE
  5
2FA
  8
1
  6
CONTINUOUS
 62
     7
 10
-163.4183517096386
 20
144.1765810332316
 30
0.0
 11
-162.7590186660708
 21
144.9303825313874
 31
0.0
  0
LINE
  5
2FB
  8
1
  6
CONTINUOUS
 62
     9
 10
-169.3894465814471
 20
156.1785043936973
 30
0.0
 11
-169.2741180846995
 21
158.0379427813732
 31
0.0
  0
LINE
  5
2FC
  8
1
  6
CONTINUOUS
 62
     7
 10
-169.2741181352494
 20
158.0379427877489
 30
0.0
 11
-168.291640575253
 21
157.843843503092
 31
0.0
  0
LINE
  5
2FD
  8
1
  6
CONTINUOUS
 62
     7
 10
-168.2916584041158
 20
154.513314735267
 30
0.0
 11
-169.2741181352494
 21
154.3190659996455
 31
0.0
  0
LINE
  5
2FE
  8
1
  6
CONTINUOUS
 62
     9
 10
-169.2741180874533
 20
154.3190660055973
 30
0.0
 11
-169.3894465813334
 21
156.1785043936973
 31
0.0
  0
LINE
  5
2FF
  8
1
  6
CONTINUOUS
 62
     7
 10
-140.3922287975103
 20
157.8436945621835
 30
0.0
 11
-139.4097688887224
 21
158.037942787749
 31
0.0
  0
LINE
  5
300
  8
1
  6
CONTINUOUS
 62
     9
 10
-139.4097688898954
 20
158.0379427876029
 30
0.0
 11
-139.2944403923754
 21
156.1785043819679
 31
0.0
  0
LINE
  5
301
  8
1
  6
CONTINUOUS
 62
     7
 10
-166.3438668724516
 20
165.2549125913499
 30
0.0
 11
-165.5900655041354
 21
164.5955796989895
 31
0.0
  0
LINE
  5
302
  8
1
  6
CONTINUOUS
 62
     7
 10
-167.2553461771993
 20
161.711264673747
 30
0.0
 11
-168.2033052664852
 21
162.0342708193016
 31
0.0
  0
ARC
  5
303
  8
1
  6
CONTINUOUS
 62
     9
 10
-154.3419435005218
 20
156.1785043896946
 30
0.0
 40
15.04750307732495
 50
142.9017467000076
 51
157.0982533170945
  0
LINE
  5
304
  8
1
  6
CONTINUOUS
 62
     9
 10
-160.2686905041173
 20
142.0472966897018
 30
0.0
 11
-160.1977099276846
 21
142.3171426626429
 31
0.0
  0
LINE
  5
305
  8
1
  6
CONTINUOUS
 62
     9
 10
-156.2748339079151
 20
140.9771460325804
 30
0.0
 11
-156.3800508032825
 21
140.9594373329758
 31
0.0
  0
ARC
  5
306
  8
1
  6
CONTINUOUS
 62
     9
 10
-155.7828114839205
 20
150.7054365498275
 30
0.0
 40
9.764281619221418
 50
242.754060062358
 51
266.4932734609038
  0
LINE
  5
307
  8
1
  6
CONTINUOUS
 62
     9
 10
-160.2530062050657
 20
142.0245060297443
 30
0.0
 11
-160.2686905041173
 21
142.0472966897018
 31
0.0
  0
LINE
  5
308
  8
1
  6
CONTINUOUS
 62
     9
 10
-156.2013819038088
 20
141.2463297883327
 30
0.0
 11
-156.2748339079151
 21
140.9771460325804
 31
0.0
  0
LINE
  5
309
  8
1
  6
CONTINUOUS
 62
     9
 10
-152.4090531152661
 20
140.9771460263621
 30
0.0
 11
-152.4825051194044
 21
141.246329782239
 31
0.0
  0
LINE
  5
30A
  8
1
  6
CONTINUOUS
 62
     9
 10
-148.4151965124208
 20
142.0472966719774
 30
0.0
 11
-148.497067209102
 21
141.9796009907772
 31
0.0
  0
ARC
  5
30B
  8
1
  6
CONTINUOUS
 62
     9
 10
-152.8534153440757
 20
150.7180810703537
 30
0.0
 40
9.764159112501394
 50
272.7559292118918
 51
296.4973883765141
  0
LINE
  5
30C
  8
1
  6
CONTINUOUS
 62
     9
 10
-152.3839399925426
 20
140.9652150265414
 30
0.0
 11
-152.4090531152661
 21
140.9771460263621
 31
0.0
  0
LINE
  5
30D
  8
1
  6
CONTINUOUS
 62
     9
 10
-148.4861770887617
 20
142.3171426448285
 30
0.0
 11
-148.4151965124208
 21
142.0472966719773
 31
0.0
  0
LINE
  5
30E
  8
1
  6
CONTINUOUS
 62
     9
 10
-145.067332136214
 20
143.9801870662672
 30
0.0
 11
-145.2655353156986
 21
144.1765810350369
 31
0.0
  0
LINE
  5
30F
  8
1
  6
CONTINUOUS
 62
     9
 10
-142.1436261825636
 20
146.9038930164104
 30
0.0
 11
-142.1804874553433
 21
146.8046882974071
 31
0.0
  0
ARC
  5
310
  8
1
  6
CONTINUOUS
 62
     9
 10
-150.3227567372028
 20
152.1937779622582
 30
0.0
 40
9.764160817710748
 50
302.7576520111686
 51
326.5007868689938
  0
LINE
  5
311
  8
1
  6
CONTINUOUS
 62
     9
 10
-145.0394983067288
 20
143.9824433063729
 30
0.0
 11
-145.067332136214
 21
143.9801870662672
 31
0.0
  0
LINE
  5
312
  8
1
  6
CONTINUOUS
 62
     9
 10
-142.3400201512915
 20
147.1020961958715
 30
0.0
 11
-142.1436261825636
 21
146.9038930164105
 31
0.0
  0
LINE
  5
313
  8
1
  6
CONTINUOUS
 62
     9
 10
-140.2107357837892
 20
150.2517573914156
 30
0.0
 11
-140.4805817567429
 21
150.3227379677741
 31
0.0
  0
LINE
  5
314
  8
1
  6
CONTINUOUS
 62
     9
 10
-139.140585133383
 20
154.2456139955447
 30
0.0
 11
-139.1229232424796
 21
154.1416632515926
 31
0.0
  0
ARC
  5
315
  8
1
  6
CONTINUOUS
 62
     9
 10
-148.8688216419868
 20
154.737009225617
 30
0.0
 40
9.764065364503914
 50
332.7593908019121
 51
356.5043266706957
  0
LINE
  5
316
  8
1
  6
CONTINUOUS
 62
     9
 10
-140.1876675276002
 20
150.26772117442
 30
0.0
 11
-140.2107357837893
 21
150.2517573914156
 31
0.0
  0
LINE
  5
317
  8
1
  6
CONTINUOUS
 62
     9
 10
-139.4097688892187
 20
154.3190659997073
 30
0.0
 11
-139.140585133383
 21
154.2456139955448
 31
0.0
  0
LINE
  5
318
  8
1
  6
CONTINUOUS
 62
     9
 10
-139.1405851363184
 20
158.1113947914765
 30
0.0
 11
-139.4097688920953
 21
158.037942787329
 31
0.0
  0
LINE
  5
319
  8
1
  6
CONTINUOUS
 62
     9
 10
-140.2107357921562
 20
162.1052513924696
 30
0.0
 11
-140.1427908063767
 21
162.0229845963356
 31
0.0
  0
ARC
  5
31A
  8
1
  6
CONTINUOUS
 62
     9
 10
-148.8816944662376
 20
157.6672099060588
 30
0.0
 40
9.76428237653879
 50
2.754060700273271
 51
26.49326799760735
  0
LINE
  5
31B
  8
1
  6
CONTINUOUS
 62
     9
 10
-139.1286899955662
 20
158.136373122701
 30
0.0
 11
-139.1405851363184
 21
158.1113947914765
 31
0.0
  0
LINE
  5
31C
  8
1
  6
CONTINUOUS
 62
     9
 10
-140.4805817650978
 20
162.0342708160848
 30
0.0
 11
-140.2107357921562
 21
162.1052513924696
 31
0.0
  0
LINE
  5
31D
  8
1
  6
CONTINUOUS
 62
     9
 10
-142.143626193866
 20
165.4531157623906
 30
0.0
 11
-142.3400201625774
 21
165.2549125829879
 31
0.0
  0
LINE
  5
31E
  8
1
  6
CONTINUOUS
 62
     9
 10
-145.0673321475165
 20
168.376821706262
 30
0.0
 11
-144.9677525046376
 21
168.3397606984026
 31
0.0
  0
ARC
  5
31F
  8
1
  6
CONTINUOUS
 62
     9
 10
-150.3574241018784
 20
160.1977526465908
 30
0.0
 40
9.764264183330612
 50
32.75599570402505
 51
56.49709332107584
  0
LINE
  5
320
  8
1
  6
CONTINUOUS
 62
     9
 10
-142.1458497922534
 20
165.4808296287461
 30
0.0
 11
-142.143626193866
 21
165.4531157623906
 31
0.0
  0
LINE
  5
321
  8
1
  6
CONTINUOUS
 62
     9
 10
-145.2655353269846
 20
168.1804277374339
 30
0.0
 11
-145.0673321475165
 21
168.376821706262
 31
0.0
  0
LINE
  5
322
  8
1
  6
CONTINUOUS
 62
     9
 10
-148.4151965207659
 20
170.30971209552
 30
0.0
 11
-148.4861770971269
 21
170.0398661227645
 31
0.0
  0
LINE
  5
323
  8
1
  6
CONTINUOUS
 62
     9
 10
-152.4090531181943
 20
171.3798627380033
 30
0.0
 11
-152.3047086751264
 21
171.3975422992664
 31
0.0
  0
ARC
  5
324
  8
1
  6
CONTINUOUS
 62
     9
 10
-152.9006625665567
 20
161.6515854322939
 30
0.0
 40
9.76416080846681
 50
62.75765215552048
 51
86.50078698721315
  0
LINE
  5
325
  8
1
  6
CONTINUOUS
 62
     9
 10
-148.4310673969242
 20
170.3326887788275
 30
0.0
 11
-148.4151965207659
 21
170.30971209552
 31
0.0
  0
LINE
  5
326
  8
1
  6
CONTINUOUS
 62
     9
 10
-152.4825051222669
 20
171.1106789821678
 30
0.0
 11
-152.4090531181943
 21
171.3798627380033
 31
0.0
  0
LINE
  5
327
  8
1
  6
CONTINUOUS
 62
     9
 10
-156.2748339049869
 20
171.379862731785
 30
0.0
 11
-156.2013819009463
 21
171.110678976074
 31
0.0
  0
LINE
  5
328
  8
1
  6
CONTINUOUS
 62
     9
 10
-160.2686904957723
 20
170.3097120777954
 30
0.0
 11
-160.1874958382028
 21
170.3769835331387
 31
0.0
  0
ARC
  5
329
  8
1
  6
CONTINUOUS
 62
     9
 10
-155.8301365918255
 20
161.6391286836003
 30
0.0
 40
9.764050746160153
 50
92.75937485160011
 51
116.5043352463888
  0
LINE
  5
32A
  8
1
  6
CONTINUOUS
 62
     9
 10
-156.30019324108
 20
171.3918582358888
 30
0.0
 11
-156.2748339049869
 21
171.379862731785
 31
0.0
  0
LINE
  5
32B
  8
1
  6
CONTINUOUS
 62
     9
 10
-160.1977099193193
 20
170.0398661049501
 30
0.0
 11
-160.2686904957723
 21
170.3097120777954
 31
0.0
  0
LINE
  5
32C
  8
1
  6
CONTINUOUS
 62
     9
 10
-163.6165548582858
 20
168.3768216823644
 30
0.0
 11
-163.4183516789755
 21
168.1804277136164
 31
0.0
  0
LINE
  5
32D
  8
1
  6
CONTINUOUS
 62
     9
 10
-166.5402607986608
 20
165.4531157384822
 30
0.0
 11
-166.5029885349401
 21
165.5530905925256
 31
0.0
  0
ARC
  5
32E
  8
1
  6
CONTINUOUS
 62
     9
 10
-158.3613252882873
 20
160.1628665881032
 30
0.0
 40
9.764281603873842
 50
122.7540602000626
 51
146.4932735892472
  0
LINE
  5
32F
  8
1
  6
CONTINUOUS
 62
     9
 10
-163.6441342980269
 20
168.3746340109156
 30
0.0
 11
-163.6165548582858
 21
168.3768216823644
 31
0.0
  0
LINE
  5
330
  8
1
  6
CONTINUOUS
 62
     9
 10
-166.343866829871
 20
165.2549125591484
 30
0.0
 11
-166.5402607986608
 21
165.4531157384822
 31
0.0
  0
LINE
  5
331
  8
1
  6
CONTINUOUS
 62
     9
 10
-168.4731511896074
 20
162.1052513747671
 30
0.0
 11
-168.2033052168078
 21
162.0342707983198
 31
0.0
  0
LINE
  5
332
  8
1
  6
CONTINUOUS
 62
     9
 10
-169.543301838806
 20
158.1113947852654
 30
0.0
 11
-169.5609958856899
 21
158.2161637893713
 31
0.0
  0
ARC
  5
333
  8
1
  6
CONTINUOUS
 62
     9
 10
-159.8149761319472
 20
157.6195755760617
 30
0.0
 40
9.76426231400013
 50
152.7559910268765
 51
176.4970943077644
  0
LINE
  5
334
  8
1
  6
CONTINUOUS
 62
     9
 10
-168.496040136614
 20
162.0894688950887
 30
0.0
 11
-168.4731511896074
 21
162.1052513747671
 31
0.0
  0
LINE
  5
335
  8
1
  6
CONTINUOUS
 62
     9
 10
-169.2741180830537
 20
158.0379427812492
 30
0.0
 11
-169.543301838806
 21
158.1113947852654
 31
0.0
  0
LINE
  5
336
  8
1
  6
CONTINUOUS
 62
     9
 10
-169.5433018417413
 20
154.2456140017558
 30
0.0
 11
-169.2741180859303
 21
154.319066005787
 31
0.0
  0
LINE
  5
337
  8
1
  6
CONTINUOUS
 62
     9
 10
-168.4731511979743
 20
150.2517574091181
 30
0.0
 11
-168.5406335804045
 21
150.3332813318674
 31
0.0
  0
ARC
  5
338
  8
1
  6
CONTINUOUS
 62
     9
 10
-159.8024130885126
 20
154.6901498552626
 30
0.0
 40
9.764158985548736
 50
182.7576542854599
 51
206.5008008405089
  0
LINE
  5
339
  8
1
  6
CONTINUOUS
 62
     9
 10
-169.5552648660346
 20
154.2203808686761
 30
0.0
 11
-169.5433018417413
 21
154.2456140017558
 31
0.0
  0
LINE
  5
33A
  8
1
  6
CONTINUOUS
 62
     9
 10
-168.2033052252194
 20
150.3227379855272
 30
0.0
 11
-168.4731511979743
 21
150.2517574091181
 31
0.0
  0
LINE
  5
33B
  8
1
  6
CONTINUOUS
 62
     9
 10
-166.5402608099632
 20
146.9038930403189
 30
0.0
 11
-166.343866841157
 21
147.102096219711
 31
0.0
  0
LINE
  5
33C
  8
1
  6
CONTINUOUS
 62
     9
 10
-163.6165548695881
 20
143.9801870901647
 30
0.0
 11
-163.7154106513924
 21
144.0168672243715
 31
0.0
  0
ARC
  5
33D
  8
1
  6
CONTINUOUS
 62
     9
 10
-158.3268734337255
 20
152.1593913485246
 30
0.0
 40
9.764068437828385
 50
212.7593926232075
 51
236.5043155227368
  0
LINE
  5
33E
  8
1
  6
CONTINUOUS
 62
     9
 10
-166.5379698966505
 20
146.8759334528717
 30
0.0
 11
-166.5402608099632
 21
146.9038930403189
 31
0.0
  0
LINE
  5
33F
  8
1
  6
CONTINUOUS
 62
     9
 10
-163.4183516902615
 20
144.1765810588544
 30
0.0
 11
-163.6165548695881
 21
143.9801870901647
 31
0.0
  0
ARC
  5
340
  8
1
  6
CONTINUOUS
 62
     7
 10
-154.3419434882627
 20
156.1785043809394
 30
0.0
 40
15.49999997236145
 50
179.9999999528407
 51
219.8426069636836
  0
ARC
  5
341
  8
1
  6
CONTINUOUS
 62
     7
 10
-154.3419434872127
 20
156.1785043821261
 30
0.0
 40
15.49999997392793
 50
219.8426069645647
 51
320.1535575602579
  0
ARC
  5
342
  8
1
  6
CONTINUOUS
 62
     7
 10
-154.3419434850548
 20
156.178504380769
 30
0.0
 40
15.49999997140165
 50
320.1535575589986
 51
0.0000000044317403
  0
ARC
  5
343
  8
1
  6
CONTINUOUS
 62
     7
 10
-154.3419434875624
 20
156.1785043817256
 30
0.0
 40
15.49999997379559
 50
0.0000000008957443
 51
39.83805849947311
  0
ARC
  5
344
  8
1
  6
CONTINUOUS
 62
     7
 10
-154.3419434871387
 20
156.1785043819679
 30
0.0
 40
15.49999997331497
 50
39.83805849978878
 51
140.1636658973652
  0
ARC
  5
345
  8
1
  6
CONTINUOUS
 62
     7
 10
-154.3419434867727
 20
156.1785043817465
 30
0.0
 40
15.49999997373776
 50
140.1636658976034
 51
179.9999999558242
  0
ARC
  5
346
  8
1
  6
CONTINUOUS
 62
     7
 10
-164.8343058972507
 20
151.6810513227511
 30
0.0
 40
0.5000000000000004
 50
90.0
 51
203.2139908502079
  0
LINE
  5
347
  8
1
  6
CONTINUOUS
 62
     7
 10
-164.8343058972507
 20
152.1810513227511
 30
0.0
 11
-164.7253756512763
 21
152.1810513227511
 31
0.0
  0
ARC
  5
348
  8
1
  6
CONTINUOUS
 62
     7
 10
-154.3420958226287
 20
156.1810513227511
 30
0.0
 40
10.25
 50
207.9100682770287
 51
332.0899317229713
  0
LINE
  5
349
  8
1
  6
CONTINUOUS
 62
     7
 10
-143.9588159939811
 20
152.1810513227511
 30
0.0
 11
-143.8498857480066
 21
152.1810513227511
 31
0.0
  0
ARC
  5
34A
  8
1
  6
CONTINUOUS
 62
     7
 10
-164.7253756512763
 20
150.6810513227511
 30
0.0
 40
1.5
 50
27.91006827702872
 51
90.00000000000001
  0
ARC
  5
34B
  8
1
  6
CONTINUOUS
 62
     7
 10
-154.3420958226287
 20
156.1810513227511
 30
0.0
 40
11.9165
 50
203.213990850208
 51
336.7860091497921
  0
ARC
  5
34C
  8
1
  6
CONTINUOUS
 62
     7
 10
-143.8498857480066
 20
151.6810513227511
 30
0.0
 40
0.5000000000000004
 50
336.7860091497921
 51
90.0
  0
ARC
  5
34D
  8
1
  6
CONTINUOUS
 62
     7
 10
-143.9588159939811
 20
150.6810513227511
 30
0.0
 40
1.5
 50
90.0
 51
152.0899317229713
  0
ARC
  5
34E
  8
1
  6
CONTINUOUS
 62
     7
 10
-164.7253756512763
 20
161.6810513227511
 30
0.0
 40
1.5
 50
270.0
 51
332.0899317229712
  0
ARC
  5
34F
  8
1
  6
CONTINUOUS
 62
     7
 10
-164.8343058972507
 20
160.6810513227511
 30
0.0
 40
0.5000000000000008
 50
156.786009149792
 51
270.0
  0
ARC
  5
350
  8
1
  6
CONTINUOUS
 62
     7
 10
-143.8498857480066
 20
160.6810513227511
 30
0.0
 40
0.5000000000000004
 50
270.0
 51
23.21399085020795
  0
ARC
  5
351
  8
1
  6
CONTINUOUS
 62
     7
 10
-143.9588159939811
 20
161.6810513227511
 30
0.0
 40
1.500000000000001
 50
207.9100682770288
 51
270.0
  0
ARC
  5
352
  8
1
  6
CONTINUOUS
 62
     7
 10
-154.3420958226287
 20
156.1810513227511
 30
0.0
 40
11.9165
 50
23.21399085020797
 51
156.786009149792
  0
LINE
  5
353
  8
1
  6
CONTINUOUS
 62
     7
 10
-164.8343058972507
 20
160.1810513227511
 30
0.0
 11
-164.7253756512762
 21
160.1810513227511
 31
0.0
  0
ARC
  5
354
  8
1
  6
CONTINUOUS
 62
     7
 10
-154.3420958226287
 20
156.1810513227511
 30
0.0
 40
10.25
 50
27.91006827702876
 51
152.0899317229712
  0
LINE
  5
355
  8
1
  6
CONTINUOUS
 62
     7
 10
-143.9588159939811
 20
160.1810513227511
 30
0.0
 11
-143.8498857480066
 21
160.1810513227511
 31
0.0
  0
LINE
  5
356
  8
1
  6
CONTINUOUS
 62
     7
 10
-165.0736687399008
 20
150.681051322751
 30
0.0
 11
-164.9134236602279
 21
150.6810513227511
 31
0.0
  0
LINE
  5
357
  8
1
  6
CONTINUOUS
 62
     7
 10
-164.9134236602279
 20
161.6810513227511
 30
0.0
 11
-165.0710509927209
 21
161.6810513227511
 31
0.0
  0
LINE
  5
358
  8
1
  6
CONTINUOUS
 62
     7
 10
-154.3420958226285
 20
168.0975513227511
 30
0.0
 11
-154.3420958226285
 21
168.2370004053026
 31
0.0
  0
LINE
  5
359
  8
1
  6
CONTINUOUS
 62
     7
 10
-143.6128507982174
 20
161.6810513227511
 30
0.0
 11
-143.7707679850315
 21
161.6810513227511
 31
0.0
  0
LINE
  5
35A
  8
1
  6
CONTINUOUS
 62
     7
 10
-143.7707679850295
 20
150.6810513227511
 30
0.0
 11
-143.610217242896
 21
150.6810513227511
 31
0.0
  0
CIRCLE
  5
35B
  8
1
  6
CONTINUOUS
 62
     7
 10
-154.3420958226287
 20
137.1810513227511
 30
0.0
 40
2.749999999999999
  0
CIRCLE
  5
35C
  8
1
  6
CONTINUOUS
 62
     7
 10
-154.3420958226287
 20
156.1810513227511
 30
0.0
 40
5.249999999999999
  0
ARC
  5
35D
  8
1
  6
CONTINUOUS
 62
     7
 10
-147.4420958226287
 20
167.1810513227511
 30
0.0
 40
5.0
 50
0.0
 51
90.0
  0
LINE
  5
35E
  8
1
  6
CONTINUOUS
 62
     7
 10
-142.4420958226287
 20
145.1800512227311
 30
0.0
 11
-142.4420958226287
 21
146.2475613800791
 31
0.0
  0
LINE
  5
35F
  8
1
  6
CONTINUOUS
 62
     7
 10
-142.4420958226287
 20
154.2288769369514
 30
0.0
 11
-142.4420958226287
 21
158.128131850443
 31
0.0
  0
LINE
  5
360
  8
1
  6
CONTINUOUS
 62
     7
 10
-142.4420958226287
 20
166.1064458286778
 30
0.0
 11
-142.4420958226287
 21
167.1810513227511
 31
0.0
  0
ARC
  5
361
  8
1
  6
CONTINUOUS
 62
     7
 10
-147.4420958226287
 20
145.1800512227311
 30
0.0
 40
5.0
 50
270.7358666377463
 51
0.0
  0
LINE
  5
362
  8
1
  6
CONTINUOUS
 62
     7
 10
-147.4132023060024
 20
136.1330553775101
 30
0.0
 11
-147.3778811096134
 21
140.1804635926728
 31
0.0
  0
ARC
  5
363
  8
1
  6
CONTINUOUS
 62
     7
 10
-152.9129928828554
 20
136.1810513227511
 30
0.0
 40
5.499999999999998
 50
269.9999999999999
 51
359.5000000000001
  0
LINE
  5
364
  8
1
  6
CONTINUOUS
 62
     7
 10
-155.771198762402
 20
130.6810513227511
 30
0.0
 11
-152.9129928828554
 21
130.6810513227511
 31
0.0
  0
ARC
  5
365
  8
1
  6
CONTINUOUS
 62
     7
 10
-155.771198762402
 20
136.1810513227511
 30
0.0
 40
5.499999999999999
 50
180.5
 51
270.0
  0
LINE
  5
366
  8
1
  6
CONTINUOUS
 62
     7
 10
-161.3063105356439
 20
140.1804635926728
 30
0.0
 11
-161.2709893392549
 21
136.1330553775101
 31
0.0
  0
ARC
  5
367
  8
1
  6
CONTINUOUS
 62
     7
 10
-161.2420958226287
 20
145.1800512227311
 30
0.0
 40
4.999999999999999
 50
180.0
 51
269.2641333622536
  0
LINE
  5
368
  8
1
  6
CONTINUOUS
 62
     7
 10
-166.2420958226287
 20
167.1810513227511
 30
0.0
 11
-166.2420958226287
 21
166.1060926306377
 31
0.0
  0
LINE
  5
369
  8
1
  6
CONTINUOUS
 62
     7
 10
-166.2420958226287
 20
158.1262716368518
 30
0.0
 11
-166.2420958226287
 21
154.2307371505427
 31
0.0
  0
LINE
  5
36A
  8
1
  6
CONTINUOUS
 62
     7
 10
-166.2420958226287
 20
146.2486523500731
 30
0.0
 11
-166.2420958226287
 21
145.1800512227311
 31
0.0
  0
ARC
  5
36B
  8
1
  6
CONTINUOUS
 62
     7
 10
-161.2420958226287
 20
167.1810513227511
 30
0.0
 40
5.000000000000001
 50
90.00000000000001
 51
180.0
  0
LINE
  5
36C
  8
1
  6
CONTINUOUS
 62
     7
 10
-147.4420958226287
 20
172.1810513227511
 30
0.0
 11
-161.2420958226287
 21
172.1810513227511
 31
0.0
  0
ARC
  5
36D
  8
1
  6
CONTINUOUS
 62
     7
 10
-163.2420958226287
 20
178.6810513227511
 30
0.0
 40
2.999999999999999
 50
90.0
 51
180.0
  0
ARC
  5
36E
  8
1
  6
CONTINUOUS
 62
     7
 10
-159.2420958226287
 20
178.6810513227511
 30
0.0
 40
3.0
 50
0.0
 51
90.0
  0
CIRCLE
  5
36F
  8
1
  6
CONTINUOUS
 62
     7
 10
-160.7420958226287
 20
177.6810513227511
 30
0.0
 40
1.75
  0
LINE
  5
370
  8
1
  6
CONTINUOUS
 62
     7
 10
-156.2420958226286
 20
178.6810513227511
 30
0.0
 11
-156.2420958226286
 21
172.1810513227511
 31
0.0
  0
LINE
  5
371
  8
1
  6
CONTINUOUS
 62
     7
 10
-163.2420958226287
 20
181.6810513227511
 30
0.0
 11
-159.2420958226287
 21
181.6810513227511
 31
0.0
  0
LINE
  5
372
  8
1
  6
CONTINUOUS
 62
     7
 10
-166.2420958226287
 20
167.1810513227511
 30
0.0
 11
-166.2420958226287
 21
178.6810513227511
 31
0.0
  0
ARC
  5
373
  8
1
  6
CONTINUOUS
 62
     7
 10
-136.5420958226286
 20
153.6810513227511
 30
0.0
 40
1.500000000000001
 50
270.0
 51
0.0000000000002842
  0
LINE
  5
374
  8
1
  6
CONTINUOUS
 62
     7
 10
-135.0420958226286
 20
158.6810513227511
 30
0.0
 11
-135.0420958226286
 21
153.6810513227511
 31
0.0
  0
ARC
  5
375
  8
1
  6
CONTINUOUS
 62
     7
 10
-136.5420958226286
 20
158.6810513227511
 30
0.0
 40
1.500000000000001
 50
0.0000000000000663
 51
90.0
  0
LINE
  5
376
  8
1
  6
CONTINUOUS
 62
     7
 10
-136.5420958226286
 20
152.1810513227511
 30
0.0
 11
-139.3663183146143
 21
152.1810513227511
 31
0.0
  0
LINE
  5
377
  8
1
  6
CONTINUOUS
 62
     7
 10
-136.5420958226286
 20
160.1810513227511
 30
0.0
 11
-139.3718670931987
 21
160.1810513227511
 31
0.0
  0
LINE
  5
378
  8
1
  6
CONTINUOUS
 62
     7
 10
-145.3280648580365
 20
148.3612681643802
 30
0.0
 11
-145.1109959980564
 21
148.631954450304
 31
0.0
  0
ARC
  5
379
  8
1
  6
CONTINUOUS
 62
     7
 10
-154.5705397158223
 20
156.0047535251638
 30
0.0
 40
11.99359036974817
 50
295.0746966440453
 51
320.409403954269
  0
ENDBLK
  8
0
  0
ENDSEC
  0
SECTION
  2
ENTITIES
  0
INSERT
  5
185
  8
1
  6
CONTINUOUS
 62
     7
  2
D_FRAME_VIEW_3960
 10
0.0
 20
0.0
 30
0.0
  0
INSERT
  5
2BF
  8
1
  6
CONTINUOUS
 62
     7
  2
D_FRAME_VIEW_3596
 10
0.0
 20
0.0
 30
0.0
  0
INSERT
  5
37A
  8
1
  6
CONTINUOUS
 62
     7
  2
D_FRAME_VIEW_2626
 10
0.0
 20
0.0
 30
0.0
  0
LINE
  5
37B
  8
1
  6
CENTER
 62
     1
 10
-68.41102147104752
 20
156.1785043819737
 30
0.0
 11
-102.4409954549409
 21
156.1785043819737
 31
0.0
  0
LINE
  5
37D
  8
1
  6
CENTER
 62
     1
 10
-171.8419434606242
 20
156.1785043809394
 30
0.0
 11
-136.8419435159013
 21
156.1785043809394
 31
0.0
  0
LINE
  5
37E
  8
1
  6
CENTER
 62
     1
 10
-154.3420958226287
 20
132.4310513227511
 30
0.0
 11
-154.3420958226287
 21
141.9310513227511
 31
0.0
  0
LINE
  5
37F
  8
1
  6
CENTER
 62
     1
 10
-154.3419434882627
 20
138.678504408578
 30
0.0
 11
-154.3419434882627
 21
173.6785043533009
 31
0.0
  0
LINE
  5
380
  8
1
  6
CENTER
 62
     1
 10
-164.4920958226287
 20
177.6810513227511
 30
0.0
 11
-156.9920958226286
 21
177.6810513227511
 31
0.0
  0
LINE
  5
381
  8
1
  6
CENTER
 62
     1
 10
-160.7420958226287
 20
173.9310513227511
 30
0.0
 11
-160.7420958226287
 21
181.4310513227511
 31
0.0
  0
LINE
  5
382
  8
1
  6
CENTER
 62
     1
 10
-159.0920958226287
 20
137.1810513227511
 30
0.0
 11
-149.5920958226287
 21
137.1810513227511
 31
0.0
  0
TEXT
  5
383
  8
1
  6
CONTINUOUS
 62
     7
 10
-98.56147246196461
 20
94.15622105437828
 30
0.0
 40
3.0
  1
LD-BA
  0
LINE
  5
384
  8
1
  6
CONTINUOUS
 62
     2
 10
-98.39067091138315
 20
93.59825556732063
 30
0.0
 11
-89.89521636592862
 21
93.59825556732063
 31
0.0
  0
POINT
  5
385
  8
1
 62
     7
 10
-68.4110214710475
 20
156.1810513227511
 30
0.0
  0
ENDSEC
  0
EOF
