  0
SECTION
  2
HEADER
  9
$ACADVER
  1
AC1006
  9
$DWGCODEPAGE
  3
ansi_932
  9
$INSBASE
 10
0.0
 20
0.0
 30
0.0
  9
$EXTMIN
 10
-943.8655532821
 20
0.0
  9
$EXTMAX
 10
6.956136363636363
 20
1035.3752400717
  9
$LIMMIN
 10
0.0
 20
0.0
  9
$LIMMAX
 10
12.0
 20
9.0
  9
$ORTHOMODE
 70
     0
  9
$REGENMODE
 70
     1
  9
$FILLMODE
 70
     1
  9
$QTEXTMODE
 70
     0
  9
$MIRRTEXT
 70
     1
  9
$DRAGMODE
 70
     2
  9
$LTSCALE
 40
1.0
  9
$OSMODE
 70
    37
  9
$ATTMODE
 70
     1
  9
$TEXTSIZE
 40
0.2
  9
$TRACEWID
 40
0.05
  9
$TEXTSTYLE
  7
STANDARD
  9
$CLAYER
  8
0
  9
$CELTYPE
  6
BYLAYER
  9
$CECOLOR
 62
   256
  9
$DIMSCALE
 40
1.0
  9
$DIMASZ
 40
3.0
  9
$DIMEXO
 40
0.0625
  9
$DIMDLI
 40
0.38
  9
$DIMRND
 40
0.0
  9
$DIMDLE
 40
0.0
  9
$DIMEXE
 40
1.5
  9
$DIMTP
 40
0.0
  9
$DIMTM
 40
0.0
  9
$DIMTXT
 40
3.5
  9
$DIMCEN
 40
0.09
  9
$DIMTSZ
 40
0.0
  9
$DIMTOL
 70
     0
  9
$DIMLIM
 70
     0
  9
$DIMTIH
 70
     1
  9
$DIMTOH
 70
     1
  9
$DIMSE1
 70
     0
  9
$DIMSE2
 70
     0
  9
$DIMTAD
 70
     1
  9
$DIMZIN
 70
     0
  9
$DIMBLK
  1

  9
$DIMASO
 70
     1
  9
$DIMSHO
 70
     1
  9
$DIMPOST
  1

  9
$DIMAPOST
  1

  9
$DIMALT
 70
     0
  9
$DIMALTD
 70
     2
  9
$DIMALTF
 40
25.4
  9
$DIMLFAC
 40
1.0
  9
$DIMTOFL
 70
     0
  9
$DIMTVP
 40
0.0
  9
$DIMTIX
 70
     0
  9
$DIMSOXD
 70
     0
  9
$DIMSAH
 70
     0
  9
$DIMBLK1
  1

  9
$DIMBLK2
  1

  9
$LUNITS
 70
     2
  9
$LUPREC
 70
     4
  9
$SKETCHINC
 40
0.1
  9
$FILLETRAD
 40
0.5
  9
$AUNITS
 70
     0
  9
$AUPREC
 70
     0
  9
$MENU
  1
.
  9
$ELEVATION
 40
0.0
  9
$THICKNESS
 40
0.0
  9
$LIMCHECK
 70
     0
  9
$CHAMFERA
 40
0.0
  9
$CHAMFERB
 40
0.0
  9
$SKPOLY
 70
     0
  9
$TDCREATE
 40
2460497.543733206
  9
$TDUPDATE
 40
2460497.543733738
  9
$TDINDWG
 40
0.0000000116
  9
$TDUSRTIMER
 40
0.0000000116
  9
$USRTIMER
 70
     1
  9
$ANGBASE
 50
0.0
  9
$ANGDIR
 70
     0
  9
$PDMODE
 70
     0
  9
$PDSIZE
 40
0.0
  9
$PLINEWID
 40
0.0
  9
$COORDS
 70
     1
  9
$SPLFRAME
 70
     0
  9
$SPLINETYPE
 70
     6
  9
$SPLINESEGS
 70
     8
  9
$ATTDIA
 70
     0
  9
$ATTREQ
 70
     1
  9
$HANDLING
 70
     1
  9
$HANDSEED
  5
3AB
  9
$SURFTAB1
 70
     6
  9
$SURFTAB2
 70
     6
  9
$SURFTYPE
 70
     6
  9
$SURFU
 70
     6
  9
$SURFV
 70
     6
  9
$UCSNAME
  2

  9
$UCSORG
 10
0.0
 20
0.0
 30
0.0
  9
$UCSXDIR
 10
1.0
 20
0.0
 30
0.0
  9
$UCSYDIR
 10
0.0
 20
1.0
 30
0.0
  9
$USERI1
 70
     0
  9
$USERI2
 70
     0
  9
$USERI3
 70
     0
  9
$USERI4
 70
     0
  9
$USERI5
 70
     0
  9
$USERR1
 40
0.0
  9
$USERR2
 40
0.0
  9
$USERR3
 40
0.0
  9
$USERR4
 40
0.0
  9
$USERR5
 40
0.0
  9
$WORLDVIEW
 70
     1
  0
ENDSEC
  0
SECTION
  2
TABLES
  0
TABLE
  2
VPORT
 70
     1
  0
VPORT
  2
*ACTIVE
 70
     0
 10
0.0
 20
0.0
 11
1.0
 21
1.0
 12
-468.4547084592318
 22
517.68762003585
 13
0.0
 23
0.0
 14
0.5
 24
0.5
 15
0.5
 25
0.5
 16
0.0
 26
0.0
 36
1.0
 17
0.0
 27
0.0
 37
0.0
 40
1035.3752400717
 41
1.6
 42
50.0
 43
0.0
 44
0.0
 50
0.0
 51
0.0
 71
     0
 72
   100
 73
     1
 74
     3
 75
     0
 76
     0
 77
     0
 78
     0
  0
ENDTAB
  0
TABLE
  2
LTYPE
 70
     2
  0
LTYPE
  2
CONTINUOUS
 70
     0
  3
Solid line
 72
    65
 73
     0
 40
0.0
  0
LTYPE
  2
CENTER
 70
     0
  3

 72
    65
 73
     0
 40
0.0
  0
ENDTAB
  0
TABLE
  2
LAYER
 70
     2
  0
LAYER
  2
0
 70
     0
 62
     7
  6
CONTINUOUS
  0
LAYER
  2
1
 70
     0
 62
     7
  6
CONTINUOUS
  0
ENDTAB
  0
TABLE
  2
STYLE
 70
     2
  0
STYLE
  2
STANDARD
 70
     0
 40
0.0
 41
1.0
 50
0.0
 71
     0
 42
0.2
  3
txt
  4

  0
STYLE
  2
ＭＳ_ゴシック
 70
     0
 40
0.0
 41
1.0
 50
0.0
 71
     0
 42
0.2
  3
ＭＳ ゴシック.shx
  4

  0
ENDTAB
  0
TABLE
  2
VIEW
 70
     0
  0
ENDTAB
  0
TABLE
  2
UCS
 70
     0
  0
ENDTAB
  0
ENDSEC
  0
SECTION
  2
BLOCKS
  0
BLOCK
  8
0
  2
D_FRAME_DRAWING_21
 70
     0
 10
0.0
 20
0.0
 30
0.0
  0
LINE
  5
129
  8
0
  6
CONTINUOUS
 62
     7
 10
0.0
 20
0.0
 30
0.0
 11
420.0
 21
0.0
 31
0.0
  0
LINE
  5
12A
  8
0
  6
CONTINUOUS
 62
     7
 10
420.0
 20
0.0
 30
0.0
 11
420.0
 21
297.0
 31
0.0
  0
LINE
  5
12B
  8
0
  6
CONTINUOUS
 62
     7
 10
420.0
 20
297.0
 30
0.0
 11
0.0
 21
297.0
 31
0.0
  0
LINE
  5
12C
  8
0
  6
CONTINUOUS
 62
     7
 10
0.0
 20
297.0
 30
0.0
 11
0.0
 21
0.0
 31
0.0
  0
LINE
  5
12D
  8
0
  6
CONTINUOUS
 62
     7
 10
10.0
 20
10.0
 30
0.0
 11
409.9999999999999
 21
10.0
 31
0.0
  0
LINE
  5
12E
  8
0
  6
CONTINUOUS
 62
     7
 10
409.9999999999999
 20
10.0
 30
0.0
 11
409.9999999999999
 21
286.9999999999999
 31
0.0
  0
LINE
  5
12F
  8
0
  6
CONTINUOUS
 62
     7
 10
409.9999999999999
 20
286.9999999999999
 30
0.0
 11
10.00000000000006
 21
286.9999999999999
 31
0.0
  0
LINE
  5
130
  8
0
  6
CONTINUOUS
 62
     7
 10
10.0
 20
286.9999999999999
 30
0.0
 11
10.0
 21
10.00000000000001
 31
0.0
  0
LINE
  5
131
  8
0
  6
CONTINUOUS
 62
     7
 10
210.0
 20
0.0
 30
0.0
 11
210.0
 21
10.0
 31
0.0
  0
LINE
  5
132
  8
0
  6
CONTINUOUS
 62
     7
 10
420.0
 20
148.5
 30
0.0
 11
409.9999999999999
 21
148.5
 31
0.0
  0
LINE
  5
133
  8
0
  6
CONTINUOUS
 62
     7
 10
210.0
 20
297.0
 30
0.0
 11
210.0
 21
286.9999999999999
 31
0.0
  0
LINE
  5
134
  8
0
  6
CONTINUOUS
 62
     7
 10
0.0
 20
148.5
 30
0.0
 11
10.0
 21
148.5
 31
0.0
  0
POLYLINE
  5
135
  8
0
  6
CONTINUOUS
 62
     7
 66
     1
 10
0.0
 20
0.0
 30
0.0
 70
     1
  0
VERTEX
  5
37C
  8
0
  6
CONTINUOUS
 62
     7
 10
11.0
 20
152.5
 30
0.0
  0
VERTEX
  5
37D
  8
0
  6
CONTINUOUS
 62
     7
 10
0.0
 20
148.5
 30
0.0
  0
VERTEX
  5
37E
  8
0
  6
CONTINUOUS
 62
     7
 10
11.0
 20
144.5
 30
0.0
  0
VERTEX
  5
37F
  8
0
  6
CONTINUOUS
 62
     7
 10
11.0
 20
152.5
 30
0.0
  0
SEQEND
  5
3A9
  8
0
  6
CONTINUOUS
 62
     7
  0
INSERT
  5
136
  8
0
 62
     7
  2
*U2
 10
0.0
 20
0.0
 30
0.0
  0
POLYLINE
  5
137
  8
0
  6
CONTINUOUS
 62
     7
 66
     1
 10
0.0
 20
0.0
 30
0.0
 70
     1
  0
VERTEX
  5
382
  8
0
  6
CONTINUOUS
 62
     7
 10
206.0
 20
11.0
 30
0.0
  0
VERTEX
  5
383
  8
0
  6
CONTINUOUS
 62
     7
 10
210.0
 20
0.0
 30
0.0
  0
VERTEX
  5
384
  8
0
  6
CONTINUOUS
 62
     7
 10
214.0
 20
11.0
 30
0.0
  0
VERTEX
  5
385
  8
0
  6
CONTINUOUS
 62
     7
 10
206.0
 20
11.0
 30
0.0
  0
SEQEND
  5
3AA
  8
0
  6
CONTINUOUS
 62
     7
  0
INSERT
  5
138
  8
0
 62
     7
  2
*U3
 10
0.0
 20
0.0
 30
0.0
  0
LINE
  5
139
  8
0
  6
CONTINUOUS
 62
     7
 10
367.5
 20
286.9999999999999
 30
0.0
 11
367.5
 21
292.0
 31
0.0
  0
TEXT
  5
13A
  8
0
  6
CONTINUOUS
 62
     7
 10
391.6340909090909
 20
291.8324293485057
 30
0.0
 40
3.5
  1
A
 50
270.0
  0
LINE
  5
13B
  8
0
  6
CONTINUOUS
 62
     7
 10
367.5
 20
10.0
 30
0.0
 11
367.5
 21
5.0
 31
0.0
  0
TEXT
  5
13C
  8
0
  6
CONTINUOUS
 62
     7
 10
392.9868888333125
 20
4.602272727272727
 30
0.0
 40
3.5
  1
A
  0
LINE
  5
13D
  8
0
  6
CONTINUOUS
 62
     7
 10
315.0
 20
286.9999999999999
 30
0.0
 11
315.0
 21
292.0
 31
0.0
  0
TEXT
  5
13E
  8
0
  6
CONTINUOUS
 62
     7
 10
339.1340909090909
 20
291.9745607727899
 30
0.0
 40
3.5
  1
B
 50
270.0
  0
LINE
  5
13F
  8
0
  6
CONTINUOUS
 62
     7
 10
315.0
 20
10.0
 30
0.0
 11
315.0
 21
5.0
 31
0.0
  0
TEXT
  5
140
  8
0
  6
CONTINUOUS
 62
     7
 10
340.3447574090284
 20
4.602272727272727
 30
0.0
 40
3.5
  1
B
  0
LINE
  5
141
  8
0
  6
CONTINUOUS
 62
     7
 10
262.5
 20
286.9999999999999
 30
0.0
 11
262.5
 21
292.0
 31
0.0
  0
TEXT
  5
142
  8
0
  6
CONTINUOUS
 62
     7
 10
286.6327779167187
 20
291.9399305989747
 30
0.0
 40
3.5
  1
C
 50
270.0
  0
LINE
  5
143
  8
0
  6
CONTINUOUS
 62
     7
 10
262.5
 20
10.0
 30
0.0
 11
262.5
 21
5.0
 31
0.0
  0
TEXT
  5
144
  8
0
  6
CONTINUOUS
 62
     7
 10
287.8793875828435
 20
4.600959734900587
 30
0.0
 40
3.5
  1
C
  0
LINE
  5
145
  8
0
  6
CONTINUOUS
 62
     7
 10
210.0
 20
286.9999999999999
 30
0.0
 11
210.0
 21
292.0
 31
0.0
  0
TEXT
  5
146
  8
0
  6
CONTINUOUS
 62
     7
 10
234.1340909090909
 20
291.9745607727898
 30
0.0
 40
3.5
  1
D
 50
270.0
  0
LINE
  5
147
  8
0
  6
CONTINUOUS
 62
     7
 10
157.5
 20
286.9999999999999
 30
0.0
 11
157.5
 21
292.0
 31
0.0
  0
TEXT
  5
148
  8
0
  6
CONTINUOUS
 62
     7
 10
181.6327779167188
 20
292.027463423784
 30
0.0
 40
3.5
  1
E
 50
270.0
  0
LINE
  5
149
  8
0
  6
CONTINUOUS
 62
     7
 10
157.5
 20
10.0
 30
0.0
 11
157.5
 21
5.0
 31
0.0
  0
LINE
  5
14A
  8
0
  6
CONTINUOUS
 62
     7
 10
105.0
 20
286.9999999999999
 30
0.0
 11
105.0
 21
292.0
 31
0.0
  0
TEXT
  5
14B
  8
0
  6
CONTINUOUS
 62
     7
 10
129.1327779167188
 20
291.9924502938602
 30
0.0
 40
3.5
  1
F
 50
270.0
  0
LINE
  5
14C
  8
0
  6
CONTINUOUS
 62
     7
 10
105.0
 20
10.0
 30
0.0
 11
105.0
 21
5.0
 31
0.0
  0
TEXT
  5
14D
  8
0
  6
CONTINUOUS
 62
     7
 10
130.326867887958
 20
4.600959734900587
 30
0.0
 40
3.5
  1
F
  0
LINE
  5
14E
  8
0
  6
CONTINUOUS
 62
     7
 10
52.50000000000004
 20
286.9999999999999
 30
0.0
 11
52.50000000000004
 21
292.0
 31
0.0
  0
TEXT
  5
14F
  8
0
  6
CONTINUOUS
 62
     7
 10
76.6327779167188
 20
291.9399305989746
 30
0.0
 40
3.5
  1
G
 50
270.0
  0
LINE
  5
150
  8
0
  6
CONTINUOUS
 62
     7
 10
52.50000000000004
 20
10.0
 30
0.0
 11
52.50000000000004
 21
5.0
 31
0.0
  0
TEXT
  5
151
  8
0
  6
CONTINUOUS
 62
     7
 10
77.8793875828436
 20
4.600959734900587
 30
0.0
 40
3.5
  1
G
  0
TEXT
  5
152
  8
0
  6
CONTINUOUS
 62
     7
 10
24.13277791671879
 20
291.9749437288983
 30
0.0
 40
3.5
  1
H
 50
270.0
  0
TEXT
  5
153
  8
0
  6
CONTINUOUS
 62
     7
 10
25.34437445291988
 20
4.600959734900587
 30
0.0
 40
3.5
  1
H
  0
LINE
  5
154
  8
0
  6
CONTINUOUS
 62
     7
 10
409.9999999999999
 20
74.25
 30
0.0
 11
414.9999999999999
 21
74.25
 31
0.0
  0
TEXT
  5
155
  8
0
  6
CONTINUOUS
 62
     7
 10
412.9326059772414
 20
35.00777791671877
 30
0.0
 40
3.5
  1
1
  0
LINE
  5
156
  8
0
  6
CONTINUOUS
 62
     7
 10
10.0
 20
74.25
 30
0.0
 11
5.0
 21
74.25
 31
0.0
  0
TEXT
  5
157
  8
0
  6
CONTINUOUS
 62
     7
 10
4.600959734900584
 20
38.26171220457671
 30
0.0
 40
3.5
  1
1
 50
270.0
  0
LINE
  5
158
  8
0
  6
CONTINUOUS
 62
     7
 10
409.9999999999999
 20
148.5
 30
0.0
 11
414.9999999999999
 21
148.5
 31
0.0
  0
TEXT
  5
159
  8
0
  6
CONTINUOUS
 62
     7
 10
413.163692634738
 20
109.2577779167188
 30
0.0
 40
3.5
  1
2
  0
LINE
  5
15A
  8
0
  6
CONTINUOUS
 62
     7
 10
10.0
 20
148.5
 30
0.0
 11
5.0
 21
148.5
 31
0.0
  0
TEXT
  5
15B
  8
0
  6
CONTINUOUS
 62
     7
 10
4.600959734900599
 20
112.2806255470802
 30
0.0
 40
3.5
  1
2
 50
270.0
  0
LINE
  5
15C
  8
0
  6
CONTINUOUS
 62
     7
 10
409.9999999999999
 20
222.75
 30
0.0
 11
414.9999999999999
 21
222.75
 31
0.0
  0
TEXT
  5
15D
  8
0
  6
CONTINUOUS
 62
     7
 10
413.1811991996998
 20
183.5077779167188
 30
0.0
 40
3.5
  1
3
  0
LINE
  5
15E
  8
0
  6
CONTINUOUS
 62
     7
 10
10.0
 20
222.75
 30
0.0
 11
5.0
 21
222.75
 31
0.0
  0
TEXT
  5
15F
  8
0
  6
CONTINUOUS
 62
     7
 10
4.600959734900584
 20
186.5131189821183
 30
0.0
 40
3.5
  1
3
 50
270.0
  0
TEXT
  5
160
  8
0
  6
CONTINUOUS
 62
     7
 10
413.2351413029886
 20
257.7590909090909
 30
0.0
 40
3.5
  1
4
  0
TEXT
  5
161
  8
0
  6
CONTINUOUS
 62
     7
 10
4.60227272727272
 20
260.7091768788295
 30
0.0
 40
3.5
  1
4
 50
270.0
  0
LINE
  5
162
  8
0
  6
CONTINUOUS
 62
     7
 10
220.0
 20
10.0
 30
0.0
 11
220.0
 21
7.0
 31
0.0
  0
LINE
  5
163
  8
0
  6
CONTINUOUS
 62
     7
 10
200.0
 20
10.0
 30
0.0
 11
200.0
 21
7.0
 31
0.0
  0
LINE
  5
164
  8
0
  6
CONTINUOUS
 62
     7
 10
230.0
 20
10.0
 30
0.0
 11
230.0
 21
7.0
 31
0.0
  0
LINE
  5
165
  8
0
  6
CONTINUOUS
 62
     7
 10
190.0
 20
10.0
 30
0.0
 11
190.0
 21
7.0
 31
0.0
  0
LINE
  5
166
  8
0
  6
CONTINUOUS
 62
     7
 10
240.0
 20
10.0
 30
0.0
 11
240.0
 21
7.0
 31
0.0
  0
LINE
  5
167
  8
0
  6
CONTINUOUS
 62
     7
 10
180.0
 20
10.0
 30
0.0
 11
180.0
 21
7.0
 31
0.0
  0
LINE
  5
168
  8
0
  6
CONTINUOUS
 62
     7
 10
250.0
 20
10.0
 30
0.0
 11
250.0
 21
7.0
 31
0.0
  0
LINE
  5
169
  8
0
  6
CONTINUOUS
 62
     7
 10
170.0
 20
10.0
 30
0.0
 11
170.0
 21
7.0
 31
0.0
  0
LINE
  5
16A
  8
0
  6
CONTINUOUS
 62
     7
 10
260.0
 20
10.0
 30
0.0
 11
260.0
 21
5.0
 31
0.0
  0
LINE
  5
16B
  8
0
  6
CONTINUOUS
 62
     7
 10
160.0
 20
10.0
 30
0.0
 11
160.0
 21
5.0
 31
0.0
  0
LINE
  5
16C
  8
0
  6
CONTINUOUS
 62
     7
 10
260.0
 20
10.0
 30
0.0
 11
160.0
 21
10.0
 31
0.0
  0
LINE
  5
16D
  8
0
  6
CONTINUOUS
 62
     7
 10
260.0
 20
7.0
 30
0.0
 11
160.0
 21
7.0
 31
0.0
  0
INSERT
  5
16E
  8
0
 62
     7
  2
*U4
 10
0.0
 20
0.0
 30
0.0
  0
INSERT
  5
16F
  8
0
 62
     7
  2
*U5
 10
0.0
 20
0.0
 30
0.0
  0
INSERT
  5
170
  8
0
 62
     7
  2
*U6
 10
0.0
 20
0.0
 30
0.0
  0
INSERT
  5
171
  8
0
 62
     7
  2
*U7
 10
0.0
 20
0.0
 30
0.0
  0
ENDBLK
  8
0
  0
BLOCK
  8
0
  2
*U2
 70
     1
 10
0.0
 20
0.0
 30
0.0
  0
SOLID
  5
381
  8
0
  6
CONTINUOUS
 62
     7
 10
11.0
 20
144.5
 30
0.0
 11
6.999999999999999
 21
148.5
 31
0.0
 12
11.0
 22
152.5
 32
0.0
 13
11.0
 23
152.5
 33
0.0
  0
ENDBLK
  8
0
  0
BLOCK
  8
0
  2
*U3
 70
     1
 10
0.0
 20
0.0
 30
0.0
  0
SOLID
  5
387
  8
0
  6
CONTINUOUS
 62
     7
 10
210.0
 20
6.999999999999999
 30
0.0
 11
206.0
 21
11.0
 31
0.0
 12
210.0
 22
11.0
 32
0.0
 13
210.0
 23
11.0
 33
0.0
  0
SOLID
  5
388
  8
0
  6
CONTINUOUS
 62
     7
 10
210.0
 20
6.999999999999999
 30
0.0
 11
210.0
 21
11.0
 31
0.0
 12
214.0
 22
11.0
 32
0.0
 13
214.0
 23
11.0
 33
0.0
  0
ENDBLK
  8
0
  0
BLOCK
  8
0
  2
*U4
 70
     1
 10
0.0
 20
0.0
 30
0.0
  0
SOLID
  5
38A
  8
0
  6
CONTINUOUS
 62
     7
 10
0.0
 20
0.0
 30
0.0
 11
0.0
 21
10.0
 31
0.0
 12
2.0
 22
0.0
 32
0.0
 13
2.0
 23
0.0
 33
0.0
  0
SOLID
  5
38B
  8
0
  6
CONTINUOUS
 62
     7
 10
2.0
 20
0.0
 30
0.0
 11
0.0
 21
10.0
 31
0.0
 12
2.0
 22
10.0
 32
0.0
 13
2.0
 23
10.0
 33
0.0
  0
SOLID
  5
38C
  8
0
  6
CONTINUOUS
 62
     7
 10
2.0
 20
0.0
 30
0.0
 11
2.0
 21
2.0
 31
0.0
 12
10.0
 22
0.0
 32
0.0
 13
10.0
 23
0.0
 33
0.0
  0
SOLID
  5
38D
  8
0
  6
CONTINUOUS
 62
     7
 10
10.0
 20
0.0
 30
0.0
 11
2.0
 21
2.0
 31
0.0
 12
10.0
 22
2.0
 32
0.0
 13
10.0
 23
2.0
 33
0.0
  0
ENDBLK
  8
0
  0
BLOCK
  8
0
  2
*U5
 70
     1
 10
0.0
 20
0.0
 30
0.0
  0
SOLID
  5
38F
  8
0
  6
CONTINUOUS
 62
     7
 10
409.9999999999999
 20
0.0
 30
0.0
 11
409.9999999999999
 21
2.0
 31
0.0
 12
418.0
 22
0.0
 32
0.0
 13
418.0
 23
0.0
 33
0.0
  0
SOLID
  5
390
  8
0
  6
CONTINUOUS
 62
     7
 10
418.0
 20
0.0
 30
0.0
 11
409.9999999999999
 21
2.0
 31
0.0
 12
418.0
 22
2.0
 32
0.0
 13
418.0
 23
2.0
 33
0.0
  0
SOLID
  5
391
  8
0
  6
CONTINUOUS
 62
     7
 10
418.0
 20
0.0
 30
0.0
 11
418.0
 21
10.0
 31
0.0
 12
420.0
 22
0.0
 32
0.0
 13
420.0
 23
0.0
 33
0.0
  0
SOLID
  5
392
  8
0
  6
CONTINUOUS
 62
     7
 10
420.0
 20
0.0
 30
0.0
 11
418.0
 21
10.0
 31
0.0
 12
420.0
 22
10.0
 32
0.0
 13
420.0
 23
10.0
 33
0.0
  0
ENDBLK
  8
0
  0
BLOCK
  8
0
  2
*U6
 70
     1
 10
0.0
 20
0.0
 30
0.0
  0
SOLID
  5
394
  8
0
  6
CONTINUOUS
 62
     7
 10
409.9999999999999
 20
295.0
 30
0.0
 11
409.9999999999999
 21
297.0
 31
0.0
 12
418.0
 22
295.0
 32
0.0
 13
418.0
 23
295.0
 33
0.0
  0
SOLID
  5
395
  8
0
  6
CONTINUOUS
 62
     7
 10
418.0
 20
295.0
 30
0.0
 11
409.9999999999999
 21
297.0
 31
0.0
 12
418.0
 22
297.0
 32
0.0
 13
418.0
 23
297.0
 33
0.0
  0
SOLID
  5
396
  8
0
  6
CONTINUOUS
 62
     7
 10
418.0
 20
286.9999999999999
 30
0.0
 11
418.0
 21
297.0
 31
0.0
 12
420.0
 22
286.9999999999999
 32
0.0
 13
420.0
 23
286.9999999999999
 33
0.0
  0
SOLID
  5
397
  8
0
  6
CONTINUOUS
 62
     7
 10
420.0
 20
286.9999999999999
 30
0.0
 11
418.0
 21
297.0
 31
0.0
 12
420.0
 22
297.0
 32
0.0
 13
420.0
 23
297.0
 33
0.0
  0
ENDBLK
  8
0
  0
BLOCK
  8
0
  2
*U7
 70
     1
 10
0.0
 20
0.0
 30
0.0
  0
SOLID
  5
399
  8
0
  6
CONTINUOUS
 62
     7
 10
0.0
 20
286.9999999999999
 30
0.0
 11
0.0
 21
297.0
 31
0.0
 12
2.0
 22
286.9999999999999
 32
0.0
 13
2.0
 23
286.9999999999999
 33
0.0
  0
SOLID
  5
39A
  8
0
  6
CONTINUOUS
 62
     7
 10
2.0
 20
286.9999999999999
 30
0.0
 11
0.0
 21
297.0
 31
0.0
 12
2.0
 22
297.0
 32
0.0
 13
2.0
 23
297.0
 33
0.0
  0
SOLID
  5
39B
  8
0
  6
CONTINUOUS
 62
     7
 10
2.0
 20
295.0
 30
0.0
 11
2.0
 21
297.0
 31
0.0
 12
10.0
 22
295.0
 32
0.0
 13
10.0
 23
295.0
 33
0.0
  0
SOLID
  5
39C
  8
0
  6
CONTINUOUS
 62
     7
 10
10.0
 20
295.0
 30
0.0
 11
2.0
 21
297.0
 31
0.0
 12
10.0
 22
297.0
 32
0.0
 13
10.0
 23
297.0
 33
0.0
  0
ENDBLK
  8
0
  0
ENDSEC
  0
SECTION
  2
ENTITIES
  0
LINE
  5
70
  8
1
  6
CONTINUOUS
 62
     7
 10
-295.2475916953
 20
851.9041619718
 30
0.0
 11
-295.2475916953
 21
851.4041619718
 31
0.0
  0
LINE
  5
71
  8
1
  6
CONTINUOUS
 62
     7
 10
-296.4586636953
 20
848.6541619718
 30
0.0
 11
-296.2361806953
 21
848.1541619718
 31
0.0
  0
LINE
  5
72
  8
1
  6
CONTINUOUS
 62
     7
 10
-296.4586636953
 20
848.6541619718
 30
0.0
 11
-296.4586636953
 21
850.1541619718
 31
0.0
  0
LINE
  5
73
  8
1
  6
CONTINUOUS
 62
     7
 10
-296.4586636953
 20
850.1541619718
 30
0.0
 11
-295.9975916953
 21
850.6541619718
 31
0.0
  0
ARC
  5
74
  8
1
  6
CONTINUOUS
 62
     7
 10
-297.2475916953
 20
855.8291619718
 30
0.0
 40
0.825
 50
90.0
 51
127.305183
  0
LINE
  5
75
  8
1
  6
CONTINUOUS
 62
     7
 10
-291.4975916953
 20
850.6541619718
 30
0.0
 11
-292.2475916953
 21
851.4041619718
 31
0.0
  0
ARC
  5
76
  8
1
  6
CONTINUOUS
 62
     7
 10
-296.1570616953
 20
857.6452619718
 30
0.0
 40
1.0
 50
99.04093928470003
 51
175.0
  0
LINE
  5
77
  8
1
  6
CONTINUOUS
 62
     7
 10
-290.2475916953
 20
856.6541619718
 30
0.0
 11
-290.3419266953
 21
857.7324179718
 31
0.0
  0
LINE
  5
78
  8
1
  6
CONTINUOUS
 62
     7
 10
-296.2475916953
 20
848.1541619718
 30
0.0
 11
-296.2475916953
 21
848.1293799718
 31
0.0
  0
CIRCLE
  5
79
  8
1
  6
CONTINUOUS
 62
     7
 10
-868.6418082821
 20
783.8204979718
 30
0.0
 40
72.5
  0
ARC
  5
7A
  8
1
  6
CONTINUOUS
 62
     7
 10
-293.7475916953
 20
842.5025028124
 30
0.0
 40
16.3332547308
 50
80.9590607153
 51
99.04093928470003
  0
LINE
  5
7B
  8
1
  6
CONTINUOUS
 62
     7
 10
-291.0365196953
 20
850.1541619718
 30
0.0
 11
-291.0365196953
 21
848.6541619718
 31
0.0
  0
LINE
  5
7C
  8
1
  6
CONTINUOUS
 62
     7
 10
-291.2590026953
 20
848.1541619718
 30
0.0
 11
-291.0365196953
 21
848.6541619718
 31
0.0
  0
LINE
  5
7D
  8
1
  6
CONTINUOUS
 62
     7
 10
-297.1532566953
 20
857.7324179718
 30
0.0
 11
-297.2475916953
 21
856.6541619718
 31
0.0
  0
ARC
  5
7E
  8
1
  6
CONTINUOUS
 62
     7
 10
-290.2475916953
 20
855.8291619718
 30
0.0
 40
0.825
 50
52.694817
 51
90.0
  0
LINE
  5
7F
  8
1
  6
CONTINUOUS
 62
     7
 10
-296.4975916953
 20
853.6541619718
 30
0.0
 11
-296.4975916953
 21
853.1541619718
 31
0.0
  0
ARC
  5
80
  8
1
  6
CONTINUOUS
 62
     7
 10
-290.2475916953
 20
854.4791619718
 30
0.0
 40
0.825
 50
270.0
 51
307.305183
  0
LINE
  5
81
  8
1
  6
CONTINUOUS
 62
     7
 10
-296.4975916953
 20
853.1541619718
 30
0.0
 11
-295.2475916953
 21
851.9041619718
 31
0.0
  0
LINE
  5
82
  8
1
  6
CONTINUOUS
 62
     7
 10
-290.9975916953
 20
853.1541619718
 30
0.0
 11
-290.9975916953
 21
853.6541619718
 31
0.0
  0
LINE
  5
83
  8
1
  6
CONTINUOUS
 62
     7
 10
-295.2475916953
 20
851.4041619718
 30
0.0
 11
-295.9975916953
 21
850.6541619718
 31
0.0
  0
LINE
  5
84
  8
1
  6
CONTINUOUS
 62
     7
 10
-292.2475916953
 20
851.4041619718
 30
0.0
 11
-292.2475916953
 21
851.9041619718
 31
0.0
  0
ARC
  5
85
  8
1
  6
CONTINUOUS
 62
     7
 10
-291.3381216953
 20
857.6452619718
 30
0.0
 40
1.0
 50
5.0
 51
80.9590607153
  0
LINE
  5
86
  8
1
  6
CONTINUOUS
 62
     7
 10
-297.2475916953
 20
856.6541619718
 30
0.0
 11
-290.2475916953
 21
856.6541619718
 31
0.0
  0
LINE
  5
87
  8
1
  6
CONTINUOUS
 62
     7
 10
-290.9975916953
 20
853.1541619718
 30
0.0
 11
-296.4975916953
 21
853.1541619718
 31
0.0
  0
LINE
  5
88
  8
1
  6
CONTINUOUS
 62
     7
 10
-289.7475916953
 20
856.4853819718
 30
0.0
 11
-289.7475916953
 21
853.8229409718
 31
0.0
  0
ARC
  5
89
  8
1
  6
CONTINUOUS
 62
     7
 10
-297.2475916953
 20
854.4791619718
 30
0.0
 40
0.825
 50
232.694817
 51
270.0
  0
LINE
  5
8A
  8
1
  6
CONTINUOUS
 62
     7
 10
-292.2475916953
 20
851.9041619718
 30
0.0
 11
-295.2475916953
 21
851.9041619718
 31
0.0
  0
LINE
  5
8B
  8
1
  6
CONTINUOUS
 62
     7
 10
-291.2475916953
 20
848.1541619718
 30
0.0
 11
-296.2475916953
 21
848.1541619718
 31
0.0
  0
LINE
  5
8C
  8
1
  6
CONTINUOUS
 62
     7
 10
-291.4975916953
 20
850.6541619718
 30
0.0
 11
-291.0365196953
 21
850.1541619718
 31
0.0
  0
LINE
  5
8D
  8
1
  6
CONTINUOUS
 62
     7
 10
-292.2475916953
 20
851.9041619718
 30
0.0
 11
-290.9975916953
 21
853.1541619718
 31
0.0
  0
LINE
  5
8E
  8
1
  6
CONTINUOUS
 62
     7
 10
-292.2475916953
 20
851.4041619718
 30
0.0
 11
-295.2475916953
 21
851.4041619718
 31
0.0
  0
LINE
  5
8F
  8
1
  6
CONTINUOUS
 62
     7
 10
-291.2475916953
 20
848.1293799718
 30
0.0
 11
-291.2475916953
 21
848.1541619718
 31
0.0
  0
LINE
  5
90
  8
1
  6
CONTINUOUS
 62
     7
 10
-297.2475916953
 20
853.6541619718
 30
0.0
 11
-290.2475916953
 21
853.6541619718
 31
0.0
  0
LINE
  5
91
  8
1
  6
CONTINUOUS
 62
     7
 10
-272.2475916953
 20
856.6541619718
 30
0.0
 11
-272.3419266953
 21
857.7324179718
 31
0.0
  0
LINE
  5
92
  8
1
  6
CONTINUOUS
 62
     7
 10
-383.6298142821
 20
851.4452799718
 30
0.0
 11
-384.3798142821
 21
850.6952799718
 31
0.0
  0
LINE
  5
93
  8
1
  6
CONTINUOUS
 62
     7
 10
-279.2475916953
 20
856.6541619718
 30
0.0
 11
-272.2475916953
 21
856.6541619718
 31
0.0
  0
LINE
  5
94
  8
1
  6
CONTINUOUS
 62
     7
 10
-272.9975916953
 20
853.1541619718
 30
0.0
 11
-272.9975916953
 21
853.6541619718
 31
0.0
  0
LINE
  5
95
  8
1
  6
CONTINUOUS
 62
     7
 10
-278.2475916953
 20
848.1541619718
 30
0.0
 11
-278.2475916953
 21
848.1293799718
 31
0.0
  0
LINE
  5
96
  8
1
  6
CONTINUOUS
 62
     7
 10
-273.0365196953
 20
850.1541619718
 30
0.0
 11
-273.0365196953
 21
848.6541619718
 31
0.0
  0
LINE
  5
97
  8
1
  6
CONTINUOUS
 62
     7
 10
-277.2475916953
 20
851.9041619718
 30
0.0
 11
-277.2475916953
 21
851.4041619718
 31
0.0
  0
LINE
  5
98
  8
1
  6
CONTINUOUS
 62
     7
 10
-273.2475916953
 20
848.1541619718
 30
0.0
 11
-278.2475916953
 21
848.1541619718
 31
0.0
  0
LINE
  5
99
  8
1
  6
CONTINUOUS
 62
     7
 10
-274.2475916953
 20
851.9041619718
 30
0.0
 11
-272.9975916953
 21
853.1541619718
 31
0.0
  0
LINE
  5
9A
  8
1
  6
CONTINUOUS
 62
     7
 10
-297.7475916953
 20
853.8229409718
 30
0.0
 11
-297.7475916953
 21
856.4853819718
 31
0.0
  0
LINE
  5
9B
  8
1
  6
CONTINUOUS
 62
     7
 10
-384.8798142821
 20
853.6952799718
 30
0.0
 11
-384.8798142821
 21
853.1952799718
 31
0.0
  0
LINE
  5
9C
  8
1
  6
CONTINUOUS
 62
     7
 10
-383.6298142821
 20
851.9452799718
 30
0.0
 11
-383.6298142821
 21
851.4452799718
 31
0.0
  0
ARC
  5
9D
  8
1
  6
CONTINUOUS
 62
     7
 10
-382.1298142821
 20
842.5436208124
 30
0.0
 40
16.3332547308
 50
80.9590607153
 51
99.04093928470003
  0
LINE
  5
9E
  8
1
  6
CONTINUOUS
 62
     7
 10
-279.2475916953
 20
853.6541619718
 30
0.0
 11
-272.2475916953
 21
853.6541619718
 31
0.0
  0
LINE
  5
9F
  8
1
  6
CONTINUOUS
 62
     7
 10
-278.4586636953
 20
850.1541619718
 30
0.0
 11
-277.9975916953
 21
850.6541619718
 31
0.0
  0
LINE
  5
A0
  8
1
  6
CONTINUOUS
 62
     7
 10
-273.2590026953
 20
848.1541619718
 30
0.0
 11
-273.0365196953
 21
848.6541619718
 31
0.0
  0
LINE
  5
A1
  8
1
  6
CONTINUOUS
 62
     7
 10
-278.4586636953
 20
848.6541619718
 30
0.0
 11
-278.2361806953
 21
848.1541619718
 31
0.0
  0
LINE
  5
A2
  8
1
  6
CONTINUOUS
 62
     7
 10
-278.4586636953
 20
848.6541619718
 30
0.0
 11
-278.4586636953
 21
850.1541619718
 31
0.0
  0
LINE
  5
A3
  8
1
  6
CONTINUOUS
 62
     7
 10
-272.9975916953
 20
853.1541619718
 30
0.0
 11
-278.4975916953
 21
853.1541619718
 31
0.0
  0
LINE
  5
A4
  8
1
  6
CONTINUOUS
 62
     7
 10
-274.2475916953
 20
851.4041619718
 30
0.0
 11
-277.2475916953
 21
851.4041619718
 31
0.0
  0
LINE
  5
A5
  8
1
  6
CONTINUOUS
 62
     7
 10
-271.7475916953
 20
856.4853819718
 30
0.0
 11
-271.7475916953
 21
853.8229409718
 31
0.0
  0
ARC
  5
A6
  8
1
  6
CONTINUOUS
 62
     7
 10
-272.2475916953
 20
854.4791619718
 30
0.0
 40
0.825
 50
270.0
 51
307.305183
  0
ARC
  5
A7
  8
1
  6
CONTINUOUS
 62
     7
 10
-279.2475916953
 20
854.4791619718
 30
0.0
 40
0.825
 50
232.694817
 51
270.0
  0
LINE
  5
A8
  8
1
  6
CONTINUOUS
 62
     7
 10
-278.4975916953
 20
853.6541619718
 30
0.0
 11
-278.4975916953
 21
853.1541619718
 31
0.0
  0
LINE
  5
A9
  8
1
  6
CONTINUOUS
 62
     7
 10
-278.4975916953
 20
853.1541619718
 30
0.0
 11
-277.2475916953
 21
851.9041619718
 31
0.0
  0
LINE
  5
AA
  8
1
  6
CONTINUOUS
 62
     7
 10
-273.4975916953
 20
850.6541619718
 30
0.0
 11
-274.2475916953
 21
851.4041619718
 31
0.0
  0
LINE
  5
AB
  8
1
  6
CONTINUOUS
 62
     7
 10
-378.6298142821
 20
856.6952799718
 30
0.0
 11
-378.7241492821
 21
857.7735359718
 31
0.0
  0
LINE
  5
AC
  8
1
  6
CONTINUOUS
 62
     7
 10
-277.2475916953
 20
851.4041619718
 30
0.0
 11
-277.9975916953
 21
850.6541619718
 31
0.0
  0
LINE
  5
AD
  8
1
  6
CONTINUOUS
 62
     7
 10
-384.6298142821
 20
848.1952799718
 30
0.0
 11
-384.6298142821
 21
848.1704979718
 31
0.0
  0
ARC
  5
AE
  8
1
  6
CONTINUOUS
 62
     7
 10
-279.2475916953
 20
855.8291619718
 30
0.0
 40
0.825
 50
90.0
 51
127.305183
  0
ARC
  5
AF
  8
1
  6
CONTINUOUS
 62
     7
 10
-379.7203442821
 20
857.6863799718
 30
0.0
 40
1.0
 50
5.0
 51
80.9590607153
  0
LINE
  5
B0
  8
1
  6
CONTINUOUS
 62
     7
 10
-273.2475916953
 20
848.1293799718
 30
0.0
 11
-273.2475916953
 21
848.1541619718
 31
0.0
  0
LINE
  5
B1
  8
1
  6
CONTINUOUS
 62
     7
 10
-384.8798142821
 20
853.1952799718
 30
0.0
 11
-383.6298142821
 21
851.9452799718
 31
0.0
  0
LINE
  5
B2
  8
1
  6
CONTINUOUS
 62
     7
 10
-379.8798142821
 20
850.6952799718
 30
0.0
 11
-380.6298142821
 21
851.4452799718
 31
0.0
  0
LINE
  5
B3
  8
1
  6
CONTINUOUS
 62
     7
 10
-274.2475916953
 20
851.9041619718
 30
0.0
 11
-277.2475916953
 21
851.9041619718
 31
0.0
  0
LINE
  5
B4
  8
1
  6
CONTINUOUS
 62
     7
 10
-274.2475916953
 20
851.4041619718
 30
0.0
 11
-274.2475916953
 21
851.9041619718
 31
0.0
  0
ARC
  5
B5
  8
1
  6
CONTINUOUS
 62
     7
 10
-272.2475916953
 20
855.8291619718
 30
0.0
 40
0.825
 50
52.694817
 51
90.0
  0
LINE
  5
B6
  8
1
  6
CONTINUOUS
 62
     7
 10
-380.6298142821
 20
851.9452799718
 30
0.0
 11
-379.3798142821
 21
853.1952799718
 31
0.0
  0
LINE
  5
B7
  8
1
  6
CONTINUOUS
 62
     7
 10
-385.5354792821
 20
857.7735359718
 30
0.0
 11
-385.6298142821
 21
856.6952799718
 31
0.0
  0
LINE
  5
B8
  8
1
  6
CONTINUOUS
 62
     7
 10
-279.1532566953
 20
857.7324179718
 30
0.0
 11
-279.2475916953
 21
856.6541619718
 31
0.0
  0
LINE
  5
B9
  8
1
  6
CONTINUOUS
 62
     7
 10
-380.6298142821
 20
851.4452799718
 30
0.0
 11
-380.6298142821
 21
851.9452799718
 31
0.0
  0
LINE
  5
BA
  8
1
  6
CONTINUOUS
 62
     7
 10
-279.7475916953
 20
853.8229409718
 30
0.0
 11
-279.7475916953
 21
856.4853819718
 31
0.0
  0
ARC
  5
BB
  8
1
  6
CONTINUOUS
 62
     7
 10
-273.3381216953
 20
857.6452619718
 30
0.0
 40
1.0
 50
5.0
 51
80.9590607153
  0
ARC
  5
BC
  8
1
  6
CONTINUOUS
 62
     7
 10
-278.1570616953
 20
857.6452619718
 30
0.0
 40
1.0
 50
99.04093928470003
 51
175.0
  0
ARC
  5
BD
  8
1
  6
CONTINUOUS
 62
     7
 10
-384.5392842821
 20
857.6863799718
 30
0.0
 40
1.0
 50
99.04093928470003
 51
175.0
  0
ARC
  5
BE
  8
1
  6
CONTINUOUS
 62
     7
 10
-275.7475916953
 20
842.5025028124
 30
0.0
 40
16.3332547308
 50
80.9590607153
 51
99.04093928470003
  0
LINE
  5
BF
  8
1
  6
CONTINUOUS
 62
     7
 10
-379.6298142821
 20
848.1704979718
 30
0.0
 11
-379.6298142821
 21
848.1952799718
 31
0.0
  0
LINE
  5
C0
  8
1
  6
CONTINUOUS
 62
     7
 10
-273.4975916953
 20
850.6541619718
 30
0.0
 11
-273.0365196953
 21
850.1541619718
 31
0.0
  0
ARC
  5
C1
  8
1
  6
CONTINUOUS
 62
     7
 10
-425.0408392821
 20
793.0583939718
 30
0.0
 40
0.512436
 50
183.223957
 51
258.199025
  0
LINE
  5
C2
  8
1
  6
CONTINUOUS
 62
     7
 10
-426.1298142821
 20
845.6704979718
 30
0.0
 11
-430.1298142821
 21
845.6704979718
 31
0.0
  0
LINE
  5
C3
  8
1
  6
CONTINUOUS
 62
     7
 10
-416.6154502821
 20
844.6704979718
 30
0.0
 11
-426.1298142821
 21
845.6704979718
 31
0.0
  0
LINE
  5
C4
  8
1
  6
CENTER
 62
     5
 10
-354.1152155338
 20
783.8204979718
 30
0.0
 11
-215.3939265958
 21
783.8204979718
 31
0.0
  0
ARC
  5
C6
  8
1
  6
CONTINUOUS
 62
     7
 10
-284.7475916953
 20
783.7793799718
 30
0.0
 40
63.324714
 50
103.46091
 51
76.53908999999999
  0
ARC
  5
C7
  8
1
  6
CONTINUOUS
 62
     7
 10
-375.7151532821
 20
845.4843359718
 30
0.0
 40
1.0
 50
30.0
 51
88.617267
  0
LINE
  5
C8
  8
1
  6
CONTINUOUS
 62
     7
 10
-420.7172822821
 20
791.3702139718
 30
0.0
 11
-416.6154502821
 21
789.8164969718
 31
0.0
  0
LINE
  5
C9
  8
1
  6
CONTINUOUS
 62
     7
 10
-426.4184892821
 20
792.8978488828
 30
0.0
 11
-420.7172822821
 21
791.3702139718
 31
0.0
  0
LINE
  5
CA
  8
1
  6
CONTINUOUS
 62
     7
 10
-426.4184892821
 20
844.9577039718
 30
0.0
 11
-425.5524642821
 21
843.9696079718
 31
0.0
  0
LINE
  5
CB
  8
1
  6
CONTINUOUS
 62
     7
 10
-290.2019476953
 20
848.1293799718
 30
0.0
 11
-297.9802646953
 21
848.1293799718
 31
0.0
  0
ARC
  5
CC
  8
1
  6
CONTINUOUS
 62
     7
 10
-381.8602442821
 20
859.7901679718
 30
0.0
 40
14.66816
 50
248.034557
 51
290.870828
  0
LINE
  5
CD
  8
1
  6
CONTINUOUS
 62
     7
 10
-275.7475916953
 20
846.1797529718
 30
0.0
 11
-269.9342806953
 21
845.0940209718
 31
0.0
  0
LINE
  5
CE
  8
1
  6
CONTINUOUS
 62
     7
 10
-298.9461906953
 20
847.3881989718
 30
0.0
 11
-299.5608496953
 21
845.0942599718
 31
0.0
  0
ARC
  5
CF
  8
1
  6
CONTINUOUS
 62
     7
 10
-386.3624872821
 20
847.1704979718
 30
0.0
 40
1.0
 50
90.0
 51
165.0
  0
LINE
  5
D0
  8
1
  6
CONTINUOUS
 62
     7
 10
-376.6074132821
 20
846.2208709718
 30
0.0
 11
-376.9312152821
 21
847.4293169718
 31
0.0
  0
LINE
  5
D1
  8
1
  6
CONTINUOUS
 62
     7
 10
-403.0581242821
 20
720.4963659718
 30
0.0
 11
-375.6910232821
 21
721.1569519718
 31
0.0
  0
LINE
  5
D2
  8
1
  6
CONTINUOUS
 62
     7
 10
-375.6910232821
 20
846.4840439718
 30
0.0
 11
-376.3087782821
 21
846.4989559718
 31
0.0
  0
ARC
  5
D3
  8
1
  6
CONTINUOUS
 62
     7
 10
-375.7151532821
 20
722.1566599718
 30
0.0
 40
1.0
 50
271.382733
 51
330.0
  0
LINE
  5
D4
  8
1
  6
CONTINUOUS
 62
     7
 10
-404.7446892821
 20
846.2923649718
 30
0.0
 11
-405.8803332821
 21
844.6704979718
 31
0.0
  0
LINE
  5
D5
  8
1
  6
CONTINUOUS
 62
     7
 10
-279.2932356953
 20
848.1293799718
 30
0.0
 11
-271.5149186953
 21
848.1293799718
 31
0.0
  0
LINE
  5
D6
  8
1
  6
CONTINUOUS
 62
     7
 10
-377.8971412821
 20
848.1704979718
 30
0.0
 11
-386.3624872821
 21
848.1704979718
 31
0.0
  0
ARC
  5
D7
  8
1
  6
CONTINUOUS
 62
     7
 10
-284.7475916953
 20
867.6293799718
 30
0.0
 40
20.0
 50
259.524686
 51
280.475314
  0
LINE
  5
D8
  8
1
  6
CONTINUOUS
 62
     7
 10
-405.8803332821
 20
722.9704979718
 30
0.0
 11
-405.8803332821
 21
844.6704979718
 31
0.0
  0
ARC
  5
D9
  8
1
  6
CONTINUOUS
 62
     7
 10
-284.7475916953
 20
784.0590649718
 30
0.0
 40
62.76925499999999
 50
81.756388
 51
98.243612
  0
ARC
  5
DA
  8
1
  6
CONTINUOUS
 62
     7
 10
-377.8971412821
 20
847.1704979718
 30
0.0
 40
1.0
 50
15.0
 51
90.0
  0
LINE
  5
DB
  8
1
  6
CONTINUOUS
 62
     7
 10
-374.8491282821
 20
721.6566599718
 30
0.0
 11
-374.3876852821
 21
722.4559039718
 31
0.0
  0
CIRCLE
  5
DC
  8
1
  6
CONTINUOUS
 62
     7
 10
-284.7475916953
 20
783.7793799718
 30
0.0
 40
60.35
  0
ARC
  5
DD
  8
1
  6
CONTINUOUS
 62
     7
 10
-373.0886462821
 20
845.9350919718
 30
0.0
 40
1.5
 50
210.0
 51
265.0
  0
LINE
  5
DE
  8
1
  6
CONTINUOUS
 62
     7
 10
-387.5742452821
 20
846.5118579718
 30
0.0
 11
-387.3284132821
 21
847.4293169718
 31
0.0
  0
LINE
  5
DF
  8
1
  6
CONTINUOUS
 62
     7
 10
-373.2193802821
 20
723.2001959718
 30
0.0
 11
-370.1298142821
 21
723.4704979718
 31
0.0
  0
LINE
  5
E0
  8
1
  6
CONTINUOUS
 62
     7
 10
-370.1298142821
 20
844.1704979718
 30
0.0
 11
-373.2193802821
 21
844.4407999718
 31
0.0
  0
LINE
  5
E1
  8
1
  6
CONTINUOUS
 62
     7
 10
-299.5614396953
 20
845.0941569718
 30
0.0
 11
-293.7475916953
 21
846.1797529718
 31
0.0
  0
LINE
  5
E2
  8
1
  6
CONTINUOUS
 62
     7
 10
-426.4184892821
 20
792.4637016365
 30
0.0
 11
-426.4184892821
 21
844.9577039718
 31
0.0
  0
ARC
  5
E3
  8
1
  6
CONTINUOUS
 62
     7
 10
-297.9802646953
 20
847.1293799718
 30
0.0
 40
1.0
 50
90.0
 51
165.0
  0
ARC
  5
E4
  8
1
  6
CONTINUOUS
 62
     7
 10
-403.1063852821
 20
845.1452119718
 30
0.0
 40
2.0
 50
88.617267
 51
145.0
  0
ARC
  5
E5
  8
1
  6
CONTINUOUS
 62
     7
 10
-376.2982332821
 20
846.9988469718
 30
0.0
 40
0.5
 50
195.0
 51
268.617267
  0
LINE
  5
E6
  8
1
  6
CONTINUOUS
 62
     7
 10
-416.6154502821
 20
789.8164969718
 30
0.0
 11
-426.4184892821
 21
792.4637016365
 31
0.0
  0
LINE
  5
E7
  8
1
  6
CONTINUOUS
 62
     7
 10
-405.8803332821
 20
844.6704979718
 30
0.0
 11
-416.6154502821
 21
844.6704979718
 31
0.0
  0
LINE
  5
E8
  8
1
  6
CONTINUOUS
 62
     7
 10
-370.1298142821
 20
723.4704979718
 30
0.0
 11
-370.1298142821
 21
844.1704979718
 31
0.0
  0
CIRCLE
  5
E9
  8
1
  6
CONTINUOUS
 62
     7
 10
-284.7475916953
 20
783.7793799718
 30
0.0
 40
57.346375
  0
LINE
  5
EA
  8
1
  6
CONTINUOUS
 62
     7
 10
-374.3876852821
 20
845.1850919718
 30
0.0
 11
-374.8491282821
 21
845.9843359718
 31
0.0
  0
ARC
  5
EB
  8
1
  6
CONTINUOUS
 62
     7
 10
-373.0886462821
 20
721.7059039718
 30
0.0
 40
1.5
 50
95.0
 51
150.0
  0
LINE
  5
EC
  8
1
  6
CONTINUOUS
 62
     7
 10
-416.6154502821
 20
722.9704979718
 30
0.0
 11
-405.8803332821
 21
722.9704979718
 31
0.0
  0
LINE
  5
ED
  8
1
  6
CONTINUOUS
 62
     7
 10
-387.8847292821
 20
846.7783749718
 30
0.0
 11
-403.0581242821
 21
847.1446299718
 31
0.0
  0
ARC
  5
EE
  8
1
  6
CONTINUOUS
 62
     7
 10
-271.5149186953
 20
847.1293799718
 30
0.0
 40
1.0
 50
15.0
 51
90.0
  0
LINE
  5
EF
  8
1
  6
CONTINUOUS
 62
     7
 10
-405.8803332821
 20
722.9704979718
 30
0.0
 11
-404.7446892821
 21
721.3486309718
 31
0.0
  0
CIRCLE
  5
F0
  8
1
  6
CONTINUOUS
 62
     7
 10
-284.7475916953
 20
783.7793799718
 30
0.0
 40
51.0
  0
ARC
  5
F1
  8
1
  6
CONTINUOUS
 62
     7
 10
-284.7475916953
 20
783.7793799718
 30
0.0
 40
63.32413200000001
 50
103.461196
 51
76.53880400000003
  0
ARC
  5
F2
  8
1
  6
CONTINUOUS
 62
     7
 10
-290.2019476953
 20
838.1293799718
 30
0.0
 40
10.0
 50
79.524686
 51
90.0
  0
LINE
  5
F3
  8
1
  6
CONTINUOUS
 62
     7
 10
-416.6154502821
 20
777.8244989718
 30
0.0
 11
-416.6154502821
 21
789.8164969718
 31
0.0
  0
LINE
  5
F4
  8
1
  6
CONTINUOUS
 62
     7
 10
-269.9342386953
 20
845.0939039718
 30
0.0
 11
-270.5489926953
 21
847.3881989718
 31
0.0
  0
ARC
  5
F5
  8
1
  6
CONTINUOUS
 62
     7
 10
-403.1063852821
 20
722.4957839718
 30
0.0
 40
2.0
 50
215.0
 51
271.382733
  0
LINE
  5
F6
  8
1
  6
CONTINUOUS
 62
     7
 10
-425.5524642821
 20
793.0295749718
 30
0.0
 11
-425.5524642821
 21
843.9696079718
 31
0.0
  0
LINE
  5
F7
  8
1
  6
CENTER
 62
     5
 10
-284.7475916953
 20
864.3650948118
 30
0.0
 11
-284.7475916953
 21
711.9848420812
 31
0.0
  0
ARC
  5
F8
  8
1
  6
CONTINUOUS
 62
     7
 10
-385.6298142821
 20
854.5202799718
 30
0.0
 40
0.825
 50
232.694817
 51
270.0
  0
ARC
  5
F9
  8
1
  6
CONTINUOUS
 62
     7
 10
-425.0408392821
 20
774.5826019718
 30
0.0
 40
0.512436
 50
101.800975
 51
176.776043
  0
LINE
  5
FA
  8
1
  6
CONTINUOUS
 62
     7
 10
-425.5524642821
 20
723.6713879718
 30
0.0
 11
-416.6154502821
 21
722.9704979718
 31
0.0
  0
LINE
  5
FB
  8
1
  6
CONTINUOUS
 62
     7
 10
-416.6154502821
 20
722.9704979718
 30
0.0
 11
-426.1298142821
 21
721.9704979718
 31
0.0
  0
LINE
  5
FC
  8
1
  6
CONTINUOUS
 62
     7
 10
-380.6298142821
 20
851.9452799718
 30
0.0
 11
-383.6298142821
 21
851.9452799718
 31
0.0
  0
LINE
  5
FD
  8
1
  6
CONTINUOUS
 62
     7
 10
-386.1298142821
 20
853.8640589718
 30
0.0
 11
-386.1298142821
 21
856.5264999718
 31
0.0
  0
LINE
  5
FE
  8
1
  6
CONTINUOUS
 62
     7
 10
-385.6298142821
 20
856.6952799718
 30
0.0
 11
-378.6298142821
 21
856.6952799718
 31
0.0
  0
LINE
  5
FF
  8
1
  6
CONTINUOUS
 62
     7
 10
-416.6154502821
 20
777.8244989718
 30
0.0
 11
-426.4184892821
 21
775.1772943071
 31
0.0
  0
LINE
  5
100
  8
1
  6
CONTINUOUS
 62
     7
 10
-420.7172822821
 20
776.2707819718
 30
0.0
 11
-416.6154502821
 21
777.8244989718
 31
0.0
  0
LINE
  5
101
  8
1
  6
CONTINUOUS
 62
     7
 10
-426.4184892821
 20
775.1772943071
 30
0.0
 11
-426.4184892821
 21
722.6832919718
 31
0.0
  0
LINE
  5
102
  8
1
  6
CONTINUOUS
 62
     7
 10
-379.6298142821
 20
848.1952799718
 30
0.0
 11
-384.6298142821
 21
848.1952799718
 31
0.0
  0
LINE
  5
103
  8
1
  6
CONTINUOUS
 62
     7
 10
-380.6298142821
 20
851.4452799718
 30
0.0
 11
-383.6298142821
 21
851.4452799718
 31
0.0
  0
LINE
  5
104
  8
1
  6
CONTINUOUS
 62
     7
 10
-379.8798142821
 20
850.6952799718
 30
0.0
 11
-379.4187422821
 21
850.1952799718
 31
0.0
  0
LINE
  5
105
  8
1
  6
CONTINUOUS
 62
     7
 10
-384.8408862821
 20
850.1952799718
 30
0.0
 11
-384.3798142821
 21
850.6952799718
 31
0.0
  0
LINE
  5
106
  8
1
  6
CONTINUOUS
 62
     7
 10
-426.1298142821
 20
721.9704979718
 30
0.0
 11
-430.1298142821
 21
721.9704979718
 31
0.0
  0
LINE
  5
107
  8
1
  6
CONTINUOUS
 62
     7
 10
-379.6412252821
 20
848.1952799718
 30
0.0
 11
-379.4187422821
 21
848.6952799718
 31
0.0
  0
LINE
  5
108
  8
1
  6
CONTINUOUS
 62
     7
 10
-384.8408862821
 20
848.6952799718
 30
0.0
 11
-384.8408862821
 21
850.1952799718
 31
0.0
  0
LINE
  5
109
  8
1
  6
CONTINUOUS
 62
     7
 10
-426.4184892821
 20
774.7431470608
 30
0.0
 11
-420.7172822821
 21
776.2707819718
 31
0.0
  0
LINE
  5
10A
  8
1
  6
CONTINUOUS
 62
     7
 10
-426.4184892821
 20
722.6832919718
 30
0.0
 11
-425.5524642821
 21
723.6713879718
 31
0.0
  0
LINE
  5
10B
  8
1
  6
CONTINUOUS
 62
     7
 10
-384.8408862821
 20
848.6952799718
 30
0.0
 11
-384.6184032821
 21
848.1952799718
 31
0.0
  0
ARC
  5
10C
  8
1
  6
CONTINUOUS
 62
     7
 10
-378.6298142821
 20
855.8702799718
 30
0.0
 40
0.825
 50
52.694817
 51
90.0
  0
ARC
  5
10D
  8
1
  6
CONTINUOUS
 62
     7
 10
-279.2932356953
 20
838.1293799718
 30
0.0
 40
10.0
 50
90.0
 51
100.475314
  0
LINE
  5
10E
  8
1
  6
CONTINUOUS
 62
     7
 10
-379.3798142821
 20
853.1952799718
 30
0.0
 11
-379.3798142821
 21
853.6952799718
 31
0.0
  0
LINE
  5
10F
  8
1
  6
CONTINUOUS
 62
     7
 10
-378.1298142821
 20
856.5264999718
 30
0.0
 11
-378.1298142821
 21
853.8640589718
 31
0.0
  0
LINE
  5
110
  8
1
  6
CONTINUOUS
 62
     7
 10
-385.6298142821
 20
853.6952799718
 30
0.0
 11
-378.6298142821
 21
853.6952799718
 31
0.0
  0
LINE
  5
111
  8
1
  6
CONTINUOUS
 62
     7
 10
-425.5524642821
 20
774.6114209718
 30
0.0
 11
-425.5524642821
 21
723.6713879718
 31
0.0
  0
LINE
  5
112
  8
1
  6
CONTINUOUS
 62
     7
 10
-379.3798142821
 20
853.1952799718
 30
0.0
 11
-384.8798142821
 21
853.1952799718
 31
0.0
  0
ARC
  5
113
  8
1
  6
CONTINUOUS
 62
     7
 10
-378.6298142821
 20
854.5202799718
 30
0.0
 40
0.825
 50
270.0
 51
307.305183
  0
LINE
  5
114
  8
1
  6
CONTINUOUS
 62
     7
 10
-425.5524642821
 20
843.9696079718
 30
0.0
 11
-416.6154502821
 21
844.6704979718
 31
0.0
  0
ARC
  5
115
  8
1
  6
CONTINUOUS
 62
     7
 10
-385.6298142821
 20
855.8702799718
 30
0.0
 40
0.825
 50
90.0
 51
127.305183
  0
LINE
  5
116
  8
1
  6
CONTINUOUS
 62
     7
 10
-379.4187422821
 20
850.1952799718
 30
0.0
 11
-379.4187422821
 21
848.6952799718
 31
0.0
  0
LINE
  5
117
  8
1
  6
CENTER
 62
     5
 10
-868.6418082821
 20
709.3204979718
 30
0.0
 11
-868.6418082821
 21
858.3204979718
 31
0.0
  0
LINE
  5
118
  8
1
  6
CENTER
 62
     5
 10
-943.1418082821
 20
783.8204979718
 30
0.0
 11
-794.1418082821
 21
783.8204979718
 31
0.0
  0
ARC
  5
119
  8
1
  6
CONTINUOUS
 62
     7
 10
-425.0408392821
 20
968.8887376996
 30
0.0
 40
0.512436
 50
183.223957
 51
258.199025
  0
LINE
  5
11A
  8
1
  6
CONTINUOUS
 62
     7
 10
-405.8803332821
 20
898.8008416996
 30
0.0
 11
-405.8803332821
 21
1020.5008416996
 31
0.0
  0
LINE
  5
11B
  8
1
  6
CONTINUOUS
 62
     7
 10
-370.1298142821
 20
899.3008416996
 30
0.0
 11
-370.1298142821
 21
1020.0008416996
 31
0.0
  0
LINE
  5
11C
  8
1
  6
CONTINUOUS
 62
     7
 10
-403.0581242821
 20
896.3267096996
 30
0.0
 11
-375.6910232821
 21
896.9872956996
 31
0.0
  0
LINE
  5
11D
  8
1
  6
CONTINUOUS
 62
     7
 10
-425.5524642821
 20
968.8599186996
 30
0.0
 11
-425.5524642821
 21
1019.7999516996
 31
0.0
  0
LINE
  5
11E
  8
1
  6
CONTINUOUS
 62
     7
 10
-375.6910232821
 20
1022.3143876996
 30
0.0
 11
-403.0581242821
 21
1022.9749736996
 31
0.0
  0
ARC
  5
11F
  8
1
  6
CONTINUOUS
 62
     7
 10
-403.1063852821
 20
898.3261276996
 30
0.0
 40
2.0
 50
215.0
 51
271.382733
  0
ARC
  5
120
  8
1
  6
CONTINUOUS
 62
     7
 10
-375.7151532821
 20
1021.3146796996
 30
0.0
 40
1.0
 50
30.0
 51
88.617267
  0
ARC
  5
121
  8
1
  6
CONTINUOUS
 62
     7
 10
-403.1063852821
 20
1020.9755556996
 30
0.0
 40
2.0
 50
88.617267
 51
145.0
  0
LINE
  5
122
  8
1
  6
CONTINUOUS
 62
     7
 10
-416.6154502821
 20
953.6548426996
 30
0.0
 11
-416.6154502821
 21
965.6468406996
 31
0.0
  0
LINE
  5
123
  8
1
  6
CONTINUOUS
 62
     7
 10
-426.4184892821
 20
968.7281926106
 30
0.0
 11
-420.7172822821
 21
967.2005576996
 31
0.0
  0
LINE
  5
124
  8
1
  6
CONTINUOUS
 62
     7
 10
-426.4184892821
 20
968.2940453643
 30
0.0
 11
-426.4184892821
 21
1020.7880476996
 31
0.0
  0
LINE
  5
125
  8
1
  6
CONTINUOUS
 62
     7
 10
-416.6154502821
 20
965.6468406996
 30
0.0
 11
-426.4184892821
 21
968.2940453643
 31
0.0
  0
TEXT
  5
126
  8
1
  6
CONTINUOUS
 62
     5
 10
-302.9921252882017
 20
702.6909539090909
 30
0.0
 40
3.5
  1
ＬＰＫＨ－１０４Ｐ
 41
0.994002
 51
15.0
  0
INSERT
  5
128
  8
0
 62
     7
  2
D_FRAME_DRAWING_21
 10
0.0
 20
0.0
 30
0.0
  0
LINE
  5
172
  8
1
  6
CONTINUOUS
 62
     7
 10
-710.1298142821
 20
1016.1508416996
 30
0.0
 11
-712.1298142821
 21
1016.1508416996
 31
0.0
  0
LINE
  5
173
  8
1
  6
CONTINUOUS
 62
     7
 10
-732.6298142821
 20
1032.1400646996
 30
0.0
 11
-732.6298142821
 21
887.1508416996
 31
0.0
  0
LINE
  5
174
  8
1
  6
CONTINUOUS
 62
     7
 10
-709.6298142821
 20
901.1508416996
 30
0.0
 11
-706.6298142821
 21
901.1508416996
 31
0.0
  0
LINE
  5
175
  8
1
  6
CONTINUOUS
 62
     7
 10
-738.6298142821
 20
1031.1400646996
 30
0.0
 11
-738.6298142821
 21
888.1508416996
 31
0.0
  0
LINE
  5
176
  8
1
  6
CONTINUOUS
 62
     7
 10
-732.6298142821
 20
887.1508416996
 30
0.0
 11
-737.6298142821
 21
887.1508416996
 31
0.0
  0
LINE
  5
177
  8
1
  6
CONTINUOUS
 62
     7
 10
-709.6298142821
 20
901.1508416996
 30
0.0
 11
-709.6298142821
 21
1018.1508416996
 31
0.0
  0
ARC
  5
178
  8
1
  6
CONTINUOUS
 62
     7
 10
-710.1298142821
 20
902.6508416996
 30
0.0
 40
0.4999999999999449
 50
0.0
 51
90.0
  0
LINE
  5
179
  8
1
  6
CONTINUOUS
 62
     7
 10
-712.1298142821
 20
903.1508416996
 30
0.0
 11
-710.1298142821
 21
903.1508416996
 31
0.0
  0
ARC
  5
17A
  8
1
  6
CONTINUOUS
 62
     7
 10
-737.6298142821
 20
888.1508416996
 30
0.0
 40
1.000000000000001
 50
180.0
 51
270.0
  0
LINE
  5
17B
  8
1
  6
CONTINUOUS
 62
     7
 10
-706.6298142821
 20
1018.1508416996
 30
0.0
 11
-709.6298142821
 21
1018.1508416996
 31
0.0
  0
ARC
  5
17C
  8
1
  6
CONTINUOUS
 62
     7
 10
-710.1298142821
 20
1016.6508416996
 30
0.0
 40
0.4999999999999449
 50
270.0
 51
0.0
  0
LINE
  5
17D
  8
1
  6
CONTINUOUS
 62
     7
 10
-732.6298142821
 20
1032.1400656996
 30
0.0
 11
-715.9886770253001
 21
1035.3752400717
 31
0.0
  0
LINE
  5
17E
  8
1
  6
CONTINUOUS
 62
     7
 10
-732.6298142821
 20
887.1508416996
 30
0.0
 11
-721.1617452821001
 21
884.9216756996
 31
0.0
  0
LINE
  5
17F
  8
1
  6
CONTINUOUS
 62
     7
 10
-715.6298142821
 20
901.1508416996
 30
0.0
 11
-712.6298142821
 21
901.1508416996
 31
0.0
  0
LINE
  5
180
  8
1
  6
CONTINUOUS
 62
     7
 10
-737.6298142821
 20
1032.1400646996
 30
0.0
 11
-732.6298142821
 21
1032.1400646996
 31
0.0
  0
ARC
  5
181
  8
1
  6
CONTINUOUS
 62
     7
 10
-712.1298142821
 20
902.6508416996
 30
0.0
 40
0.4999999999999449
 50
90.0
 51
180.0
  0
LINE
  5
182
  8
1
  6
CONTINUOUS
 62
     7
 10
-712.6298142821
 20
901.1508416996
 30
0.0
 11
-712.6298142821
 21
1018.1508416996
 31
0.0
  0
LINE
  5
183
  8
1
  6
CONTINUOUS
 62
     7
 10
-712.6298142821
 20
1018.1508416996
 30
0.0
 11
-715.6298142821
 21
1018.1508416996
 31
0.0
  0
LINE
  5
184
  8
1
  6
CONTINUOUS
 62
     7
 10
-732.6298142821
 20
887.1616176996
 30
0.0
 11
-715.9886770253001
 21
883.9264433275
 31
0.0
  0
ARC
  5
185
  8
1
  6
CONTINUOUS
 62
     7
 10
-712.1298142821
 20
1016.6508416996
 30
0.0
 40
0.4999999999999449
 50
180.0
 51
270.0
  0
LINE
  5
186
  8
1
  6
CONTINUOUS
 62
     7
 10
-715.9886770253001
 20
1035.3752400717
 30
0.0
 11
-715.9886770253001
 21
883.9264433275
 31
0.0
  0
ARC
  5
187
  8
1
  6
CONTINUOUS
 62
     7
 10
-737.6298142821
 20
1031.1400646996
 30
0.0
 40
1.000000000000001
 50
90.0
 51
180.0
  0
LINE
  5
188
  8
1
  6
CONTINUOUS
 62
     7
 10
-703.6298142821
 20
1018.1508416996
 30
0.0
 11
-700.6298142821
 21
1018.1508416996
 31
0.0
  0
LINE
  5
189
  8
1
  6
CONTINUOUS
 62
     7
 10
-586.2096202821
 20
840.8204979718
 30
0.0
 11
-585.7690252821
 21
843.3202939718
 31
0.0
  0
LINE
  5
18A
  8
1
  6
CONTINUOUS
 62
     7
 10
-570.7688402821
 20
724.3210939718
 30
0.0
 11
-567.2688402821
 21
724.3210859718
 31
0.0
  0
LINE
  5
18B
  8
1
  6
CONTINUOUS
 62
     7
 10
-576.2096202821
 20
840.8204979718
 30
0.0
 11
-575.7690252821
 21
843.3202939718
 31
0.0
  0
LINE
  5
18C
  8
1
  6
CONTINUOUS
 62
     7
 10
-572.2690252821
 20
1019.1506456996
 30
0.0
 11
-575.7690252821
 21
1019.1506376996
 31
0.0
  0
LINE
  5
18D
  8
1
  6
CONTINUOUS
 62
     7
 10
-567.2691182821
 20
900.1511116996
 30
0.0
 11
-572.2690252821
 21
1019.1506456996
 31
0.0
  0
LINE
  5
18E
  8
1
  6
CONTINUOUS
 62
     7
 10
-575.7690252821
 20
1019.1506376996
 30
0.0
 11
-570.7691182821
 21
900.1511196996
 31
0.0
  0
LINE
  5
18F
  8
1
  6
CONTINUOUS
 62
     7
 10
-582.2690252821
 20
843.3203019718
 30
0.0
 11
-585.7690252821
 21
843.3202939718
 31
0.0
  0
LINE
  5
190
  8
1
  6
CONTINUOUS
 62
     7
 10
-571.3342562821
 20
726.8204979718
 30
0.0
 11
-570.7691182821
 21
724.3207759718
 31
0.0
  0
LINE
  5
191
  8
1
  6
CONTINUOUS
 62
     7
 10
-571.7034482821
 20
840.8204979718
 30
0.0
 11
-572.2690252821
 21
843.3203019718
 31
0.0
  0
LINE
  5
192
  8
1
  6
CONTINUOUS
 62
     7
 10
-571.7034482821
 20
1016.6508416996
 30
0.0
 11
-572.2690252821
 21
1019.1506456996
 31
0.0
  0
LINE
  5
193
  8
1
  6
CONTINUOUS
 62
     7
 10
-581.7034482821
 20
1016.6508416996
 30
0.0
 11
-582.2690252821
 21
1019.1506456996
 31
0.0
  0
LINE
  5
194
  8
1
  6
CONTINUOUS
 62
     7
 10
-580.7691182821
 20
900.1511196996
 30
0.0
 11
-577.2691182821
 21
900.1511116996
 31
0.0
  0
LINE
  5
195
  8
1
  6
CONTINUOUS
 62
     7
 10
-581.3342562821
 20
726.8204979718
 30
0.0
 11
-580.7691182821
 21
724.3207759718
 31
0.0
  0
LINE
  5
196
  8
1
  6
CONTINUOUS
 62
     7
 10
-566.8285222825
 20
726.8206392138
 30
0.0
 11
-567.2691182821
 21
724.3207679718
 31
0.0
  0
LINE
  5
197
  8
1
  6
CONTINUOUS
 62
     7
 10
-581.3342562821
 20
902.6508416996
 30
0.0
 11
-580.7691182821
 21
900.1511196996
 31
0.0
  0
LINE
  5
198
  8
1
  6
CONTINUOUS
 62
     7
 10
-582.2690252821
 20
1019.1506456996
 30
0.0
 11
-585.7690252821
 21
1019.1506376996
 31
0.0
  0
LINE
  5
199
  8
1
  6
CONTINUOUS
 62
     7
 10
-581.7034482821
 20
840.8204979718
 30
0.0
 11
-576.2096202821
 21
840.8204979718
 31
0.0
  0
LINE
  5
19A
  8
1
  6
CONTINUOUS
 62
     7
 10
-576.8285471760462
 20
726.8204979718
 30
0.0
 11
-571.3342562821
 21
726.8204979718
 31
0.0
  0
LINE
  5
19B
  8
1
  6
CONTINUOUS
 62
     7
 10
-575.7690252821
 20
843.3202939718
 30
0.0
 11
-570.7691182821
 21
724.3207759718
 31
0.0
  0
LINE
  5
19C
  8
1
  6
CONTINUOUS
 62
     7
 10
-577.2691182821
 20
724.3207679718
 30
0.0
 11
-582.2690252821
 21
843.3203019718
 31
0.0
  0
LINE
  5
19D
  8
1
  6
CONTINUOUS
 62
     7
 10
-586.2096202821
 20
1016.6508416996
 30
0.0
 11
-585.7690252821
 21
1019.1506376996
 31
0.0
  0
LINE
  5
19E
  8
1
  6
CONTINUOUS
 62
     7
 10
-577.2691182821
 20
900.1511116996
 30
0.0
 11
-582.2690252821
 21
1019.1506456996
 31
0.0
  0
LINE
  5
19F
  8
1
  6
CONTINUOUS
 62
     7
 10
-585.7690252821
 20
1019.1506376996
 30
0.0
 11
-580.7691182821
 21
900.1511196996
 31
0.0
  0
LINE
  5
1A0
  8
1
  6
CONTINUOUS
 62
     7
 10
-581.7034482821
 20
1016.6508416996
 30
0.0
 11
-576.2096202821
 21
1016.6508416996
 31
0.0
  0
LINE
  5
1A1
  8
1
  6
CONTINUOUS
 62
     7
 10
-567.2691182821
 20
724.3207679718
 30
0.0
 11
-572.2690252821
 21
843.3203019718
 31
0.0
  0
LINE
  5
1A2
  8
1
  6
CONTINUOUS
 62
     7
 10
-572.2690252821
 20
843.3203019718
 30
0.0
 11
-575.7690252821
 21
843.3202939718
 31
0.0
  0
LINE
  5
1A3
  8
1
  6
CONTINUOUS
 62
     7
 10
-576.2096202821
 20
1016.6508416996
 30
0.0
 11
-575.7690252821
 21
1019.1506376996
 31
0.0
  0
LINE
  5
1A4
  8
1
  6
CONTINUOUS
 62
     7
 10
-580.7688402821
 20
724.3210939718
 30
0.0
 11
-577.2688402821
 21
724.3210859718
 31
0.0
  0
LINE
  5
1A5
  8
1
  6
CONTINUOUS
 62
     7
 10
-576.8285222825
 20
726.8206392138
 30
0.0
 11
-577.2691182821
 21
724.3207679718
 31
0.0
  0
LINE
  5
1A6
  8
1
  6
CONTINUOUS
 62
     7
 10
-585.7690252821
 20
843.3202939718
 30
0.0
 11
-580.7691182821
 21
724.3207759718
 31
0.0
  0
LINE
  5
1A7
  8
1
  6
CONTINUOUS
 62
     7
 10
-581.7034482821
 20
840.8204979718
 30
0.0
 11
-582.2690252821
 21
843.3203019718
 31
0.0
  0
LINE
  5
1A8
  8
1
  6
CONTINUOUS
 62
     7
 10
-571.3342562821
 20
902.6508416996
 30
0.0
 11
-570.7691182821
 21
900.1511196996
 31
0.0
  0
LINE
  5
1A9
  8
1
  6
CONTINUOUS
 62
     7
 10
-576.8285471760462
 20
902.6508416996
 30
0.0
 11
-571.3342562821
 21
902.6508416996
 31
0.0
  0
LINE
  5
1AA
  8
1
  6
CONTINUOUS
 62
     7
 10
-566.8285222825
 20
902.6509829416
 30
0.0
 11
-567.2691182821
 21
900.1511116996
 31
0.0
  0
LINE
  5
1AB
  8
1
  6
CONTINUOUS
 62
     7
 10
-576.8285222825
 20
902.6509829416
 30
0.0
 11
-577.2691182821
 21
900.1511116996
 31
0.0
  0
LINE
  5
1AC
  8
1
  6
CONTINUOUS
 62
     7
 10
-570.7691182821
 20
900.1511196996
 30
0.0
 11
-567.2691182821
 21
900.1511116996
 31
0.0
  0
LINE
  5
1AD
  8
1
  6
CONTINUOUS
 62
     7
 10
-430.1298142821
 20
890.6508416996
 30
0.0
 11
-433.1298142821
 21
890.6508416996
 31
0.0
  0
ARC
  5
1AE
  8
1
  6
CONTINUOUS
 62
     7
 10
-439.6297542821
 20
959.6511036996
 30
0.0
 40
1.74994
 50
0.0
 51
180.0
  0
LINE
  5
1AF
  8
1
  6
CONTINUOUS
 62
     7
 10
-455.1298142821
 20
1022.5979016996
 30
0.0
 11
-455.1298142821
 21
1023.7366276996
 31
0.0
  0
LINE
  5
1B0
  8
1
  6
CONTINUOUS
 62
     7
 10
-455.1298142821
 20
963.3167756996
 30
0.0
 11
-455.1298142821
 21
955.9849076996
 31
0.0
  0
LINE
  5
1B1
  8
1
  6
CONTINUOUS
 62
     7
 10
-435.7278902821
 20
1027.1508416996
 30
0.0
 11
-451.7156002821
 21
1027.1508416996
 31
0.0
  0
LINE
  5
1B2
  8
1
  6
CONTINUOUS
 62
     7
 10
-454.1298142821
 20
1022.5440916996
 30
0.0
 11
-436.1298142821
 21
1022.5440916996
 31
0.0
  0
LINE
  5
1B3
  8
1
  6
CONTINUOUS
 62
     7
 10
-435.1298142821
 20
965.1165336996
 30
0.0
 11
-435.1298142821
 21
1026.5712736996
 31
0.0
  0
ARC
  5
1B4
  8
1
  6
CONTINUOUS
 62
     7
 10
-562.6298142821
 20
898.6508416996
 30
0.0
 40
2.0
 50
180.0
 51
270.0
  0
ARC
  5
1B5
  8
1
  6
CONTINUOUS
 62
     7
 10
-433.1298142821
 20
892.6508416996
 30
0.0
 40
2.0
 50
209.9999999993999
 51
270.0
  0
LINE
  5
1B6
  8
1
  6
CONTINUOUS
 62
     7
 10
-564.6298142821
 20
1020.6508416996
 30
0.0
 11
-564.6298142821
 21
898.6508416996
 31
0.0
  0
ARC
  5
1B7
  8
1
  6
CONTINUOUS
 62
     7
 10
-436.1298142821
 20
965.1508416996
 30
0.0
 40
1.0
 50
270.0
 51
0.0
  0
LINE
  5
1B8
  8
1
  6
CONTINUOUS
 62
     7
 10
-455.1298142821
 20
1022.6508416996
 30
0.0
 11
-562.6298142821
 21
1022.6508416996
 31
0.0
  0
ARC
  5
1B9
  8
1
  6
CONTINUOUS
 62
     7
 10
-451.7156002821
 20
1026.1508416996
 30
0.0
 40
1.0
 50
90.0
 51
135.0
  0
LINE
  5
1BA
  8
1
  6
CONTINUOUS
 62
     7
 10
-455.1298142821
 20
955.9849076996
 30
0.0
 11
-442.2395922821
 21
955.9849076996
 31
0.0
  0
ARC
  5
1BB
  8
1
  6
CONTINUOUS
 62
     7
 10
-439.6297562821
 20
959.6509456996
 30
0.0
 40
4.500104
 50
234.5533901466999
 51
269.9992609998
  0
ARC
  5
1BC
  8
1
  6
CONTINUOUS
 62
     7
 10
-451.7156002821
 20
893.1508416996
 30
0.0
 40
1.0
 50
225.0
 51
270.0
  0
LINE
  5
1BD
  8
1
  6
CONTINUOUS
 62
     7
 10
-430.1298142821
 20
1028.6508416996
 30
0.0
 11
-433.1298142821
 21
1028.6508416996
 31
0.0
  0
ARC
  5
1BE
  8
1
  6
CONTINUOUS
 62
     7
 10
-433.1298142821
 20
1026.6508416996
 30
0.0
 40
2.0
 50
90.0
 51
150.0000000006
  0
LINE
  5
1BF
  8
1
  6
CONTINUOUS
 62
     7
 10
-452.4227082821
 20
1026.8579476996
 30
0.0
 11
-454.8369222821
 21
1024.4437356996
 31
0.0
  0
LINE
  5
1C0
  8
1
  6
CONTINUOUS
 62
     7
 10
-435.7278902821
 20
892.1508416996
 30
0.0
 11
-451.7156002821
 21
892.1508416996
 31
0.0
  0
ARC
  5
1C1
  8
1
  6
CONTINUOUS
 62
     7
 10
-435.7278902821
 20
891.1508416996
 30
0.0
 40
1.0
 50
29.9999999999
 51
90.0
  0
ARC
  5
1C2
  8
1
  6
CONTINUOUS
 62
     7
 10
-454.1298142821
 20
895.5650556996
 30
0.0
 40
1.0
 50
180.0
 51
225.0000000015
  0
LINE
  5
1C3
  8
1
  6
CONTINUOUS
 62
     7
 10
-454.1298142821
 20
1022.5440916996
 30
0.0
 11
-455.1298142821
 21
1022.5979016996
 31
0.0
  0
LINE
  5
1C4
  8
1
  6
CONTINUOUS
 62
     7
 10
-439.6298142821
 20
955.1508416996
 30
0.0
 11
-436.1298142821
 21
955.1508416996
 31
0.0
  0
LINE
  5
1C5
  8
1
  6
CONTINUOUS
 62
     7
 10
-454.1298142821
 20
896.7575916996
 30
0.0
 11
-455.1298142821
 21
896.7037816996
 31
0.0
  0
LINE
  5
1C6
  8
1
  6
CONTINUOUS
 62
     7
 10
-452.4227082821
 20
892.4437356996
 30
0.0
 11
-454.8369222821
 21
894.8579476996
 31
0.0
  0
LINE
  5
1C7
  8
1
  6
CONTINUOUS
 62
     7
 10
-455.1298142821
 20
896.7037816996
 30
0.0
 11
-455.1298142821
 21
895.5650556996
 31
0.0
  0
ARC
  5
1C8
  8
1
  6
CONTINUOUS
 62
     7
 10
-436.1298142821
 20
954.1508416996
 30
0.0
 40
1.0
 50
0.0
 51
90.0
  0
ARC
  5
1C9
  8
1
  6
CONTINUOUS
 62
     7
 10
-435.7278902821
 20
1028.1508416996
 30
0.0
 40
1.0
 50
270.0
 51
330.0000000001
  0
ARC
  5
1CA
  8
1
  6
CONTINUOUS
 62
     7
 10
-562.6298142821
 20
1020.6508416996
 30
0.0
 40
2.0
 50
90.0
 51
180.0
  0
LINE
  5
1CB
  8
1
  6
CONTINUOUS
 62
     7
 10
-455.1298142821
 20
896.6508416996
 30
0.0
 11
-562.6298142821
 21
896.6508416996
 31
0.0
  0
LINE
  5
1CC
  8
1
  6
CONTINUOUS
 62
     7
 10
-439.6298142821
 20
964.1508416996
 30
0.0
 11
-436.1298142821
 21
964.1508416996
 31
0.0
  0
LINE
  5
1CD
  8
1
  6
CONTINUOUS
 62
     7
 10
-435.1298142821
 20
954.1851496996
 30
0.0
 11
-435.1298142821
 21
892.7304096996
 31
0.0
  0
ARC
  5
1CE
  8
1
  6
CONTINUOUS
 62
     7
 10
-439.6297542821
 20
959.6505796996
 30
0.0
 40
1.74994
 50
179.9914217093
 51
0.0
  0
ARC
  5
1CF
  8
1
  6
CONTINUOUS
 62
     7
 10
-439.6297562821
 20
959.6507376996
 30
0.0
 40
4.500104
 50
90.0007390002
 51
125.4466098533
  0
ARC
  5
1D0
  8
1
  6
CONTINUOUS
 62
     7
 10
-454.1298142821
 20
1023.7366276996
 30
0.0
 40
1.0
 50
134.9999999985
 51
180.0
  0
LINE
  5
1D1
  8
1
  6
CONTINUOUS
 62
     7
 10
-454.1298142821
 20
896.7575916996
 30
0.0
 11
-436.1298142821
 21
896.7575916996
 31
0.0
  0
LINE
  5
1D2
  8
1
  6
CONTINUOUS
 62
     7
 10
-430.1298142821
 20
890.6508416996
 30
0.0
 11
-430.1298142821
 21
1028.6508416996
 31
0.0
  0
LINE
  5
1D3
  8
1
  6
CONTINUOUS
 62
     7
 10
-455.1298142821
 20
963.3167756996
 30
0.0
 11
-442.2395922821
 21
963.3167756996
 31
0.0
  0
LINE
  5
1D4
  8
1
  6
CONTINUOUS
 62
     7
 10
-565.6298142821
 20
1016.4508416996
 30
0.0
 11
-564.6298142821
 21
1016.4508416996
 31
0.0
  0
LINE
  5
1D5
  8
1
  6
CONTINUOUS
 62
     7
 10
-564.6298142821
 20
902.8508416996
 30
0.0
 11
-565.6298142821
 21
902.8508416996
 31
0.0
  0
LINE
  5
1D6
  8
1
  6
CONTINUOUS
 62
     7
 10
-454.1298142821
 20
846.7137479718
 30
0.0
 11
-436.1298142821
 21
846.7137479718
 31
0.0
  0
LINE
  5
1D7
  8
1
  6
CONTINUOUS
 62
     7
 10
-455.1298142821
 20
846.8204979718
 30
0.0
 11
-562.6298142821
 21
846.8204979718
 31
0.0
  0
ARC
  5
1D8
  8
1
  6
CONTINUOUS
 62
     7
 10
-562.6298142821
 20
844.8204979718
 30
0.0
 40
2.0
 50
90.0
 51
180.0
  0
ARC
  5
1D9
  8
1
  6
CONTINUOUS
 62
     7
 10
-454.1298142821
 20
847.9062839718
 30
0.0
 40
1.0
 50
134.9999999985
 51
180.0
  0
LINE
  5
1DA
  8
1
  6
CONTINUOUS
 62
     7
 10
-454.1298142821
 20
846.7137479718
 30
0.0
 11
-455.1298142821
 21
846.7675579718
 31
0.0
  0
LINE
  5
1DB
  8
1
  6
CONTINUOUS
 62
     7
 10
-430.1298142821
 20
852.8204979718
 30
0.0
 11
-433.1298142821
 21
852.8204979718
 31
0.0
  0
LINE
  5
1DC
  8
1
  6
CONTINUOUS
 62
     7
 10
-455.1298142821
 20
846.7675579718
 30
0.0
 11
-455.1298142821
 21
847.9062839718
 31
0.0
  0
ARC
  5
1DD
  8
1
  6
CONTINUOUS
 62
     7
 10
-436.1298142821
 20
789.3204979718
 30
0.0
 40
1.0
 50
270.0
 51
0.0
  0
ARC
  5
1DE
  8
1
  6
CONTINUOUS
 62
     7
 10
-433.1298142821
 20
850.8204979718
 30
0.0
 40
2.0
 50
90.0
 51
150.0000000006
  0
LINE
  5
1DF
  8
1
  6
CONTINUOUS
 62
     7
 10
-566.8285471760461
 20
902.6508416996
 30
0.0
 11
-565.6298142821
 21
902.6508416996
 31
0.0
  0
LINE
  5
1E0
  8
1
  6
CONTINUOUS
 62
     7
 10
-571.7034482821
 20
1016.6508416996
 30
0.0
 11
-565.6298142821
 21
1016.6508416996
 31
0.0
  0
LINE
  5
1E1
  8
1
  6
CONTINUOUS
 62
     7
 10
-571.7034482821
 20
840.8204979718
 30
0.0
 11
-565.6298142821
 21
840.8204979718
 31
0.0
  0
LINE
  5
1E2
  8
1
  6
CONTINUOUS
 62
     7
 10
-383.4298142821
 20
969.1508416996
 30
0.0
 11
-384.2349172821
 21
969.1508416996
 31
0.0
  0
CIRCLE
  5
1E3
  8
1
  6
CONTINUOUS
 62
     7
 10
-382.1298142821
 20
968.6508416996
 30
0.0
 40
3.5
  0
ARC
  5
1E4
  8
1
  6
CONTINUOUS
 62
     7
 10
-383.4298142821
 20
969.9508416996
 30
0.0
 40
0.8
 50
331.044976
 51
0.0
  0
ARC
  5
1E5
  8
1
  6
CONTINUOUS
 62
     7
 10
-380.8298142821
 20
969.9508416996
 30
0.0
 40
0.8
 50
180.0
 51
208.955024
  0
LINE
  5
1E6
  8
1
  6
CONTINUOUS
 62
     7
 10
-374.8491282821
 20
897.4870036996
 30
0.0
 11
-374.3876852821
 21
898.2862476996
 31
0.0
  0
LINE
  5
1E7
  8
1
  6
CONTINUOUS
 62
     7
 10
-416.6154502821
 20
1020.5008416996
 30
0.0
 11
-426.1298142821
 21
1021.5008416996
 31
0.0
  0
ARC
  5
1E8
  8
1
  6
CONTINUOUS
 62
     7
 10
-503.8969352821
 20
956.5382276996
 30
0.0
 40
116.423906
 50
357.100781
 51
357.332277
  0
LINE
  5
1E9
  8
1
  6
CONTINUOUS
 62
     7
 10
-426.1298142821
 20
1021.5008416996
 30
0.0
 11
-430.1298142821
 21
1021.5008416996
 31
0.0
  0
ARC
  5
1EA
  8
1
  6
CONTINUOUS
 62
     7
 10
-375.7151532821
 20
897.9870036996
 30
0.0
 40
1.0
 50
271.382733
 51
330.0
  0
ARC
  5
1EB
  8
1
  6
CONTINUOUS
 62
     7
 10
-382.1298142821
 20
968.6508416996
 30
0.0
 40
2.163668
 50
166.6388
 51
193.3612
  0
ARC
  5
1EC
  8
1
  6
CONTINUOUS
 62
     7
 10
-383.4298252821
 20
967.3508226996
 30
0.0
 40
0.800019
 50
28.955831
 51
89.999193
  0
LINE
  5
1ED
  8
1
  6
CONTINUOUS
 62
     7
 10
-382.7298142821
 20
965.2984466996
 30
0.0
 11
-382.7298142821
 21
967.7381396996
 31
0.0
  0
LINE
  5
1EE
  8
1
  6
CONTINUOUS
 62
     7
 10
-416.6154502821
 20
898.8008416996
 30
0.0
 11
-405.8803332821
 21
898.8008416996
 31
0.0
  0
LINE
  5
1EF
  8
1
  6
CONTINUOUS
 62
     7
 10
-380.8298142821
 20
968.1508416996
 30
0.0
 11
-380.0247112821
 21
968.1508416996
 31
0.0
  0
LINE
  5
1F0
  8
1
  6
CONTINUOUS
 62
     7
 10
-425.5524642821
 20
1019.7999516996
 30
0.0
 11
-416.6154502821
 21
1020.5008416996
 31
0.0
  0
ARC
  5
1F1
  8
1
  6
CONTINUOUS
 62
     7
 10
-570.6994912821
 20
959.6508416996
 30
0.0
 40
183.298938
 50
357.332277
 51
359.198933
  0
LINE
  5
1F2
  8
1
  6
CONTINUOUS
 62
     7
 10
-373.2193802821
 20
899.0305396996
 30
0.0
 11
-370.1298142821
 21
899.3008416996
 31
0.0
  0
ARC
  5
1F3
  8
1
  6
CONTINUOUS
 62
     7
 10
-373.0886462821
 20
897.5362476996
 30
0.0
 40
1.5
 50
95.0
 51
150.0
  0
ARC
  5
1F4
  8
1
  6
CONTINUOUS
 62
     7
 10
-383.4298242821
 20
969.9508586996
 30
0.0
 40
0.800017
 50
270.000699
 51
331.0442760000001
  0
LINE
  5
1F5
  8
1
  6
CONTINUOUS
 62
     7
 10
-381.5298142821
 20
967.7381396996
 30
0.0
 11
-381.5298142821
 21
965.2984466996
 31
0.0
  0
LINE
  5
1F6
  8
1
  6
CONTINUOUS
 62
     7
 10
-380.0247112821
 20
969.1508416996
 30
0.0
 11
-380.8298142821
 21
969.1508416996
 31
0.0
  0
ARC
  5
1F7
  8
1
  6
CONTINUOUS
 62
     7
 10
-380.8298042821
 20
967.3508246996
 30
0.0
 40
0.800017
 50
90.000699
 51
151.044276
  0
LINE
  5
1F8
  8
1
  6
CONTINUOUS
 62
     7
 10
-420.7172822821
 20
967.2005576996
 30
0.0
 11
-416.6154502821
 21
965.6468406996
 31
0.0
  0
ARC
  5
1F9
  8
1
  6
CONTINUOUS
 62
     7
 10
-383.4298142821
 20
967.3508416996
 30
0.0
 40
0.8
 50
0.0
 51
28.955024
  0
LINE
  5
1FA
  8
1
  6
CONTINUOUS
 62
     7
 10
-378.7053082821
 20
966.0091796996
 30
0.0
 11
-381.5543202821
 21
964.3643006996
 31
0.0
  0
ARC
  5
1FB
  8
1
  6
CONTINUOUS
 62
     7
 10
-570.6994912821
 20
959.6508416996
 30
0.0
 40
183.298938
 50
0.8010669999999999
 51
2.667723
  0
LINE
  5
1FC
  8
1
  6
CONTINUOUS
 62
     7
 10
-405.8803332821
 20
898.8008416996
 30
0.0
 11
-404.7446892821
 21
897.1789746996
 31
0.0
  0
LINE
  5
1FD
  8
1
  6
CONTINUOUS
 62
     7
 10
-386.1298142821
 20
967.0059636996
 30
0.0
 11
-386.1298142821
 21
970.2957196996
 31
0.0
  0
ARC
  5
1FE
  8
1
  6
CONTINUOUS
 62
     7
 10
-382.1298142821
 20
968.6508416996
 30
0.0
 40
4.325
 50
142.353426
 51
157.646574
  0
ARC
  5
1FF
  8
1
  6
CONTINUOUS
 62
     7
 10
-382.1298142821
 20
968.6508416996
 30
0.0
 40
4.325
 50
322.353426
 51
337.646574
  0
ARC
  5
200
  8
1
  6
CONTINUOUS
 62
     7
 10
-382.1298142821
 20
968.6508416996
 30
0.0
 40
4.325
 50
82.353426
 51
97.646574
  0
ARC
  5
201
  8
1
  6
CONTINUOUS
 62
     7
 10
-380.8298142821
 20
967.3508416996
 30
0.0
 40
0.8
 50
151.044976
 51
180.0
  0
LINE
  5
202
  8
1
  6
CONTINUOUS
 62
     7
 10
-381.5543202821
 20
972.9373826996
 30
0.0
 11
-378.7053082821
 21
971.2925036996
 31
0.0
  0
ARC
  5
203
  8
1
  6
CONTINUOUS
 62
     7
 10
-262.5883312821
 20
956.5997666996
 30
0.0
 40
114.122097
 50
182.667723
 51
182.988713
  0
ARC
  5
204
  8
1
  6
CONTINUOUS
 62
     7
 10
-382.1298142821
 20
968.6508416996
 30
0.0
 40
4.325
 50
22.353426
 51
37.646574
  0
LINE
  5
205
  8
1
  6
CONTINUOUS
 62
     7
 10
-378.1298142821
 20
970.2957196996
 30
0.0
 11
-378.1298142821
 21
967.0059636996
 31
0.0
  0
LINE
  5
206
  8
1
  6
CONTINUOUS
 62
     7
 10
-404.7446892821
 20
1022.1227086996
 30
0.0
 11
-405.8803332821
 21
1020.5008416996
 31
0.0
  0
ARC
  5
207
  8
1
  6
CONTINUOUS
 62
     7
 10
-373.0886462821
 20
1021.7654356996
 30
0.0
 40
1.5
 50
210.0
 51
265.0
  0
ARC
  5
208
  8
1
  6
CONTINUOUS
 62
     7
 10
-382.1298142821
 20
968.6508416996
 30
0.0
 40
4.325
 50
202.353426
 51
217.646574
  0
ARC
  5
209
  8
1
  6
CONTINUOUS
 62
     7
 10
-503.8969352821
 20
962.7634556996
 30
0.0
 40
116.423906
 50
2.667723
 51
2.899218999999999
  0
LINE
  5
20A
  8
1
  6
CONTINUOUS
 62
     7
 10
-385.5543202821
 20
971.2925036996
 30
0.0
 11
-382.7053082821
 21
972.9373826996
 31
0.0
  0
LINE
  5
20B
  8
1
  6
CONTINUOUS
 62
     7
 10
-370.1298142821
 20
1020.0008416996
 30
0.0
 11
-373.2193802821
 21
1020.2711436996
 31
0.0
  0
LINE
  5
20C
  8
1
  6
CONTINUOUS
 62
     7
 10
-381.5298142821
 20
972.0032366996
 30
0.0
 11
-381.5298142821
 21
969.5635436996
 31
0.0
  0
ARC
  5
20D
  8
1
  6
CONTINUOUS
 62
     7
 10
-382.1298142821
 20
968.6508416996
 30
0.0
 40
4.325
 50
262.353426
 51
277.646574
  0
LINE
  5
20E
  8
1
  6
CONTINUOUS
 62
     7
 10
-426.4184892821
 20
1020.7880476996
 30
0.0
 11
-425.5524642821
 21
1019.7999516996
 31
0.0
  0
LINE
  5
20F
  8
1
  6
CONTINUOUS
 62
     7
 10
-382.7053082821
 20
964.3643006996
 30
0.0
 11
-385.5543202821
 21
966.0091796996
 31
0.0
  0
LINE
  5
210
  8
1
  6
CONTINUOUS
 62
     7
 10
-387.4203342821
 20
962.2134796996
 30
0.0
 11
-387.4203342821
 21
957.0882036996
 31
0.0
  0
LINE
  5
211
  8
1
  6
CONTINUOUS
 62
     7
 10
-374.3876852821
 20
1021.0154356996
 30
0.0
 11
-374.8491282821
 21
1021.8146796996
 31
0.0
  0
LINE
  5
212
  8
1
  6
CONTINUOUS
 62
     7
 10
-405.8803332821
 20
1020.5008416996
 30
0.0
 11
-416.6154502821
 21
1020.5008416996
 31
0.0
  0
ARC
  5
213
  8
1
  6
CONTINUOUS
 62
     7
 10
-382.0884732821
 20
969.1400856996
 30
0.0
 40
5.579893
 50
354.969853
 51
185.0301469999999
  0
ARC
  5
214
  8
1
  6
CONTINUOUS
 62
     7
 10
-197.1065242821
 20
959.6508416996
 30
0.0
 40
179.674947
 50
177.332277
 51
182.667723
  0
ARC
  5
215
  8
1
  6
CONTINUOUS
 62
     7
 10
-262.5883312821
 20
962.7019166996
 30
0.0
 40
114.122097
 50
177.011287
 51
177.332277
  0
LINE
  5
216
  8
1
  6
CONTINUOUS
 62
     7
 10
-382.7298142821
 20
969.5635436996
 30
0.0
 11
-382.7298142821
 21
972.0032366996
 31
0.0
  0
LINE
  5
217
  8
1
  6
CONTINUOUS
 62
     7
 10
-384.2349172821
 20
968.1508416996
 30
0.0
 11
-383.4298142821
 21
968.1508416996
 31
0.0
  0
ARC
  5
218
  8
1
  6
CONTINUOUS
 62
     7
 10
-382.1298142821
 20
968.6508416996
 30
0.0
 40
2.163668
 50
346.6387999999999
 51
13.3612
  0
ARC
  5
219
  8
1
  6
CONTINUOUS
 62
     7
 10
-382.0884732821
 20
950.1615976996
 30
0.0
 40
5.579893
 50
174.969853
 51
5.030146999999999
  0
ARC
  5
21A
  8
1
  6
CONTINUOUS
 62
     7
 10
-380.8298032821
 20
969.9508606996
 30
0.0
 40
0.800019
 50
208.955831
 51
269.999193
  0
LINE
  5
21B
  8
1
  6
CONTINUOUS
 62
     7
 10
-382.7298142821
 20
951.5635436996
 30
0.0
 11
-382.7298142821
 21
954.0032366996
 31
0.0
  0
LINE
  5
21C
  8
1
  6
CONTINUOUS
 62
     7
 10
-627.6298142821
 20
887.2255966996
 30
0.0
 11
-627.6298142821
 21
906.1110296996
 31
0.0
  0
LINE
  5
21D
  8
1
  6
CONTINUOUS
 62
     7
 10
-603.1298142821001
 20
955.8820586996
 30
0.0
 11
-603.1298142821001
 21
955.8889576996
 31
0.0
  0
LINE
  5
21E
  8
1
  6
CONTINUOUS
 62
     7
 10
-703.6298142821
 20
1018.1508416996
 30
0.0
 11
-703.6298142821
 21
901.1508416996
 31
0.0
  0
LINE
  5
21F
  8
1
  6
CONTINUOUS
 62
     7
 10
-704.1298142821
 20
903.1508416996
 30
0.0
 11
-706.1298142821
 21
903.1508416996
 31
0.0
  0
ARC
  5
220
  8
1
  6
CONTINUOUS
 62
     7
 10
-700.1298142821
 20
902.6508416996
 30
0.0
 40
0.4999999999999449
 50
90.0
 51
180.0
  0
LINE
  5
221
  8
1
  6
CONTINUOUS
 62
     7
 10
-700.6298142821
 20
901.1508416996
 30
0.0
 11
-703.6298142821
 21
901.1508416996
 31
0.0
  0
ARC
  5
222
  8
1
  6
CONTINUOUS
 62
     7
 10
-704.1298142821
 20
902.6508416996
 30
0.0
 40
0.4999999999999449
 50
0.0
 51
90.0
  0
LINE
  5
223
  8
1
  6
CONTINUOUS
 62
     7
 10
-706.1298142821
 20
1016.1508416996
 30
0.0
 11
-704.1298142821
 21
1016.1508416996
 31
0.0
  0
LINE
  5
224
  8
1
  6
CONTINUOUS
 62
     7
 10
-565.6298142821
 20
902.6508416996
 30
0.0
 11
-565.6298142821
 21
1016.6508416996
 31
0.0
  0
ARC
  5
225
  8
1
  6
CONTINUOUS
 62
     7
 10
-698.1298142821
 20
1016.6508416996
 30
0.0
 40
0.4999999999999449
 50
270.0
 51
0.0
  0
ARC
  5
226
  8
1
  6
CONTINUOUS
 62
     7
 10
-698.1298142821
 20
902.6508416996
 30
0.0
 40
0.4999999999999449
 50
0.0
 51
90.0
  0
LINE
  5
227
  8
1
  6
CONTINUOUS
 62
     7
 10
-700.6298142821
 20
1018.1508416996
 30
0.0
 11
-700.6298142821
 21
901.1508416996
 31
0.0
  0
LINE
  5
228
  8
1
  6
CONTINUOUS
 62
     7
 10
-591.7034482821
 20
1016.6508416996
 30
0.0
 11
-586.2096202821
 21
1016.6508416996
 31
0.0
  0
LINE
  5
229
  8
1
  6
CONTINUOUS
 62
     7
 10
-586.8285471760462
 20
902.6508416996
 30
0.0
 11
-581.3342562821
 21
902.6508416996
 31
0.0
  0
LINE
  5
22A
  8
1
  6
CONTINUOUS
 62
     7
 10
-627.6298142821
 20
962.9423246996
 30
0.0
 11
-627.6298142821
 21
1008.5357936996
 31
0.0
  0
LINE
  5
22B
  8
1
  6
CONTINUOUS
 62
     7
 10
-697.6298142821
 20
1019.1508416996
 30
0.0
 11
-692.6298142821
 21
1019.1508416996
 31
0.0
  0
LINE
  5
22C
  8
1
  6
CONTINUOUS
 62
     7
 10
-698.1298142821
 20
903.1508416996
 30
0.0
 11
-700.1298142821
 21
903.1508416996
 31
0.0
  0
LINE
  5
22D
  8
1
  6
CONTINUOUS
 62
     7
 10
-627.6298142821
 20
910.7658896996
 30
0.0
 11
-627.6298142821
 21
956.3593586996
 31
0.0
  0
LINE
  5
22E
  8
1
  6
CONTINUOUS
 62
     7
 10
-600.1298142821001
 20
890.1508416996
 30
0.0
 11
-600.1298142821001
 21
1029.1508416996
 31
0.0
  0
LINE
  5
22F
  8
1
  6
CONTINUOUS
 62
     7
 10
-706.6298142821
 20
1018.1508416996
 30
0.0
 11
-706.6298142821
 21
901.1508416996
 31
0.0
  0
LINE
  5
230
  8
1
  6
CONTINUOUS
 62
     7
 10
-692.6298142821
 20
900.1508416996
 30
0.0
 11
-692.6298142821
 21
949.7155606996
 31
0.0
  0
ARC
  5
231
  8
1
  6
CONTINUOUS
 62
     7
 10
-706.1298142821
 20
902.6508416996
 30
0.0
 40
0.4999999999999449
 50
90.0
 51
180.0
  0
LINE
  5
232
  8
1
  6
CONTINUOUS
 62
     7
 10
-697.6298142821
 20
1019.1508416996
 30
0.0
 11
-697.6298142821
 21
900.1508416996
 31
0.0
  0
LINE
  5
233
  8
1
  6
CONTINUOUS
 62
     7
 10
-692.6298142821
 20
900.1508416996
 30
0.0
 11
-697.6298142821
 21
900.1508416996
 31
0.0
  0
ARC
  5
234
  8
1
  6
CONTINUOUS
 62
     7
 10
-700.1298142821
 20
1016.6508416996
 30
0.0
 40
0.4999999999999449
 50
180.0
 51
270.0
  0
LINE
  5
235
  8
1
  6
CONTINUOUS
 62
     7
 10
-590.7688402821
 20
900.1514376996
 30
0.0
 11
-587.2688402821
 21
900.1514296996
 31
0.0
  0
ARC
  5
236
  8
1
  6
CONTINUOUS
 62
     7
 10
-704.1298142821
 20
1016.6508416996
 30
0.0
 40
0.4999999999999449
 50
270.0
 51
0.0
  0
ARC
  5
237
  8
1
  6
CONTINUOUS
 62
     7
 10
-706.1298142821
 20
1016.6508416996
 30
0.0
 40
0.4999999999999449
 50
180.0
 51
270.0
  0
LINE
  5
238
  8
1
  6
CONTINUOUS
 62
     7
 10
-700.1298142821
 20
1016.1508416996
 30
0.0
 11
-698.1298142821
 21
1016.1508416996
 31
0.0
  0
LINE
  5
239
  8
1
  6
CONTINUOUS
 62
     7
 10
-603.1298142821001
 20
963.4127266996
 30
0.0
 11
-603.1298142821001
 21
963.4196256996
 31
0.0
  0
LINE
  5
23A
  8
1
  6
CONTINUOUS
 62
     7
 10
-632.9390842821
 20
887.1508416996
 30
0.0
 11
-632.9390842821
 21
1032.1508416996
 31
0.0
  0
LINE
  5
23B
  8
1
  6
CONTINUOUS
 62
     7
 10
-627.6298142821
 20
1013.1906536996
 30
0.0
 11
-627.6298142821
 21
1032.0760866996
 31
0.0
  0
LINE
  5
23C
  8
1
  6
CONTINUOUS
 62
     7
 10
-676.8285222825
 20
902.6509829416
 30
0.0
 11
-677.2691182821
 21
900.1511116996
 31
0.0
  0
LINE
  5
23D
  8
1
  6
CONTINUOUS
 62
     7
 10
-680.7691182821
 20
900.1511196996
 30
0.0
 11
-677.2691182821
 21
900.1511116996
 31
0.0
  0
LINE
  5
23E
  8
1
  6
CONTINUOUS
 62
     7
 10
-632.9390842821
 20
887.1508416996
 30
0.0
 11
-603.1298142821001
 21
887.1508416996
 31
0.0
  0
LINE
  5
23F
  8
1
  6
CONTINUOUS
 62
     7
 10
-627.6298142821
 20
905.9802696996
 30
0.0
 11
-603.1298142821001
 21
905.9802696996
 31
0.0
  0
LINE
  5
240
  8
1
  6
CONTINUOUS
 62
     7
 10
-686.2096202821
 20
1016.6508416996
 30
0.0
 11
-685.7690252821001
 21
1019.1506376996
 31
0.0
  0
LINE
  5
241
  8
1
  6
CONTINUOUS
 62
     7
 10
-672.2690252821
 20
1019.1506456996
 30
0.0
 11
-675.7690252821001
 21
1019.1506376996
 31
0.0
  0
LINE
  5
242
  8
1
  6
CONTINUOUS
 62
     7
 10
-675.7690252821001
 20
1019.1506376996
 30
0.0
 11
-670.7691182821
 21
900.1511196996
 31
0.0
  0
ARC
  5
243
  8
1
  6
CONTINUOUS
 62
     7
 10
-602.8289862821
 20
940.1515986996
 30
0.0
 40
23.26307400000005
 50
84.524217
 51
90.740944
  0
LINE
  5
244
  8
1
  6
CONTINUOUS
 62
     7
 10
-627.6298142821
 20
955.8820586996
 30
0.0
 11
-603.1298142821001
 21
955.8820586996
 31
0.0
  0
LINE
  5
245
  8
1
  6
CONTINUOUS
 62
     7
 10
-603.1298142821001
 20
1013.3214136996
 30
0.0
 11
-627.6298142821
 21
1013.3214136996
 31
0.0
  0
LINE
  5
246
  8
1
  6
CONTINUOUS
 62
     7
 10
-603.1298142821001
 20
963.4196256996
 30
0.0
 11
-627.6298142821
 21
963.4196256996
 31
0.0
  0
LINE
  5
247
  8
1
  6
CONTINUOUS
 62
     7
 10
-686.8280402821
 20
902.6508416996
 30
0.0
 11
-681.3342562821
 21
902.6508416996
 31
0.0
  0
LINE
  5
248
  8
1
  6
CONTINUOUS
 62
     7
 10
-676.8285222825
 20
902.6509829416
 30
0.0
 11
-671.3347382825
 21
902.6509829416
 31
0.0
  0
LINE
  5
249
  8
1
  6
CONTINUOUS
 62
     7
 10
-666.2095662821
 20
1016.6508416996
 30
0.0
 11
-671.7034482821
 21
1016.6508416996
 31
0.0
  0
LINE
  5
24A
  8
1
  6
CONTINUOUS
 62
     7
 10
-667.2691182821
 20
900.1511116996
 30
0.0
 11
-672.2690252821
 21
1019.1506456996
 31
0.0
  0
LINE
  5
24B
  8
1
  6
CONTINUOUS
 62
     7
 10
-686.2095662821
 20
1016.6508416996
 30
0.0
 11
-691.7034572821
 21
1016.6508416996
 31
0.0
  0
ARC
  5
24C
  8
1
  6
CONTINUOUS
 62
     7
 10
-602.8091602821
 20
977.9394886996
 30
0.0
 40
22.05286299999998
 50
269.166876
 51
275.800221
  0
LINE
  5
24D
  8
1
  6
CONTINUOUS
 62
     7
 10
-670.7691182821
 20
900.1511196996
 30
0.0
 11
-667.2691182821
 21
900.1511116996
 31
0.0
  0
LINE
  5
24E
  8
1
  6
CONTINUOUS
 62
     7
 10
-671.3342562821001
 20
902.6508416996
 30
0.0
 11
-670.7691182821
 21
900.1511196996
 31
0.0
  0
LINE
  5
24F
  8
1
  6
CONTINUOUS
 62
     7
 10
-676.2096202821001
 20
1016.6508416996
 30
0.0
 11
-675.7690252821001
 21
1019.1506376996
 31
0.0
  0
ARC
  5
250
  8
1
  6
CONTINUOUS
 62
     7
 10
-602.9110972821001
 20
1010.4694776996
 30
0.0
 40
2.860310999999949
 50
14.993725
 51
94.385468
  0
LINE
  5
251
  8
1
  6
CONTINUOUS
 62
     7
 10
-681.3342562821
 20
902.6508416996
 30
0.0
 11
-680.7691182821
 21
900.1511196996
 31
0.0
  0
LINE
  5
252
  8
1
  6
CONTINUOUS
 62
     7
 10
-671.7034482821
 20
1016.6508416996
 30
0.0
 11
-672.2690252821
 21
1019.1506456996
 31
0.0
  0
LINE
  5
253
  8
1
  6
CONTINUOUS
 62
     7
 10
-676.2095662821
 20
1016.6508416996
 30
0.0
 11
-681.7034482821
 21
1016.6508416996
 31
0.0
  0
ARC
  5
254
  8
1
  6
CONTINUOUS
 62
     7
 10
-603.1298142821001
 20
1029.1508416996
 30
0.0
 40
3.000000000000003
 50
0.0
 51
90.0
  0
LINE
  5
255
  8
1
  6
CONTINUOUS
 62
     7
 10
-603.1298142821001
 20
1032.1508416996
 30
0.0
 11
-632.9390842821
 21
1032.1508416996
 31
0.0
  0
LINE
  5
256
  8
1
  6
CONTINUOUS
 62
     7
 10
-682.2690252821
 20
1019.1506456996
 30
0.0
 11
-685.7690252821001
 21
1019.1506376996
 31
0.0
  0
LINE
  5
257
  8
1
  6
CONTINUOUS
 62
     7
 10
-685.7690252821001
 20
1019.1506376996
 30
0.0
 11
-680.7691182821
 21
900.1511196996
 31
0.0
  0
ARC
  5
258
  8
1
  6
CONTINUOUS
 62
     7
 10
-602.9073732821
 20
908.8269506996
 30
0.0
 40
2.85535800000003
 50
265.531977
 51
345.08883
  0
LINE
  5
259
  8
1
  6
CONTINUOUS
 62
     7
 10
-677.2691182821
 20
900.1511116996
 30
0.0
 11
-682.2690252821
 21
1019.1506456996
 31
0.0
  0
ARC
  5
25A
  8
1
  6
CONTINUOUS
 62
     7
 10
-603.1298142821001
 20
890.1508416996
 30
0.0
 40
3.000000000000003
 50
270.0
 51
0.0
  0
LINE
  5
25B
  8
1
  6
CONTINUOUS
 62
     7
 10
-681.7034482821
 20
1016.6508416996
 30
0.0
 11
-682.2690252821
 21
1019.1506456996
 31
0.0
  0
LINE
  5
25C
  8
1
  6
CONTINUOUS
 62
     7
 10
-666.8285222825
 20
902.6509829416
 30
0.0
 11
-667.2691182821
 21
900.1511116996
 31
0.0
  0
LINE
  5
25D
  8
1
  6
CONTINUOUS
 62
     7
 10
-656.8285222825
 20
902.6509829416
 30
0.0
 11
-657.2691182821
 21
900.1511116996
 31
0.0
  0
LINE
  5
25E
  8
1
  6
CONTINUOUS
 62
     7
 10
-665.7690252821
 20
1019.1506376996
 30
0.0
 11
-660.7691182821
 21
900.1511196996
 31
0.0
  0
LINE
  5
25F
  8
1
  6
CONTINUOUS
 62
     7
 10
-650.7691182821
 20
900.1511196996
 30
0.0
 11
-647.2691182821
 21
900.1511116996
 31
0.0
  0
LINE
  5
260
  8
1
  6
CONTINUOUS
 62
     7
 10
-661.3342562821001
 20
902.6508416996
 30
0.0
 11
-660.7691182821
 21
900.1511196996
 31
0.0
  0
LINE
  5
261
  8
1
  6
CONTINUOUS
 62
     7
 10
-646.2095662821
 20
1016.6508416996
 30
0.0
 11
-651.7034482821
 21
1016.6508416996
 31
0.0
  0
LINE
  5
262
  8
1
  6
CONTINUOUS
 62
     7
 10
-655.7690252821
 20
1019.1506376996
 30
0.0
 11
-650.7691182821
 21
900.1511196996
 31
0.0
  0
LINE
  5
263
  8
1
  6
CONTINUOUS
 62
     7
 10
-651.3342562821
 20
902.6508416996
 30
0.0
 11
-650.7691182821
 21
900.1511196996
 31
0.0
  0
LINE
  5
264
  8
1
  6
CONTINUOUS
 62
     7
 10
-691.7034482821
 20
1016.6508416996
 30
0.0
 11
-692.2690252821
 21
1019.1506456996
 31
0.0
  0
LINE
  5
265
  8
1
  6
CONTINUOUS
 62
     7
 10
-666.2096202821001
 20
1016.6508416996
 30
0.0
 11
-665.7690252821
 21
1019.1506376996
 31
0.0
  0
LINE
  5
266
  8
1
  6
CONTINUOUS
 62
     7
 10
-656.2095662821
 20
1016.6508416996
 30
0.0
 11
-661.7034482821
 21
1016.6508416996
 31
0.0
  0
LINE
  5
267
  8
1
  6
CONTINUOUS
 62
     7
 10
-661.7034482821
 20
1016.6508416996
 30
0.0
 11
-662.2690252821
 21
1019.1506456996
 31
0.0
  0
LINE
  5
268
  8
1
  6
CONTINUOUS
 62
     7
 10
-662.2690252821
 20
1019.1506456996
 30
0.0
 11
-665.7690252821
 21
1019.1506376996
 31
0.0
  0
LINE
  5
269
  8
1
  6
CONTINUOUS
 62
     7
 10
-691.3342562821
 20
902.6508416996
 30
0.0
 11
-690.7691182821
 21
900.1511196996
 31
0.0
  0
LINE
  5
26A
  8
1
  6
CONTINUOUS
 62
     7
 10
-647.2691182821
 20
900.1511116996
 30
0.0
 11
-652.2690252821
 21
1019.1506456996
 31
0.0
  0
LINE
  5
26B
  8
1
  6
CONTINUOUS
 62
     7
 10
-692.6298142821
 20
944.4363288334
 30
0.0
 11
-690.7691182821
 21
900.1511196996
 31
0.0
  0
LINE
  5
26C
  8
1
  6
CONTINUOUS
 62
     7
 10
-686.8285222825
 20
902.6509829416
 30
0.0
 11
-681.3347382825
 21
902.6509829416
 31
0.0
  0
LINE
  5
26D
  8
1
  6
CONTINUOUS
 62
     7
 10
-657.2691182821
 20
900.1511116996
 30
0.0
 11
-662.2690252821
 21
1019.1506456996
 31
0.0
  0
LINE
  5
26E
  8
1
  6
CONTINUOUS
 62
     7
 10
-656.8285222825
 20
902.6509829416
 30
0.0
 11
-651.3347382825
 21
902.6509829416
 31
0.0
  0
LINE
  5
26F
  8
1
  6
CONTINUOUS
 62
     7
 10
-652.2690252821
 20
1019.1506456996
 30
0.0
 11
-655.7690252821
 21
1019.1506376996
 31
0.0
  0
LINE
  5
270
  8
1
  6
CONTINUOUS
 62
     7
 10
-656.2096202821
 20
1016.6508416996
 30
0.0
 11
-655.7690252821
 21
1019.1506376996
 31
0.0
  0
LINE
  5
271
  8
1
  6
CONTINUOUS
 62
     7
 10
-651.7034482821
 20
1016.6508416996
 30
0.0
 11
-652.2690252821
 21
1019.1506456996
 31
0.0
  0
LINE
  5
272
  8
1
  6
CONTINUOUS
 62
     7
 10
-646.8285222825
 20
902.6509829416
 30
0.0
 11
-641.3347382825
 21
902.6509829416
 31
0.0
  0
LINE
  5
273
  8
1
  6
CONTINUOUS
 62
     7
 10
-690.7691182821
 20
900.1511196996
 30
0.0
 11
-687.2691182821
 21
900.1511116996
 31
0.0
  0
LINE
  5
274
  8
1
  6
CONTINUOUS
 62
     7
 10
-686.8285222825
 20
902.6509829416
 30
0.0
 11
-687.2691182821
 21
900.1511116996
 31
0.0
  0
LINE
  5
275
  8
1
  6
CONTINUOUS
 62
     7
 10
-687.2691182821
 20
900.1511116996
 30
0.0
 11
-692.2690252821
 21
1019.1506456996
 31
0.0
  0
LINE
  5
276
  8
1
  6
CONTINUOUS
 62
     7
 10
-666.8285222825
 20
902.6509829416
 30
0.0
 11
-661.3347382825
 21
902.6509829416
 31
0.0
  0
LINE
  5
277
  8
1
  6
CONTINUOUS
 62
     7
 10
-660.7691182821
 20
900.1511196996
 30
0.0
 11
-657.2691182821
 21
900.1511116996
 31
0.0
  0
ARC
  5
278
  8
1
  6
CONTINUOUS
 62
     7
 10
-382.1298142821
 20
950.6508416996
 30
0.0
 40
4.325
 50
142.353426
 51
157.646574
  0
LINE
  5
279
  8
1
  6
CONTINUOUS
 62
     7
 10
-454.1298142821
 20
720.9272479718
 30
0.0
 11
-436.1298142821
 21
720.9272479718
 31
0.0
  0
LINE
  5
27A
  8
1
  6
CONTINUOUS
 62
     7
 10
-430.1298142821
 20
714.8204979718
 30
0.0
 11
-433.1298142821
 21
714.8204979718
 31
0.0
  0
ARC
  5
27B
  8
1
  6
CONTINUOUS
 62
     7
 10
-433.1298142821
 20
716.8204979718
 30
0.0
 40
2.0
 50
209.9999999993999
 51
270.0
  0
LINE
  5
27C
  8
1
  6
CONTINUOUS
 62
     7
 10
-380.0247112821
 20
951.1508416996
 30
0.0
 11
-380.8298142821
 21
951.1508416996
 31
0.0
  0
ARC
  5
27D
  8
1
  6
CONTINUOUS
 62
     7
 10
-382.1298142821
 20
950.6508416996
 30
0.0
 40
4.325
 50
202.353426
 51
217.646574
  0
LINE
  5
27E
  8
1
  6
CONTINUOUS
 62
     7
 10
-455.1298142821
 20
720.8204979718
 30
0.0
 11
-562.6298142821
 21
720.8204979718
 31
0.0
  0
ARC
  5
27F
  8
1
  6
CONTINUOUS
 62
     7
 10
-380.8298142821
 20
951.9508416996
 30
0.0
 40
0.8
 50
180.0
 51
208.955024
  0
LINE
  5
280
  8
1
  6
CONTINUOUS
 62
     7
 10
-386.1298142821
 20
949.0059636996
 30
0.0
 11
-386.1298142821
 21
952.2957196996
 31
0.0
  0
LINE
  5
281
  8
1
  6
CONTINUOUS
 62
     7
 10
-455.1298142821
 20
720.8734379718
 30
0.0
 11
-455.1298142821
 21
719.7347119718
 31
0.0
  0
LINE
  5
282
  8
1
  6
CONTINUOUS
 62
     7
 10
-381.5543202821
 20
954.9373826996
 30
0.0
 11
-378.7053082821
 21
953.2925036996
 31
0.0
  0
ARC
  5
283
  8
1
  6
CONTINUOUS
 62
     7
 10
-562.6298142821
 20
722.8204979718
 30
0.0
 40
2.0
 50
180.0
 51
270.0
  0
ARC
  5
284
  8
1
  6
CONTINUOUS
 62
     7
 10
-436.1298142821
 20
778.3204979718
 30
0.0
 40
1.0
 50
0.0
 51
90.0
  0
ARC
  5
285
  8
1
  6
CONTINUOUS
 62
     7
 10
-383.4298242821
 20
951.9508586996
 30
0.0
 40
0.800017
 50
270.000699
 51
331.0442760000001
  0
LINE
  5
286
  8
1
  6
CONTINUOUS
 62
     7
 10
-384.2349172821
 20
950.1508416996
 30
0.0
 11
-383.4298142821
 21
950.1508416996
 31
0.0
  0
LINE
  5
287
  8
1
  6
CONTINUOUS
 62
     7
 10
-380.8298142821
 20
950.1508416996
 30
0.0
 11
-380.0247112821
 21
950.1508416996
 31
0.0
  0
CIRCLE
  5
288
  8
1
  6
CONTINUOUS
 62
     7
 10
-382.1298142821
 20
950.6508416996
 30
0.0
 40
3.5
  0
LINE
  5
289
  8
1
  6
CONTINUOUS
 62
     7
 10
-426.4184892821
 20
898.5136356996
 30
0.0
 11
-425.5524642821
 21
899.5017316996
 31
0.0
  0
LINE
  5
28A
  8
1
  6
CONTINUOUS
 62
     7
 10
-425.5524642821
 20
899.5017316996
 30
0.0
 11
-416.6154502821
 21
898.8008416996
 31
0.0
  0
LINE
  5
28B
  8
1
  6
CONTINUOUS
 62
     7
 10
-381.5298142821
 20
949.7381396996
 30
0.0
 11
-381.5298142821
 21
947.2984466996
 31
0.0
  0
ARC
  5
28C
  8
1
  6
CONTINUOUS
 62
     7
 10
-383.4298252821
 20
949.3508226996
 30
0.0
 40
0.800019
 50
28.955831
 51
89.999193
  0
ARC
  5
28D
  8
1
  6
CONTINUOUS
 62
     7
 10
-382.1298142821
 20
950.6508416996
 30
0.0
 40
4.325
 50
262.353426
 51
277.646574
  0
ARC
  5
28E
  8
1
  6
CONTINUOUS
 62
     7
 10
-382.1298142821
 20
950.6508416996
 30
0.0
 40
4.325
 50
322.353426
 51
337.646574
  0
ARC
  5
28F
  8
1
  6
CONTINUOUS
 62
     7
 10
-382.1298142821
 20
950.6508416996
 30
0.0
 40
4.325
 50
22.353426
 51
37.646574
  0
ARC
  5
290
  8
1
  6
CONTINUOUS
 62
     7
 10
-380.8298032821
 20
951.9508606996
 30
0.0
 40
0.800019
 50
208.955831
 51
269.999193
  0
LINE
  5
291
  8
1
  6
CONTINUOUS
 62
     7
 10
-426.4184892821
 20
951.0076380349
 30
0.0
 11
-426.4184892821
 21
898.5136356996
 31
0.0
  0
ARC
  5
292
  8
1
  6
CONTINUOUS
 62
     7
 10
-425.0408392821
 20
950.4129456996
 30
0.0
 40
0.512436
 50
101.800975
 51
176.776043
  0
LINE
  5
293
  8
1
  6
CONTINUOUS
 62
     7
 10
-420.7172822821
 20
952.1011256996
 30
0.0
 11
-416.6154502821
 21
953.6548426996
 31
0.0
  0
LINE
  5
294
  8
1
  6
CONTINUOUS
 62
     7
 10
-378.1298142821
 20
952.2957196996
 30
0.0
 11
-378.1298142821
 21
949.0059636996
 31
0.0
  0
LINE
  5
295
  8
1
  6
CONTINUOUS
 62
     7
 10
-430.1298142821
 20
714.8204979718
 30
0.0
 11
-430.1298142821
 21
852.8204979718
 31
0.0
  0
LINE
  5
296
  8
1
  6
CONTINUOUS
 62
     7
 10
-382.7298142821
 20
947.2984466996
 30
0.0
 11
-382.7298142821
 21
949.7381396996
 31
0.0
  0
ARC
  5
297
  8
1
  6
CONTINUOUS
 62
     7
 10
-382.1298142821
 20
950.6508416996
 30
0.0
 40
2.163668
 50
166.6388
 51
193.3612
  0
ARC
  5
298
  8
1
  6
CONTINUOUS
 62
     7
 10
-382.1298142821
 20
950.6508416996
 30
0.0
 40
2.163668
 50
346.6387999999999
 51
13.3612
  0
ARC
  5
299
  8
1
  6
CONTINUOUS
 62
     7
 10
-383.4298142821
 20
951.9508416996
 30
0.0
 40
0.8
 50
331.044976
 51
0.0
  0
LINE
  5
29A
  8
1
  6
CONTINUOUS
 62
     7
 10
-382.7053082821
 20
946.3643006996
 30
0.0
 11
-385.5543202821
 21
948.0091796996
 31
0.0
  0
LINE
  5
29B
  8
1
  6
CONTINUOUS
 62
     7
 10
-426.4184892821
 20
950.5734907886
 30
0.0
 11
-420.7172822821
 21
952.1011256996
 31
0.0
  0
LINE
  5
29C
  8
1
  6
CONTINUOUS
 62
     7
 10
-425.5524642821
 20
950.4417646996
 30
0.0
 11
-425.5524642821
 21
899.5017316996
 31
0.0
  0
LINE
  5
29D
  8
1
  6
CONTINUOUS
 62
     7
 10
-416.6154502821
 20
898.8008416996
 30
0.0
 11
-426.1298142821
 21
897.8008416996
 31
0.0
  0
LINE
  5
29E
  8
1
  6
CONTINUOUS
 62
     7
 10
-435.1298142821
 20
778.3548059718
 30
0.0
 11
-435.1298142821
 21
716.9000659718
 31
0.0
  0
LINE
  5
29F
  8
1
  6
CONTINUOUS
 62
     7
 10
-426.1298142821
 20
897.8008416996
 30
0.0
 11
-430.1298142821
 21
897.8008416996
 31
0.0
  0
ARC
  5
2A0
  8
1
  6
CONTINUOUS
 62
     7
 10
-439.6297562821
 20
783.8206019718
 30
0.0
 40
4.500104
 50
234.5533901466999
 51
269.9992609998
  0
LINE
  5
2A1
  8
1
  6
CONTINUOUS
 62
     7
 10
-439.6298142821
 20
779.3204979718
 30
0.0
 11
-436.1298142821
 21
779.3204979718
 31
0.0
  0
LINE
  5
2A2
  8
1
  6
CONTINUOUS
 62
     7
 10
-383.4298142821
 20
951.1508416996
 30
0.0
 11
-384.2349172821
 21
951.1508416996
 31
0.0
  0
LINE
  5
2A3
  8
1
  6
CONTINUOUS
 62
     7
 10
-455.1298142821
 20
780.1545639718
 30
0.0
 11
-442.2395922821
 21
780.1545639718
 31
0.0
  0
ARC
  5
2A4
  8
1
  6
CONTINUOUS
 62
     7
 10
-380.8298142821
 20
949.3508416996
 30
0.0
 40
0.8
 50
151.044976
 51
180.0
  0
LINE
  5
2A5
  8
1
  6
CONTINUOUS
 62
     7
 10
-378.7053082821
 20
948.0091796996
 30
0.0
 11
-381.5543202821
 21
946.3643006996
 31
0.0
  0
ARC
  5
2A6
  8
1
  6
CONTINUOUS
 62
     7
 10
-382.1298142821
 20
950.6508416996
 30
0.0
 40
4.325
 50
82.353426
 51
97.646574
  0
LINE
  5
2A7
  8
1
  6
CONTINUOUS
 62
     7
 10
-381.5298142821
 20
954.0032366996
 30
0.0
 11
-381.5298142821
 21
951.5635436996
 31
0.0
  0
ARC
  5
2A8
  8
1
  6
CONTINUOUS
 62
     7
 10
-380.8298042821
 20
949.3508246996
 30
0.0
 40
0.800017
 50
90.000699
 51
151.044276
  0
LINE
  5
2A9
  8
1
  6
CONTINUOUS
 62
     7
 10
-385.5543202821
 20
953.2925036996
 30
0.0
 11
-382.7053082821
 21
954.9373826996
 31
0.0
  0
LINE
  5
2AA
  8
1
  6
CONTINUOUS
 62
     7
 10
-416.6154502821
 20
953.6548426996
 30
0.0
 11
-426.4184892821
 21
951.0076380349
 31
0.0
  0
LINE
  5
2AB
  8
1
  6
CONTINUOUS
 62
     7
 10
-455.1298142821
 20
787.4864319718
 30
0.0
 11
-455.1298142821
 21
780.1545639718
 31
0.0
  0
LINE
  5
2AC
  8
1
  6
CONTINUOUS
 62
     7
 10
-454.1298142821
 20
720.9272479718
 30
0.0
 11
-455.1298142821
 21
720.8734379718
 31
0.0
  0
LINE
  5
2AD
  8
1
  6
CONTINUOUS
 62
     7
 10
-564.6298142821
 20
844.8204979718
 30
0.0
 11
-564.6298142821
 21
722.8204979718
 31
0.0
  0
ARC
  5
2AE
  8
1
  6
CONTINUOUS
 62
     7
 10
-383.4298142821
 20
949.3508416996
 30
0.0
 40
0.8
 50
0.0
 51
28.955024
  0
LINE
  5
2AF
  8
1
  6
CONTINUOUS
 62
     7
 10
-452.4227082821
 20
716.6133919718
 30
0.0
 11
-454.8369222821
 21
719.0276039718
 31
0.0
  0
LINE
  5
2B0
  8
1
  6
CONTINUOUS
 62
     7
 10
-439.6298142821
 20
788.3204979718
 30
0.0
 11
-436.1298142821
 21
788.3204979718
 31
0.0
  0
LINE
  5
2B1
  8
1
  6
CONTINUOUS
 62
     7
 10
-455.1298142821
 20
787.4864319718
 30
0.0
 11
-442.2395922821
 21
787.4864319718
 31
0.0
  0
ARC
  5
2B2
  8
1
  6
CONTINUOUS
 62
     7
 10
-435.7278902821
 20
715.3204979718
 30
0.0
 40
1.0
 50
29.9999999999
 51
90.0
  0
LINE
  5
2B3
  8
1
  6
CONTINUOUS
 62
     7
 10
-435.7278902821
 20
716.3204979718
 30
0.0
 11
-451.7156002821
 21
716.3204979718
 31
0.0
  0
ARC
  5
2B4
  8
1
  6
CONTINUOUS
 62
     7
 10
-451.7156002821
 20
717.3204979718
 30
0.0
 40
1.0
 50
225.0
 51
270.0
  0
LINE
  5
2B5
  8
1
  6
CONTINUOUS
 62
     7
 10
-435.1298142821
 20
789.2861899718
 30
0.0
 11
-435.1298142821
 21
850.7409299718
 31
0.0
  0
ARC
  5
2B6
  8
1
  6
CONTINUOUS
 62
     7
 10
-454.1298142821
 20
719.7347119718
 30
0.0
 40
1.0
 50
180.0
 51
225.0000000015
  0
ARC
  5
2B7
  8
1
  6
CONTINUOUS
 62
     7
 10
-439.6297562821
 20
783.8203939718
 30
0.0
 40
4.500104
 50
90.0007390002
 51
125.4466098533
  0
ARC
  5
2B8
  8
1
  6
CONTINUOUS
 62
     7
 10
-451.7156002821
 20
850.3204979718
 30
0.0
 40
1.0
 50
90.0
 51
135.0
  0
CIRCLE
  5
2B9
  8
1
  6
CONTINUOUS
 62
     7
 10
-868.6358112821
 20
784.3183329718
 30
0.0
 40
75.229742
  0
ARC
  5
2BA
  8
1
  6
CONTINUOUS
 62
     7
 10
-435.7278902821
 20
852.3204979718
 30
0.0
 40
1.0
 50
270.0
 51
330.0000000001
  0
LINE
  5
2BB
  8
1
  6
CONTINUOUS
 62
     7
 10
-435.7278902821
 20
851.3204979718
 30
0.0
 11
-451.7156002821
 21
851.3204979718
 31
0.0
  0
LINE
  5
2BC
  8
1
  6
CONTINUOUS
 62
     7
 10
-452.4227082821
 20
851.0276039718
 30
0.0
 11
-454.8369222821
 21
848.6133919718
 31
0.0
  0
CIRCLE
  5
2BD
  8
1
  6
CONTINUOUS
 62
     7
 10
-868.6418082821
 20
783.8204979718
 30
0.0
 40
51.920049
  0
LINE
  5
2BE
  8
1
  6
CONTINUOUS
 62
     7
 10
-565.6298142821
 20
840.6204979718
 30
0.0
 11
-564.6298142821
 21
840.6204979718
 31
0.0
  0
LINE
  5
2BF
  8
1
  6
CONTINUOUS
 62
     7
 10
-564.6298142821
 20
727.0204979718
 30
0.0
 11
-565.6298142821
 21
727.0204979718
 31
0.0
  0
LINE
  5
2C0
  8
1
  6
CONTINUOUS
 62
     7
 10
-641.7034482821
 20
840.8204979718
 30
0.0
 11
-642.2690252821
 21
843.3203019718
 31
0.0
  0
LINE
  5
2C1
  8
1
  6
CONTINUOUS
 62
     7
 10
-647.2691182821
 20
724.3207679718
 30
0.0
 11
-652.2690252821
 21
843.3203019718
 31
0.0
  0
LINE
  5
2C2
  8
1
  6
CONTINUOUS
 62
     7
 10
-651.7034482821
 20
840.8204979718
 30
0.0
 11
-652.2690252821
 21
843.3203019718
 31
0.0
  0
LINE
  5
2C3
  8
1
  6
CONTINUOUS
 62
     7
 10
-636.8285222825
 20
726.8206392138
 30
0.0
 11
-632.9390842821
 21
726.8206392138
 31
0.0
  0
LINE
  5
2C4
  8
1
  6
CONTINUOUS
 62
     7
 10
-636.8285222825
 20
726.8206392138
 30
0.0
 11
-637.2691182821
 21
724.3207679718
 31
0.0
  0
LINE
  5
2C5
  8
1
  6
CONTINUOUS
 62
     7
 10
-646.8285222825
 20
726.8206392138
 30
0.0
 11
-641.3347382825
 21
726.8206392138
 31
0.0
  0
LINE
  5
2C6
  8
1
  6
CONTINUOUS
 62
     7
 10
-632.2690252821
 20
843.3203019718
 30
0.0
 11
-635.7690252821
 21
843.3202939718
 31
0.0
  0
LINE
  5
2C7
  8
1
  6
CONTINUOUS
 62
     7
 10
-655.7690252821
 20
843.3202939718
 30
0.0
 11
-650.7691182821
 21
724.3207759718
 31
0.0
  0
LINE
  5
2C8
  8
1
  6
CONTINUOUS
 62
     7
 10
-642.2690252821
 20
843.3203019718
 30
0.0
 11
-645.7690252821
 21
843.3202939718
 31
0.0
  0
LINE
  5
2C9
  8
1
  6
CONTINUOUS
 62
     7
 10
-646.8285222825
 20
726.8206392138
 30
0.0
 11
-647.2691182821
 21
724.3207679718
 31
0.0
  0
LINE
  5
2CA
  8
1
  6
CONTINUOUS
 62
     7
 10
-645.7690252821
 20
843.3202939718
 30
0.0
 11
-640.7691182821001
 21
724.3207759718
 31
0.0
  0
LINE
  5
2CB
  8
1
  6
CONTINUOUS
 62
     7
 10
-640.7691182821001
 20
724.3207759718
 30
0.0
 11
-637.2691182821
 21
724.3207679718
 31
0.0
  0
LINE
  5
2CC
  8
1
  6
CONTINUOUS
 62
     7
 10
-657.2691182821
 20
724.3207679718
 30
0.0
 11
-662.2690252821
 21
843.3203019718
 31
0.0
  0
LINE
  5
2CD
  8
1
  6
CONTINUOUS
 62
     7
 10
-656.2096202821
 20
840.8204979718
 30
0.0
 11
-655.7690252821
 21
843.3202939718
 31
0.0
  0
LINE
  5
2CE
  8
1
  6
CONTINUOUS
 62
     7
 10
-636.2095662821
 20
840.8204979718
 30
0.0
 11
-641.7034482821
 21
840.8204979718
 31
0.0
  0
LINE
  5
2CF
  8
1
  6
CONTINUOUS
 62
     7
 10
-661.7034482821
 20
840.8204979718
 30
0.0
 11
-662.2690252821
 21
843.3203019718
 31
0.0
  0
LINE
  5
2D0
  8
1
  6
CONTINUOUS
 62
     7
 10
-635.7690252821
 20
843.3202939718
 30
0.0
 11
-632.9390842821
 21
775.9667182016
 31
0.0
  0
LINE
  5
2D1
  8
1
  6
CONTINUOUS
 62
     7
 10
-636.2096202821
 20
840.8204979718
 30
0.0
 11
-635.7690252821
 21
843.3202939718
 31
0.0
  0
LINE
  5
2D2
  8
1
  6
CONTINUOUS
 62
     7
 10
-600.1298142821001
 20
724.3207745106
 30
0.0
 11
-597.2691182821
 21
724.3207679718
 31
0.0
  0
LINE
  5
2D3
  8
1
  6
CONTINUOUS
 62
     7
 10
-650.7691182821
 20
724.3207759718
 30
0.0
 11
-647.2691182821
 21
724.3207679718
 31
0.0
  0
LINE
  5
2D4
  8
1
  6
CONTINUOUS
 62
     7
 10
-656.8285222825
 20
726.8206392138
 30
0.0
 11
-657.2691182821
 21
724.3207679718
 31
0.0
  0
LINE
  5
2D5
  8
1
  6
CONTINUOUS
 62
     7
 10
-597.2691182821
 20
724.3207679718
 30
0.0
 11
-600.1298142821001
 21
792.4063325465
 31
0.0
  0
LINE
  5
2D6
  8
1
  6
CONTINUOUS
 62
     7
 10
-596.8285222825
 20
726.8206392138
 30
0.0
 11
-597.2691182821
 21
724.3207679718
 31
0.0
  0
LINE
  5
2D7
  8
1
  6
CONTINUOUS
 62
     7
 10
-656.8285222825
 20
726.8206392138
 30
0.0
 11
-651.3347382825
 21
726.8206392138
 31
0.0
  0
LINE
  5
2D8
  8
1
  6
CONTINUOUS
 62
     7
 10
-666.2096202821001
 20
840.8204979718
 30
0.0
 11
-665.7690252821
 21
843.3202939718
 31
0.0
  0
LINE
  5
2D9
  8
1
  6
CONTINUOUS
 62
     7
 10
-651.3342562821
 20
726.8204979718
 30
0.0
 11
-650.7691182821
 21
724.3207759718
 31
0.0
  0
LINE
  5
2DA
  8
1
  6
CONTINUOUS
 62
     7
 10
-652.2690252821
 20
843.3203019718
 30
0.0
 11
-655.7690252821
 21
843.3202939718
 31
0.0
  0
LINE
  5
2DB
  8
1
  6
CONTINUOUS
 62
     7
 10
-637.2691182821
 20
724.3207679718
 30
0.0
 11
-642.2690252821
 21
843.3203019718
 31
0.0
  0
LINE
  5
2DC
  8
1
  6
CONTINUOUS
 62
     7
 10
-641.3342562821
 20
726.8204979718
 30
0.0
 11
-640.7691182821001
 21
724.3207759718
 31
0.0
  0
LINE
  5
2DD
  8
1
  6
CONTINUOUS
 62
     7
 10
-661.3342562821001
 20
726.8204979718
 30
0.0
 11
-660.7691182821
 21
724.3207759718
 31
0.0
  0
LINE
  5
2DE
  8
1
  6
CONTINUOUS
 62
     7
 10
-646.2095662821
 20
840.8204979718
 30
0.0
 11
-651.7034482821
 21
840.8204979718
 31
0.0
  0
LINE
  5
2DF
  8
1
  6
CONTINUOUS
 62
     7
 10
-646.2096202821
 20
840.8204979718
 30
0.0
 11
-645.7690252821
 21
843.3202939718
 31
0.0
  0
ARC
  5
2E0
  8
1
  6
CONTINUOUS
 62
     7
 10
-710.1298142821
 20
726.8204979718
 30
0.0
 40
0.4999999999999449
 50
0.0
 51
90.0
  0
LINE
  5
2E1
  8
1
  6
CONTINUOUS
 62
     7
 10
-596.8285222825
 20
726.8206392138
 30
0.0
 11
-591.3347382825
 21
726.8206392138
 31
0.0
  0
LINE
  5
2E2
  8
1
  6
CONTINUOUS
 62
     7
 10
-715.9886770253001
 20
859.5448963439
 30
0.0
 11
-721.1598142821001
 21
709.1014113443
 31
0.0
  0
LINE
  5
2E3
  8
1
  6
CONTINUOUS
 62
     7
 10
-592.2690252821
 20
843.3203019718
 30
0.0
 11
-595.7690252821
 21
843.3202939718
 31
0.0
  0
LINE
  5
2E4
  8
1
  6
CONTINUOUS
 62
     7
 10
-710.1298142821
 20
727.3204979718
 30
0.0
 11
-712.1298142821
 21
727.3204979718
 31
0.0
  0
ARC
  5
2E5
  8
1
  6
CONTINUOUS
 62
     7
 10
-716.1298142821
 20
840.8204979718
 30
0.0
 40
0.4999999999999449
 50
270.0
 51
0.0
  0
LINE
  5
2E6
  8
1
  6
CONTINUOUS
 62
     7
 10
-720.6023217252
 20
725.3204979718
 30
0.0
 11
-718.6298142821
 21
725.3204979718
 31
0.0
  0
ARC
  5
2E7
  8
1
  6
CONTINUOUS
 62
     7
 10
-712.1298142821
 20
840.8204979718
 30
0.0
 40
0.4999999999999449
 50
180.0
 51
270.0
  0
LINE
  5
2E8
  8
1
  6
CONTINUOUS
 62
     7
 10
-715.6298142821
 20
842.3204979718
 30
0.0
 11
-712.6298142821
 21
842.3204979718
 31
0.0
  0
LINE
  5
2E9
  8
1
  6
CONTINUOUS
 62
     7
 10
-590.7691182821
 20
724.3207759718
 30
0.0
 11
-587.2691182821
 21
724.3207679718
 31
0.0
  0
LINE
  5
2EA
  8
1
  6
CONTINUOUS
 62
     7
 10
-591.3342562821
 20
726.8204979718
 30
0.0
 11
-590.7691182821
 21
724.3207759718
 31
0.0
  0
ARC
  5
2EB
  8
1
  6
CONTINUOUS
 62
     7
 10
-712.1298142821
 20
726.8204979718
 30
0.0
 40
0.4999999999999449
 50
90.0
 51
180.0
  0
LINE
  5
2EC
  8
1
  6
CONTINUOUS
 62
     7
 10
-586.8285222825
 20
726.8206392138
 30
0.0
 11
-587.2691182821
 21
724.3207679718
 31
0.0
  0
LINE
  5
2ED
  8
1
  6
CONTINUOUS
 62
     7
 10
-591.7034482821
 20
840.8204979718
 30
0.0
 11
-592.2690252821
 21
843.3203019718
 31
0.0
  0
ARC
  5
2EE
  8
1
  6
CONTINUOUS
 62
     7
 10
-718.1298142821
 20
726.8204979718
 30
0.0
 40
0.4999999999999449
 50
90.0
 51
180.0
  0
LINE
  5
2EF
  8
1
  6
CENTER
 62
     5
 10
-770.0
 20
959.6508416996
 30
0.0
 11
-358.3973641167
 21
959.6508416996
 31
0.0
  0
LINE
  5
2F0
  8
1
  6
CENTER
 62
     5
 10
-770.0
 20
783.8204979718
 30
0.0
 11
-358.3973641167
 21
783.8204979718
 31
0.0
  0
ARC
  5
2F1
  8
1
  6
CONTINUOUS
 62
     7
 10
-710.1298142821
 20
840.8204979718
 30
0.0
 40
0.4999999999999449
 50
270.0
 51
0.0
  0
LINE
  5
2F2
  8
1
  6
CONTINUOUS
 62
     7
 10
-712.6298142821
 20
842.3204979718
 30
0.0
 11
-712.6298142821
 21
725.3204979718
 31
0.0
  0
LINE
  5
2F3
  8
1
  6
CONTINUOUS
 62
     7
 10
-716.6494700312
 20
840.3204979718
 30
0.0
 11
-716.1298142821
 21
840.3204979718
 31
0.0
  0
LINE
  5
2F4
  8
1
  6
CONTINUOUS
 62
     7
 10
-596.2096202821
 20
840.8204979718
 30
0.0
 11
-595.7690252821
 21
843.3202939718
 31
0.0
  0
LINE
  5
2F5
  8
1
  6
CONTINUOUS
 62
     7
 10
-718.6298142821
 20
782.7065001569
 30
0.0
 11
-718.6298142821
 21
725.3204979718
 31
0.0
  0
LINE
  5
2F6
  8
1
  6
CONTINUOUS
 62
     7
 10
-712.1298142821
 20
840.3204979718
 30
0.0
 11
-710.1298142821
 21
840.3204979718
 31
0.0
  0
LINE
  5
2F7
  8
1
  6
CONTINUOUS
 62
     7
 10
-566.8285471760461
 20
726.8204979718
 30
0.0
 11
-565.6298142821
 21
726.8204979718
 31
0.0
  0
LINE
  5
2F8
  8
1
  6
CONTINUOUS
 62
     7
 10
-712.6298142821
 20
725.3204979718
 30
0.0
 11
-715.6298142821
 21
725.3204979718
 31
0.0
  0
LINE
  5
2F9
  8
1
  6
CONTINUOUS
 62
     7
 10
-595.7690252821
 20
843.3202939718
 30
0.0
 11
-590.7691182821
 21
724.3207759718
 31
0.0
  0
ARC
  5
2FA
  8
1
  6
CONTINUOUS
 62
     7
 10
-716.1298142821
 20
726.8204979718
 30
0.0
 40
0.4999999999999449
 50
0.0
 51
90.0
  0
LINE
  5
2FB
  8
1
  6
CONTINUOUS
 62
     7
 10
-716.1298142821
 20
727.3204979718
 30
0.0
 11
-718.1298142821
 21
727.3204979718
 31
0.0
  0
LINE
  5
2FC
  8
1
  6
CONTINUOUS
 62
     7
 10
-715.6298142821
 20
842.3204979718
 30
0.0
 11
-715.6298142821
 21
725.3204979718
 31
0.0
  0
LINE
  5
2FD
  8
1
  6
CONTINUOUS
 62
     7
 10
-596.2095662821001
 20
840.8204979718
 30
0.0
 11
-600.1298142821001
 21
840.8204979718
 31
0.0
  0
LINE
  5
2FE
  8
1
  6
CONTINUOUS
 62
     7
 10
-587.2691182821
 20
724.3207679718
 30
0.0
 11
-592.2690252821
 21
843.3203019718
 31
0.0
  0
LINE
  5
2FF
  8
1
  6
CONTINUOUS
 62
     7
 10
-686.8285222825
 20
726.8206392138
 30
0.0
 11
-681.3347382825
 21
726.8206392138
 31
0.0
  0
LINE
  5
300
  8
1
  6
CONTINUOUS
 62
     7
 10
-692.6298142821
 20
768.6059851056
 30
0.0
 11
-690.7691182821
 21
724.3207759718
 31
0.0
  0
LINE
  5
301
  8
1
  6
CONTINUOUS
 62
     7
 10
-672.2690252821
 20
843.3203019718
 30
0.0
 11
-675.7690252821001
 21
843.3202939718
 31
0.0
  0
LINE
  5
302
  8
1
  6
CONTINUOUS
 62
     7
 10
-686.8285222825
 20
726.8206392138
 30
0.0
 11
-687.2691182821
 21
724.3207679718
 31
0.0
  0
LINE
  5
303
  8
1
  6
CONTINUOUS
 62
     7
 10
-687.2691182821
 20
724.3207679718
 30
0.0
 11
-692.2690252821
 21
843.3203019718
 31
0.0
  0
LINE
  5
304
  8
1
  6
CONTINUOUS
 62
     7
 10
-670.7691182821
 20
724.3207759718
 30
0.0
 11
-667.2691182821
 21
724.3207679718
 31
0.0
  0
LINE
  5
305
  8
1
  6
CONTINUOUS
 62
     7
 10
-666.2095662821
 20
840.8204979718
 30
0.0
 11
-671.7034482821
 21
840.8204979718
 31
0.0
  0
LINE
  5
306
  8
1
  6
CONTINUOUS
 62
     7
 10
-666.8285222825
 20
726.8206392138
 30
0.0
 11
-661.3347382825
 21
726.8206392138
 31
0.0
  0
LINE
  5
307
  8
1
  6
CONTINUOUS
 62
     7
 10
-675.7690252821001
 20
843.3202939718
 30
0.0
 11
-670.7691182821
 21
724.3207759718
 31
0.0
  0
LINE
  5
308
  8
1
  6
CONTINUOUS
 62
     7
 10
-691.3342562821
 20
726.8204979718
 30
0.0
 11
-690.7691182821
 21
724.3207759718
 31
0.0
  0
LINE
  5
309
  8
1
  6
CONTINUOUS
 62
     7
 10
-662.2690252821
 20
843.3203019718
 30
0.0
 11
-665.7690252821
 21
843.3202939718
 31
0.0
  0
LINE
  5
30A
  8
1
  6
CONTINUOUS
 62
     7
 10
-671.3342562821001
 20
726.8204979718
 30
0.0
 11
-670.7691182821
 21
724.3207759718
 31
0.0
  0
LINE
  5
30B
  8
1
  6
CONTINUOUS
 62
     7
 10
-660.7691182821
 20
724.3207759718
 30
0.0
 11
-657.2691182821
 21
724.3207679718
 31
0.0
  0
LINE
  5
30C
  8
1
  6
CONTINUOUS
 62
     7
 10
-656.2095662821
 20
840.8204979718
 30
0.0
 11
-661.7034482821
 21
840.8204979718
 31
0.0
  0
LINE
  5
30D
  8
1
  6
CONTINUOUS
 62
     7
 10
-676.8285222825
 20
726.8206392138
 30
0.0
 11
-671.3347382825
 21
726.8206392138
 31
0.0
  0
LINE
  5
30E
  8
1
  6
CONTINUOUS
 62
     7
 10
-671.7034482821
 20
840.8204979718
 30
0.0
 11
-672.2690252821
 21
843.3203019718
 31
0.0
  0
LINE
  5
30F
  8
1
  6
CONTINUOUS
 62
     7
 10
-681.7034482821
 20
840.8204979718
 30
0.0
 11
-682.2690252821
 21
843.3203019718
 31
0.0
  0
LINE
  5
310
  8
1
  6
CONTINUOUS
 62
     7
 10
-691.7034482821
 20
840.8204979718
 30
0.0
 11
-692.2690252821
 21
843.3203019718
 31
0.0
  0
LINE
  5
311
  8
1
  6
CONTINUOUS
 62
     7
 10
-666.8285222825
 20
726.8206392138
 30
0.0
 11
-667.2691182821
 21
724.3207679718
 31
0.0
  0
LINE
  5
312
  8
1
  6
CONTINUOUS
 62
     7
 10
-665.7690252821
 20
843.3202939718
 30
0.0
 11
-660.7691182821
 21
724.3207759718
 31
0.0
  0
LINE
  5
313
  8
1
  6
CONTINUOUS
 62
     7
 10
-690.7691182821
 20
724.3207759718
 30
0.0
 11
-687.2691182821
 21
724.3207679718
 31
0.0
  0
LINE
  5
314
  8
1
  6
CONTINUOUS
 62
     7
 10
-676.8285222825
 20
726.8206392138
 30
0.0
 11
-677.2691182821
 21
724.3207679718
 31
0.0
  0
LINE
  5
315
  8
1
  6
CONTINUOUS
 62
     7
 10
-667.2691182821
 20
724.3207679718
 30
0.0
 11
-672.2690252821
 21
843.3203019718
 31
0.0
  0
LINE
  5
316
  8
1
  6
CONTINUOUS
 62
     7
 10
-676.2096202821001
 20
840.8204979718
 30
0.0
 11
-675.7690252821001
 21
843.3202939718
 31
0.0
  0
LINE
  5
317
  8
1
  6
CONTINUOUS
 62
     7
 10
-636.2096202821
 20
1016.6508416996
 30
0.0
 11
-635.7690252821
 21
1019.1506376996
 31
0.0
  0
LINE
  5
318
  8
1
  6
CONTINUOUS
 62
     7
 10
-587.2691182821
 20
900.1511116996
 30
0.0
 11
-592.2690252821
 21
1019.1506456996
 31
0.0
  0
LINE
  5
319
  8
1
  6
CONTINUOUS
 62
     7
 10
-641.3342562821
 20
902.6508416996
 30
0.0
 11
-640.7691182821001
 21
900.1511196996
 31
0.0
  0
LINE
  5
31A
  8
1
  6
CONTINUOUS
 62
     7
 10
-597.2691182821
 20
900.1511116996
 30
0.0
 11
-600.1298142821001
 21
968.2366762743
 31
0.0
  0
LINE
  5
31B
  8
1
  6
CONTINUOUS
 62
     7
 10
-591.3342562821
 20
902.6508416996
 30
0.0
 11
-590.7691182821
 21
900.1511196996
 31
0.0
  0
LINE
  5
31C
  8
1
  6
CONTINUOUS
 62
     7
 10
-591.7034482821
 20
1016.6508416996
 30
0.0
 11
-592.2690252821
 21
1019.1506456996
 31
0.0
  0
LINE
  5
31D
  8
1
  6
CONTINUOUS
 62
     7
 10
-632.9390842821
 20
1019.150644168037
 30
0.0
 11
-635.7690252821
 21
1019.1506376996
 31
0.0
  0
LINE
  5
31E
  8
1
  6
CONTINUOUS
 62
     7
 10
-646.2096202821
 20
1016.6508416996
 30
0.0
 11
-645.7690252821
 21
1019.1506376996
 31
0.0
  0
LINE
  5
31F
  8
1
  6
CONTINUOUS
 62
     7
 10
-596.2095662821001
 20
1016.6508416996
 30
0.0
 11
-600.1298142821001
 21
1016.6508416996
 31
0.0
  0
LINE
  5
320
  8
1
  6
CONTINUOUS
 62
     7
 10
-596.8285222825
 20
902.6509829416
 30
0.0
 11
-591.3347382825
 21
902.6509829416
 31
0.0
  0
LINE
  5
321
  8
1
  6
CONTINUOUS
 62
     7
 10
-637.2691182821
 20
900.1511116996
 30
0.0
 11
-642.2690252821
 21
1019.1506456996
 31
0.0
  0
LINE
  5
322
  8
1
  6
CONTINUOUS
 62
     7
 10
-640.7691182821001
 20
900.1511196996
 30
0.0
 11
-637.2691182821
 21
900.1511116996
 31
0.0
  0
LINE
  5
323
  8
1
  6
CONTINUOUS
 62
     7
 10
-600.1298142821001
 20
900.1511182384
 30
0.0
 11
-597.2691182821
 21
900.1511116996
 31
0.0
  0
LINE
  5
324
  8
1
  6
CONTINUOUS
 62
     7
 10
-636.8285222825
 20
902.6509829416
 30
0.0
 11
-637.2691182821
 21
900.1511116996
 31
0.0
  0
LINE
  5
325
  8
1
  6
CONTINUOUS
 62
     7
 10
-596.8285222825
 20
902.6509829416
 30
0.0
 11
-597.2691182821
 21
900.1511116996
 31
0.0
  0
LINE
  5
326
  8
1
  6
CONTINUOUS
 62
     7
 10
-592.2690252821
 20
1019.1506456996
 30
0.0
 11
-595.7690252821
 21
1019.1506376996
 31
0.0
  0
LINE
  5
327
  8
1
  6
CONTINUOUS
 62
     7
 10
-596.2096202821
 20
1016.6508416996
 30
0.0
 11
-595.7690252821
 21
1019.1506376996
 31
0.0
  0
LINE
  5
328
  8
1
  6
CONTINUOUS
 62
     7
 10
-586.8285222825
 20
902.6509829416
 30
0.0
 11
-587.2691182821
 21
900.1511116996
 31
0.0
  0
LINE
  5
329
  8
1
  6
CONTINUOUS
 62
     7
 10
-709.6298142821
 20
725.3204979718
 30
0.0
 11
-709.6298142821
 21
842.3204979718
 31
0.0
  0
LINE
  5
32A
  8
1
  6
CONTINUOUS
 62
     7
 10
-706.6298142821
 20
842.3204979718
 30
0.0
 11
-709.6298142821
 21
842.3204979718
 31
0.0
  0
LINE
  5
32B
  8
1
  6
CONTINUOUS
 62
     7
 10
-636.2095662821
 20
1016.6508416996
 30
0.0
 11
-641.7034482821
 21
1016.6508416996
 31
0.0
  0
LINE
  5
32C
  8
1
  6
CONTINUOUS
 62
     7
 10
-590.7691182821
 20
900.1511196996
 30
0.0
 11
-587.2691182821
 21
900.1511116996
 31
0.0
  0
LINE
  5
32D
  8
1
  6
CONTINUOUS
 62
     7
 10
-642.2690252821
 20
1019.1506456996
 30
0.0
 11
-645.7690252821
 21
1019.1506376996
 31
0.0
  0
LINE
  5
32E
  8
1
  6
CONTINUOUS
 62
     7
 10
-732.6298142821
 20
856.3097209718
 30
0.0
 11
-732.6298142821
 21
711.3204979718
 31
0.0
  0
LINE
  5
32F
  8
1
  6
CONTINUOUS
 62
     7
 10
-635.7690252821
 20
1019.1506376996
 30
0.0
 11
-632.9390842821
 21
951.7970619294
 31
0.0
  0
LINE
  5
330
  8
1
  6
CONTINUOUS
 62
     7
 10
-709.6298142821
 20
725.3204979718
 30
0.0
 11
-706.6298142821
 21
725.3204979718
 31
0.0
  0
LINE
  5
331
  8
1
  6
CONTINUOUS
 62
     7
 10
-738.6298142821
 20
855.3097209718
 30
0.0
 11
-738.6298142821
 21
712.3204979718
 31
0.0
  0
LINE
  5
332
  8
1
  6
CONTINUOUS
 62
     7
 10
-646.8285222825
 20
902.6509829416
 30
0.0
 11
-647.2691182821
 21
900.1511116996
 31
0.0
  0
LINE
  5
333
  8
1
  6
CONTINUOUS
 62
     7
 10
-641.7034482821
 20
1016.6508416996
 30
0.0
 11
-642.2690252821
 21
1019.1506456996
 31
0.0
  0
LINE
  5
334
  8
1
  6
CONTINUOUS
 62
     7
 10
-636.8285222825
 20
902.6509829416
 30
0.0
 11
-632.9390842821
 21
902.6509829416
 31
0.0
  0
LINE
  5
335
  8
1
  6
CONTINUOUS
 62
     7
 10
-645.7690252821
 20
1019.1506376996
 30
0.0
 11
-640.7691182821001
 21
900.1511196996
 31
0.0
  0
LINE
  5
336
  8
1
  6
CONTINUOUS
 62
     7
 10
-595.7690252821
 20
1019.1506376996
 30
0.0
 11
-590.7691182821
 21
900.1511196996
 31
0.0
  0
LINE
  5
337
  8
1
  6
CONTINUOUS
 62
     7
 10
-732.6298142821
 20
856.3097219718
 30
0.0
 11
-715.9886770253001
 21
859.5448963439
 31
0.0
  0
LINE
  5
338
  8
1
  6
CONTINUOUS
 62
     7
 10
-590.7688402821
 20
724.3210939718
 30
0.0
 11
-587.2688402821
 21
724.3210859718
 31
0.0
  0
LINE
  5
339
  8
1
  6
CONTINUOUS
 62
     7
 10
-565.6298142821
 20
726.8204979718
 30
0.0
 11
-565.6298142821
 21
840.8204979718
 31
0.0
  0
ARC
  5
33A
  8
1
  6
CONTINUOUS
 62
     7
 10
-700.1298142821
 20
726.8204979718
 30
0.0
 40
0.4999999999999449
 50
90.0
 51
180.0
  0
LINE
  5
33B
  8
1
  6
CONTINUOUS
 62
     7
 10
-586.8285471760462
 20
726.8204979718
 30
0.0
 11
-581.3342562821
 21
726.8204979718
 31
0.0
  0
LINE
  5
33C
  8
1
  6
CONTINUOUS
 62
     7
 10
-603.1298142821001
 20
787.5823829718
 30
0.0
 11
-603.1298142821001
 21
787.5892819718
 31
0.0
  0
LINE
  5
33D
  8
1
  6
CONTINUOUS
 62
     7
 10
-737.6298142821
 20
856.3097209718
 30
0.0
 11
-732.6298142821
 21
856.3097209718
 31
0.0
  0
LINE
  5
33E
  8
1
  6
CONTINUOUS
 62
     7
 10
-632.9390842821
 20
711.3204979718
 30
0.0
 11
-632.9390842821
 21
856.3204979718
 31
0.0
  0
LINE
  5
33F
  8
1
  6
CONTINUOUS
 62
     7
 10
-732.6298142821
 20
711.3204979718
 30
0.0
 11
-721.1617452821001
 21
709.0913319718
 31
0.0
  0
LINE
  5
340
  8
1
  6
CONTINUOUS
 62
     7
 10
-706.1298142821
 20
840.3204979718
 30
0.0
 11
-704.1298142821
 21
840.3204979718
 31
0.0
  0
LINE
  5
341
  8
1
  6
CONTINUOUS
 62
     7
 10
-704.1298142821
 20
727.3204979718
 30
0.0
 11
-706.1298142821
 21
727.3204979718
 31
0.0
  0
LINE
  5
342
  8
1
  6
CONTINUOUS
 62
     7
 10
-706.6298142821
 20
842.3204979718
 30
0.0
 11
-706.6298142821
 21
725.3204979718
 31
0.0
  0
LINE
  5
343
  8
1
  6
CONTINUOUS
 62
     7
 10
-697.6298142821
 20
843.3204979718
 30
0.0
 11
-692.6298142821
 21
843.3204979718
 31
0.0
  0
ARC
  5
344
  8
1
  6
CONTINUOUS
 62
     7
 10
-700.1298142821
 20
840.8204979718
 30
0.0
 40
0.4999999999999449
 50
180.0
 51
270.0
  0
LINE
  5
345
  8
1
  6
CONTINUOUS
 62
     7
 10
-591.7034482821
 20
840.8204979718
 30
0.0
 11
-586.2096202821
 21
840.8204979718
 31
0.0
  0
LINE
  5
346
  8
1
  6
CONTINUOUS
 62
     7
 10
-700.1298142821
 20
840.3204979718
 30
0.0
 11
-698.1298142821
 21
840.3204979718
 31
0.0
  0
ARC
  5
347
  8
1
  6
CONTINUOUS
 62
     7
 10
-737.6298142821
 20
855.3097209718
 30
0.0
 40
1.000000000000001
 50
90.0
 51
180.0
  0
LINE
  5
348
  8
1
  6
CONTINUOUS
 62
     7
 10
-697.6298142821
 20
843.3204979718
 30
0.0
 11
-697.6298142821
 21
724.3204979718
 31
0.0
  0
LINE
  5
349
  8
1
  6
CONTINUOUS
 62
     7
 10
-700.6298142821
 20
725.3204979718
 30
0.0
 11
-703.6298142821
 21
725.3204979718
 31
0.0
  0
ARC
  5
34A
  8
1
  6
CONTINUOUS
 62
     7
 10
-704.1298142821
 20
726.8204979718
 30
0.0
 40
0.4999999999999449
 50
0.0
 51
90.0
  0
ARC
  5
34B
  8
1
  6
CONTINUOUS
 62
     7
 10
-704.1298142821
 20
840.8204979718
 30
0.0
 40
0.4999999999999449
 50
270.0
 51
0.0
  0
ARC
  5
34C
  8
1
  6
CONTINUOUS
 62
     7
 10
-706.1298142821
 20
726.8204979718
 30
0.0
 40
0.4999999999999449
 50
90.0
 51
180.0
  0
ARC
  5
34D
  8
1
  6
CONTINUOUS
 62
     7
 10
-698.1298142821
 20
840.8204979718
 30
0.0
 40
0.4999999999999449
 50
270.0
 51
0.0
  0
ARC
  5
34E
  8
1
  6
CONTINUOUS
 62
     7
 10
-698.1298142821
 20
726.8204979718
 30
0.0
 40
0.4999999999999449
 50
0.0
 51
90.0
  0
LINE
  5
34F
  8
1
  6
CONTINUOUS
 62
     7
 10
-703.6298142821
 20
842.3204979718
 30
0.0
 11
-700.6298142821
 21
842.3204979718
 31
0.0
  0
LINE
  5
350
  8
1
  6
CONTINUOUS
 62
     7
 10
-703.6298142821
 20
842.3204979718
 30
0.0
 11
-703.6298142821
 21
725.3204979718
 31
0.0
  0
ARC
  5
351
  8
1
  6
CONTINUOUS
 62
     7
 10
-706.1298142821
 20
840.8204979718
 30
0.0
 40
0.4999999999999449
 50
180.0
 51
270.0
  0
LINE
  5
352
  8
1
  6
CONTINUOUS
 62
     7
 10
-692.6298142821
 20
724.3204979718
 30
0.0
 11
-697.6298142821
 21
724.3204979718
 31
0.0
  0
LINE
  5
353
  8
1
  6
CONTINUOUS
 62
     7
 10
-698.1298142821
 20
727.3204979718
 30
0.0
 11
-700.1298142821
 21
727.3204979718
 31
0.0
  0
ARC
  5
354
  8
1
  6
CONTINUOUS
 62
     7
 10
-737.6298142821
 20
712.3204979718
 30
0.0
 40
1.000000000000001
 50
180.0
 51
270.0
  0
LINE
  5
355
  8
1
  6
CONTINUOUS
 62
     7
 10
-700.6298142821
 20
842.3204979718
 30
0.0
 11
-700.6298142821
 21
725.3204979718
 31
0.0
  0
LINE
  5
356
  8
1
  6
CONTINUOUS
 62
     7
 10
-732.6298142821
 20
711.3204979718
 30
0.0
 11
-737.6298142821
 21
711.3204979718
 31
0.0
  0
LINE
  5
357
  8
1
  6
CONTINUOUS
 62
     7
 10
-692.6298142821
 20
724.3204979718
 30
0.0
 11
-692.6298142821
 21
773.8852169718
 31
0.0
  0
ARC
  5
358
  8
1
  6
CONTINUOUS
 62
     7
 10
-602.9073732821
 20
732.9966069718
 30
0.0
 40
2.85535800000003
 50
265.531977
 51
345.08883
  0
LINE
  5
359
  8
1
  6
CONTINUOUS
 62
     7
 10
-632.9390842821
 20
711.3204979718
 30
0.0
 11
-603.1298142821001
 21
711.3204979718
 31
0.0
  0
LINE
  5
35A
  8
1
  6
CONTINUOUS
 62
     7
 10
-627.6298142821
 20
734.9355459718
 30
0.0
 11
-627.6298142821
 21
780.5290149718
 31
0.0
  0
LINE
  5
35B
  8
1
  6
CONTINUOUS
 62
     7
 10
-627.6298142821
 20
837.3603099718
 30
0.0
 11
-627.6298142821
 21
856.2457429718
 31
0.0
  0
LINE
  5
35C
  8
1
  6
CONTINUOUS
 62
     7
 10
-627.6298142821
 20
787.1119809718
 30
0.0
 11
-627.6298142821
 21
832.7054499718
 31
0.0
  0
ARC
  5
35D
  8
1
  6
CONTINUOUS
 62
     7
 10
-602.8091602821
 20
802.1091449718
 30
0.0
 40
22.05286299999998
 50
269.166876
 51
275.800221
  0
ARC
  5
35E
  8
1
  6
CONTINUOUS
 62
     7
 10
-603.1298142821001
 20
714.3204979718
 30
0.0
 40
3.000000000000003
 50
270.0
 51
0.0
  0
LINE
  5
35F
  8
1
  6
CONTINUOUS
 62
     7
 10
-682.2690252821
 20
843.3203019718
 30
0.0
 11
-685.7690252821001
 21
843.3202939718
 31
0.0
  0
ARC
  5
360
  8
1
  6
CONTINUOUS
 62
     7
 10
-602.8289862821
 20
764.3212549718
 30
0.0
 40
23.26307400000005
 50
84.524217
 51
90.740944
  0
LINE
  5
361
  8
1
  6
CONTINUOUS
 62
     7
 10
-603.1298142821001
 20
837.4910699718
 30
0.0
 11
-627.6298142821
 21
837.4910699718
 31
0.0
  0
LINE
  5
362
  8
1
  6
CONTINUOUS
 62
     7
 10
-686.8280402821
 20
726.8204979718
 30
0.0
 11
-681.3342562821
 21
726.8204979718
 31
0.0
  0
LINE
  5
363
  8
1
  6
CONTINUOUS
 62
     7
 10
-686.2095662821
 20
840.8204979718
 30
0.0
 11
-691.7034572821
 21
840.8204979718
 31
0.0
  0
LINE
  5
364
  8
1
  6
CONTINUOUS
 62
     7
 10
-676.2095662821
 20
840.8204979718
 30
0.0
 11
-681.7034482821
 21
840.8204979718
 31
0.0
  0
LINE
  5
365
  8
1
  6
CONTINUOUS
 62
     7
 10
-685.7690252821001
 20
843.3202939718
 30
0.0
 11
-680.7691182821
 21
724.3207759718
 31
0.0
  0
LINE
  5
366
  8
1
  6
CONTINUOUS
 62
     7
 10
-681.3342562821
 20
726.8204979718
 30
0.0
 11
-680.7691182821
 21
724.3207759718
 31
0.0
  0
LINE
  5
367
  8
1
  6
CONTINUOUS
 62
     7
 10
-627.6298142821
 20
711.3952529718
 30
0.0
 11
-627.6298142821
 21
730.2806859718
 31
0.0
  0
LINE
  5
368
  8
1
  6
CONTINUOUS
 62
     7
 10
-677.2691182821
 20
724.3207679718
 30
0.0
 11
-682.2690252821
 21
843.3203019718
 31
0.0
  0
LINE
  5
369
  8
1
  6
CONTINUOUS
 62
     7
 10
-686.2096202821
 20
840.8204979718
 30
0.0
 11
-685.7690252821001
 21
843.3202939718
 31
0.0
  0
LINE
  5
36A
  8
1
  6
CONTINUOUS
 62
     7
 10
-603.1298142821001
 20
856.3204979718
 30
0.0
 11
-632.9390842821
 21
856.3204979718
 31
0.0
  0
LINE
  5
36B
  8
1
  6
CONTINUOUS
 62
     7
 10
-603.1298142821001
 20
787.5892819718
 30
0.0
 11
-627.6298142821
 21
787.5892819718
 31
0.0
  0
LINE
  5
36C
  8
1
  6
CONTINUOUS
 62
     7
 10
-600.1298142821001
 20
714.3204979718
 30
0.0
 11
-600.1298142821001
 21
853.3204979718
 31
0.0
  0
LINE
  5
36D
  8
1
  6
CONTINUOUS
 62
     7
 10
-680.7691182821
 20
724.3207759718
 30
0.0
 11
-677.2691182821
 21
724.3207679718
 31
0.0
  0
ARC
  5
36E
  8
1
  6
CONTINUOUS
 62
     7
 10
-602.9110972821001
 20
834.6391339718
 30
0.0
 40
2.860310999999949
 50
14.993725
 51
94.385468
  0
LINE
  5
36F
  8
1
  6
CONTINUOUS
 62
     7
 10
-627.6298142821
 20
730.1499259718
 30
0.0
 11
-603.1298142821001
 21
730.1499259718
 31
0.0
  0
ARC
  5
370
  8
1
  6
CONTINUOUS
 62
     7
 10
-603.1298142821001
 20
853.3204979718
 30
0.0
 40
3.000000000000003
 50
0.0
 51
90.0
  0
LINE
  5
371
  8
1
  6
CONTINUOUS
 62
     7
 10
-627.6298142821
 20
780.0517149718
 30
0.0
 11
-603.1298142821001
 21
780.0517149718
 31
0.0
  0
LINE
  5
372
  8
1
  6
CONTINUOUS
 62
     7
 10
-603.1298142821001
 20
780.0517149718
 30
0.0
 11
-603.1298142821001
 21
780.0586139718
 31
0.0
  0
ENDSEC
  0
EOF
