  0
SECTION
  2
HEADER
  9
$ACADVER
  1
AC1006
  9
$DWGCODEPAGE
  3
ansi_932
  9
$INSBASE
 10
0.0
 20
0.0
 30
0.0
  9
$EXTMIN
 10
-788.9484979789
 20
0.0
  9
$EXTMAX
 10
6.956136363636363
 20
2375.8356352649
  9
$LIMMIN
 10
0.0
 20
0.0
  9
$LIMMAX
 10
12.0
 20
9.0
  9
$ORTHOMODE
 70
     0
  9
$REGENMODE
 70
     1
  9
$FILLMODE
 70
     1
  9
$QTEXTMODE
 70
     0
  9
$MIRRTEXT
 70
     1
  9
$DRAGMODE
 70
     2
  9
$LTSCALE
 40
1.0
  9
$OSMODE
 70
    37
  9
$ATTMODE
 70
     1
  9
$TEXTSIZE
 40
0.2
  9
$TRACEWID
 40
0.05
  9
$TEXTSTYLE
  7
STANDARD
  9
$CLAYER
  8
0
  9
$CELTYPE
  6
BYLAYER
  9
$CECOLOR
 62
   256
  9
$DIMSCALE
 40
1.0
  9
$DIMASZ
 40
3.0
  9
$DIMEXO
 40
0.0625
  9
$DIMDLI
 40
0.38
  9
$DIMRND
 40
0.0
  9
$DIMDLE
 40
0.0
  9
$DIMEXE
 40
1.5
  9
$DIMTP
 40
0.0
  9
$DIMTM
 40
0.0
  9
$DIMTXT
 40
3.5
  9
$DIMCEN
 40
0.09
  9
$DIMTSZ
 40
0.0
  9
$DIMTOL
 70
     0
  9
$DIMLIM
 70
     0
  9
$DIMTIH
 70
     1
  9
$DIMTOH
 70
     1
  9
$DIMSE1
 70
     0
  9
$DIMSE2
 70
     0
  9
$DIMTAD
 70
     1
  9
$DIMZIN
 70
     0
  9
$DIMBLK
  1

  9
$DIMASO
 70
     1
  9
$DIMSHO
 70
     1
  9
$DIMPOST
  1

  9
$DIMAPOST
  1

  9
$DIMALT
 70
     0
  9
$DIMALTD
 70
     2
  9
$DIMALTF
 40
25.4
  9
$DIMLFAC
 40
1.0
  9
$DIMTOFL
 70
     0
  9
$DIMTVP
 40
0.0
  9
$DIMTIX
 70
     0
  9
$DIMSOXD
 70
     0
  9
$DIMSAH
 70
     0
  9
$DIMBLK1
  1

  9
$DIMBLK2
  1

  9
$LUNITS
 70
     2
  9
$LUPREC
 70
     4
  9
$SKETCHINC
 40
0.1
  9
$FILLETRAD
 40
0.5
  9
$AUNITS
 70
     0
  9
$AUPREC
 70
     0
  9
$MENU
  1
.
  9
$ELEVATION
 40
0.0
  9
$THICKNESS
 40
0.0
  9
$LIMCHECK
 70
     0
  9
$CHAMFERA
 40
0.0
  9
$CHAMFERB
 40
0.0
  9
$SKPOLY
 70
     0
  9
$TDCREATE
 40
2460497.47675441
  9
$TDUPDATE
 40
2460497.476755035
  9
$TDINDWG
 40
0.0000000116
  9
$TDUSRTIMER
 40
0.0000000116
  9
$USRTIMER
 70
     1
  9
$ANGBASE
 50
0.0
  9
$ANGDIR
 70
     0
  9
$PDMODE
 70
     0
  9
$PDSIZE
 40
0.0
  9
$PLINEWID
 40
0.0
  9
$COORDS
 70
     1
  9
$SPLFRAME
 70
     0
  9
$SPLINETYPE
 70
     6
  9
$SPLINESEGS
 70
     8
  9
$ATTDIA
 70
     0
  9
$ATTREQ
 70
     1
  9
$HANDLING
 70
     1
  9
$HANDSEED
  5
3B6
  9
$SURFTAB1
 70
     6
  9
$SURFTAB2
 70
     6
  9
$SURFTYPE
 70
     6
  9
$SURFU
 70
     6
  9
$SURFV
 70
     6
  9
$UCSNAME
  2

  9
$UCSORG
 10
0.0
 20
0.0
 30
0.0
  9
$UCSXDIR
 10
1.0
 20
0.0
 30
0.0
  9
$UCSYDIR
 10
0.0
 20
1.0
 30
0.0
  9
$USERI1
 70
     0
  9
$USERI2
 70
     0
  9
$USERI3
 70
     0
  9
$USERI4
 70
     0
  9
$USERI5
 70
     0
  9
$USERR1
 40
0.0
  9
$USERR2
 40
0.0
  9
$USERR3
 40
0.0
  9
$USERR4
 40
0.0
  9
$USERR5
 40
0.0
  9
$WORLDVIEW
 70
     1
  0
ENDSEC
  0
SECTION
  2
TABLES
  0
TABLE
  2
VPORT
 70
     1
  0
VPORT
  2
*ACTIVE
 70
     0
 10
0.0
 20
0.0
 11
1.0
 21
1.0
 12
-390.9961808076318
 22
1187.91781763245
 13
0.0
 23
0.0
 14
0.5
 24
0.5
 15
0.5
 25
0.5
 16
0.0
 26
0.0
 36
1.0
 17
0.0
 27
0.0
 37
0.0
 40
2375.8356352649
 41
1.6
 42
50.0
 43
0.0
 44
0.0
 50
0.0
 51
0.0
 71
     0
 72
   100
 73
     1
 74
     3
 75
     0
 76
     0
 77
     0
 78
     0
  0
ENDTAB
  0
TABLE
  2
LTYPE
 70
     2
  0
LTYPE
  2
CONTINUOUS
 70
     0
  3
Solid line
 72
    65
 73
     0
 40
0.0
  0
LTYPE
  2
CENTER
 70
     0
  3

 72
    65
 73
     0
 40
0.0
  0
ENDTAB
  0
TABLE
  2
LAYER
 70
     2
  0
LAYER
  2
0
 70
     0
 62
     7
  6
CONTINUOUS
  0
LAYER
  2
1
 70
     0
 62
     7
  6
CONTINUOUS
  0
ENDTAB
  0
TABLE
  2
STYLE
 70
     2
  0
STYLE
  2
STANDARD
 70
     0
 40
0.0
 41
1.0
 50
0.0
 71
     0
 42
0.2
  3
txt
  4

  0
STYLE
  2
ＭＳ_ゴシック
 70
     0
 40
0.0
 41
1.0
 50
0.0
 71
     0
 42
0.2
  3
ＭＳ ゴシック.shx
  4

  0
ENDTAB
  0
TABLE
  2
VIEW
 70
     0
  0
ENDTAB
  0
TABLE
  2
UCS
 70
     0
  0
ENDTAB
  0
ENDSEC
  0
SECTION
  2
BLOCKS
  0
BLOCK
  8
0
  2
D_FRAME_DRAWING_21
 70
     0
 10
0.0
 20
0.0
 30
0.0
  0
LINE
  5
8A
  8
0
  6
CONTINUOUS
 62
     7
 10
0.0
 20
0.0
 30
0.0
 11
420.0
 21
0.0
 31
0.0
  0
LINE
  5
8B
  8
0
  6
CONTINUOUS
 62
     7
 10
420.0
 20
0.0
 30
0.0
 11
420.0
 21
297.0
 31
0.0
  0
LINE
  5
8C
  8
0
  6
CONTINUOUS
 62
     7
 10
420.0
 20
297.0
 30
0.0
 11
0.0
 21
297.0
 31
0.0
  0
LINE
  5
8D
  8
0
  6
CONTINUOUS
 62
     7
 10
0.0
 20
297.0
 30
0.0
 11
0.0
 21
0.0
 31
0.0
  0
LINE
  5
8E
  8
0
  6
CONTINUOUS
 62
     7
 10
10.0
 20
10.0
 30
0.0
 11
409.9999999999999
 21
10.0
 31
0.0
  0
LINE
  5
8F
  8
0
  6
CONTINUOUS
 62
     7
 10
409.9999999999999
 20
10.0
 30
0.0
 11
409.9999999999999
 21
286.9999999999999
 31
0.0
  0
LINE
  5
90
  8
0
  6
CONTINUOUS
 62
     7
 10
409.9999999999999
 20
286.9999999999999
 30
0.0
 11
10.00000000000006
 21
286.9999999999999
 31
0.0
  0
LINE
  5
91
  8
0
  6
CONTINUOUS
 62
     7
 10
10.0
 20
286.9999999999999
 30
0.0
 11
10.0
 21
10.00000000000001
 31
0.0
  0
LINE
  5
92
  8
0
  6
CONTINUOUS
 62
     7
 10
210.0
 20
0.0
 30
0.0
 11
210.0
 21
10.0
 31
0.0
  0
LINE
  5
93
  8
0
  6
CONTINUOUS
 62
     7
 10
420.0
 20
148.5
 30
0.0
 11
409.9999999999999
 21
148.5
 31
0.0
  0
LINE
  5
94
  8
0
  6
CONTINUOUS
 62
     7
 10
210.0
 20
297.0
 30
0.0
 11
210.0
 21
286.9999999999999
 31
0.0
  0
LINE
  5
95
  8
0
  6
CONTINUOUS
 62
     7
 10
0.0
 20
148.5
 30
0.0
 11
10.0
 21
148.5
 31
0.0
  0
POLYLINE
  5
96
  8
0
  6
CONTINUOUS
 62
     7
 66
     1
 10
0.0
 20
0.0
 30
0.0
 70
     1
  0
VERTEX
  5
387
  8
0
  6
CONTINUOUS
 62
     7
 10
11.0
 20
152.5
 30
0.0
  0
VERTEX
  5
388
  8
0
  6
CONTINUOUS
 62
     7
 10
0.0
 20
148.5
 30
0.0
  0
VERTEX
  5
389
  8
0
  6
CONTINUOUS
 62
     7
 10
11.0
 20
144.5
 30
0.0
  0
VERTEX
  5
38A
  8
0
  6
CONTINUOUS
 62
     7
 10
11.0
 20
152.5
 30
0.0
  0
SEQEND
  5
3B4
  8
0
  6
CONTINUOUS
 62
     7
  0
INSERT
  5
97
  8
0
 62
     7
  2
*U2
 10
0.0
 20
0.0
 30
0.0
  0
POLYLINE
  5
98
  8
0
  6
CONTINUOUS
 62
     7
 66
     1
 10
0.0
 20
0.0
 30
0.0
 70
     1
  0
VERTEX
  5
38D
  8
0
  6
CONTINUOUS
 62
     7
 10
206.0
 20
11.0
 30
0.0
  0
VERTEX
  5
38E
  8
0
  6
CONTINUOUS
 62
     7
 10
210.0
 20
0.0
 30
0.0
  0
VERTEX
  5
38F
  8
0
  6
CONTINUOUS
 62
     7
 10
214.0
 20
11.0
 30
0.0
  0
VERTEX
  5
390
  8
0
  6
CONTINUOUS
 62
     7
 10
206.0
 20
11.0
 30
0.0
  0
SEQEND
  5
3B5
  8
0
  6
CONTINUOUS
 62
     7
  0
INSERT
  5
99
  8
0
 62
     7
  2
*U3
 10
0.0
 20
0.0
 30
0.0
  0
LINE
  5
9A
  8
0
  6
CONTINUOUS
 62
     7
 10
367.5
 20
286.9999999999999
 30
0.0
 11
367.5
 21
292.0
 31
0.0
  0
TEXT
  5
9B
  8
0
  6
CONTINUOUS
 62
     7
 10
391.6340909090909
 20
291.8324293485057
 30
0.0
 40
3.5
  1
A
 50
270.0
  0
LINE
  5
9C
  8
0
  6
CONTINUOUS
 62
     7
 10
367.5
 20
10.0
 30
0.0
 11
367.5
 21
5.0
 31
0.0
  0
TEXT
  5
9D
  8
0
  6
CONTINUOUS
 62
     7
 10
392.9868888333125
 20
4.602272727272727
 30
0.0
 40
3.5
  1
A
  0
LINE
  5
9E
  8
0
  6
CONTINUOUS
 62
     7
 10
315.0
 20
286.9999999999999
 30
0.0
 11
315.0
 21
292.0
 31
0.0
  0
TEXT
  5
9F
  8
0
  6
CONTINUOUS
 62
     7
 10
339.1340909090909
 20
291.9745607727899
 30
0.0
 40
3.5
  1
B
 50
270.0
  0
LINE
  5
A0
  8
0
  6
CONTINUOUS
 62
     7
 10
315.0
 20
10.0
 30
0.0
 11
315.0
 21
5.0
 31
0.0
  0
TEXT
  5
A1
  8
0
  6
CONTINUOUS
 62
     7
 10
340.3447574090284
 20
4.602272727272727
 30
0.0
 40
3.5
  1
B
  0
LINE
  5
A2
  8
0
  6
CONTINUOUS
 62
     7
 10
262.5
 20
286.9999999999999
 30
0.0
 11
262.5
 21
292.0
 31
0.0
  0
TEXT
  5
A3
  8
0
  6
CONTINUOUS
 62
     7
 10
286.6327779167187
 20
291.9399305989747
 30
0.0
 40
3.5
  1
C
 50
270.0
  0
LINE
  5
A4
  8
0
  6
CONTINUOUS
 62
     7
 10
262.5
 20
10.0
 30
0.0
 11
262.5
 21
5.0
 31
0.0
  0
TEXT
  5
A5
  8
0
  6
CONTINUOUS
 62
     7
 10
287.8793875828435
 20
4.600959734900587
 30
0.0
 40
3.5
  1
C
  0
LINE
  5
A6
  8
0
  6
CONTINUOUS
 62
     7
 10
210.0
 20
286.9999999999999
 30
0.0
 11
210.0
 21
292.0
 31
0.0
  0
TEXT
  5
A7
  8
0
  6
CONTINUOUS
 62
     7
 10
234.1340909090909
 20
291.9745607727898
 30
0.0
 40
3.5
  1
D
 50
270.0
  0
LINE
  5
A8
  8
0
  6
CONTINUOUS
 62
     7
 10
157.5
 20
286.9999999999999
 30
0.0
 11
157.5
 21
292.0
 31
0.0
  0
TEXT
  5
A9
  8
0
  6
CONTINUOUS
 62
     7
 10
181.6327779167188
 20
292.027463423784
 30
0.0
 40
3.5
  1
E
 50
270.0
  0
LINE
  5
AA
  8
0
  6
CONTINUOUS
 62
     7
 10
157.5
 20
10.0
 30
0.0
 11
157.5
 21
5.0
 31
0.0
  0
LINE
  5
AB
  8
0
  6
CONTINUOUS
 62
     7
 10
105.0
 20
286.9999999999999
 30
0.0
 11
105.0
 21
292.0
 31
0.0
  0
TEXT
  5
AC
  8
0
  6
CONTINUOUS
 62
     7
 10
129.1327779167188
 20
291.9924502938602
 30
0.0
 40
3.5
  1
F
 50
270.0
  0
LINE
  5
AD
  8
0
  6
CONTINUOUS
 62
     7
 10
105.0
 20
10.0
 30
0.0
 11
105.0
 21
5.0
 31
0.0
  0
TEXT
  5
AE
  8
0
  6
CONTINUOUS
 62
     7
 10
130.326867887958
 20
4.600959734900587
 30
0.0
 40
3.5
  1
F
  0
LINE
  5
AF
  8
0
  6
CONTINUOUS
 62
     7
 10
52.50000000000004
 20
286.9999999999999
 30
0.0
 11
52.50000000000004
 21
292.0
 31
0.0
  0
TEXT
  5
B0
  8
0
  6
CONTINUOUS
 62
     7
 10
76.6327779167188
 20
291.9399305989746
 30
0.0
 40
3.5
  1
G
 50
270.0
  0
LINE
  5
B1
  8
0
  6
CONTINUOUS
 62
     7
 10
52.50000000000004
 20
10.0
 30
0.0
 11
52.50000000000004
 21
5.0
 31
0.0
  0
TEXT
  5
B2
  8
0
  6
CONTINUOUS
 62
     7
 10
77.8793875828436
 20
4.600959734900587
 30
0.0
 40
3.5
  1
G
  0
TEXT
  5
B3
  8
0
  6
CONTINUOUS
 62
     7
 10
24.13277791671879
 20
291.9749437288983
 30
0.0
 40
3.5
  1
H
 50
270.0
  0
TEXT
  5
B4
  8
0
  6
CONTINUOUS
 62
     7
 10
25.34437445291988
 20
4.600959734900587
 30
0.0
 40
3.5
  1
H
  0
LINE
  5
B5
  8
0
  6
CONTINUOUS
 62
     7
 10
409.9999999999999
 20
74.25
 30
0.0
 11
414.9999999999999
 21
74.25
 31
0.0
  0
TEXT
  5
B6
  8
0
  6
CONTINUOUS
 62
     7
 10
412.9326059772414
 20
35.00777791671877
 30
0.0
 40
3.5
  1
1
  0
LINE
  5
B7
  8
0
  6
CONTINUOUS
 62
     7
 10
10.0
 20
74.25
 30
0.0
 11
5.0
 21
74.25
 31
0.0
  0
TEXT
  5
B8
  8
0
  6
CONTINUOUS
 62
     7
 10
4.600959734900584
 20
38.26171220457671
 30
0.0
 40
3.5
  1
1
 50
270.0
  0
LINE
  5
B9
  8
0
  6
CONTINUOUS
 62
     7
 10
409.9999999999999
 20
148.5
 30
0.0
 11
414.9999999999999
 21
148.5
 31
0.0
  0
TEXT
  5
BA
  8
0
  6
CONTINUOUS
 62
     7
 10
413.163692634738
 20
109.2577779167188
 30
0.0
 40
3.5
  1
2
  0
LINE
  5
BB
  8
0
  6
CONTINUOUS
 62
     7
 10
10.0
 20
148.5
 30
0.0
 11
5.0
 21
148.5
 31
0.0
  0
TEXT
  5
BC
  8
0
  6
CONTINUOUS
 62
     7
 10
4.600959734900599
 20
112.2806255470802
 30
0.0
 40
3.5
  1
2
 50
270.0
  0
LINE
  5
BD
  8
0
  6
CONTINUOUS
 62
     7
 10
409.9999999999999
 20
222.75
 30
0.0
 11
414.9999999999999
 21
222.75
 31
0.0
  0
TEXT
  5
BE
  8
0
  6
CONTINUOUS
 62
     7
 10
413.1811991996998
 20
183.5077779167188
 30
0.0
 40
3.5
  1
3
  0
LINE
  5
BF
  8
0
  6
CONTINUOUS
 62
     7
 10
10.0
 20
222.75
 30
0.0
 11
5.0
 21
222.75
 31
0.0
  0
TEXT
  5
C0
  8
0
  6
CONTINUOUS
 62
     7
 10
4.600959734900584
 20
186.5131189821183
 30
0.0
 40
3.5
  1
3
 50
270.0
  0
TEXT
  5
C1
  8
0
  6
CONTINUOUS
 62
     7
 10
413.2351413029886
 20
257.7590909090909
 30
0.0
 40
3.5
  1
4
  0
TEXT
  5
C2
  8
0
  6
CONTINUOUS
 62
     7
 10
4.60227272727272
 20
260.7091768788295
 30
0.0
 40
3.5
  1
4
 50
270.0
  0
LINE
  5
C3
  8
0
  6
CONTINUOUS
 62
     7
 10
220.0
 20
10.0
 30
0.0
 11
220.0
 21
7.0
 31
0.0
  0
LINE
  5
C4
  8
0
  6
CONTINUOUS
 62
     7
 10
200.0
 20
10.0
 30
0.0
 11
200.0
 21
7.0
 31
0.0
  0
LINE
  5
C5
  8
0
  6
CONTINUOUS
 62
     7
 10
230.0
 20
10.0
 30
0.0
 11
230.0
 21
7.0
 31
0.0
  0
LINE
  5
C6
  8
0
  6
CONTINUOUS
 62
     7
 10
190.0
 20
10.0
 30
0.0
 11
190.0
 21
7.0
 31
0.0
  0
LINE
  5
C7
  8
0
  6
CONTINUOUS
 62
     7
 10
240.0
 20
10.0
 30
0.0
 11
240.0
 21
7.0
 31
0.0
  0
LINE
  5
C8
  8
0
  6
CONTINUOUS
 62
     7
 10
180.0
 20
10.0
 30
0.0
 11
180.0
 21
7.0
 31
0.0
  0
LINE
  5
C9
  8
0
  6
CONTINUOUS
 62
     7
 10
250.0
 20
10.0
 30
0.0
 11
250.0
 21
7.0
 31
0.0
  0
LINE
  5
CA
  8
0
  6
CONTINUOUS
 62
     7
 10
170.0
 20
10.0
 30
0.0
 11
170.0
 21
7.0
 31
0.0
  0
LINE
  5
CB
  8
0
  6
CONTINUOUS
 62
     7
 10
260.0
 20
10.0
 30
0.0
 11
260.0
 21
5.0
 31
0.0
  0
LINE
  5
CC
  8
0
  6
CONTINUOUS
 62
     7
 10
160.0
 20
10.0
 30
0.0
 11
160.0
 21
5.0
 31
0.0
  0
LINE
  5
CD
  8
0
  6
CONTINUOUS
 62
     7
 10
260.0
 20
10.0
 30
0.0
 11
160.0
 21
10.0
 31
0.0
  0
LINE
  5
CE
  8
0
  6
CONTINUOUS
 62
     7
 10
260.0
 20
7.0
 30
0.0
 11
160.0
 21
7.0
 31
0.0
  0
INSERT
  5
CF
  8
0
 62
     7
  2
*U4
 10
0.0
 20
0.0
 30
0.0
  0
INSERT
  5
D0
  8
0
 62
     7
  2
*U5
 10
0.0
 20
0.0
 30
0.0
  0
INSERT
  5
D1
  8
0
 62
     7
  2
*U6
 10
0.0
 20
0.0
 30
0.0
  0
INSERT
  5
D2
  8
0
 62
     7
  2
*U7
 10
0.0
 20
0.0
 30
0.0
  0
ENDBLK
  8
0
  0
BLOCK
  8
0
  2
*U2
 70
     1
 10
0.0
 20
0.0
 30
0.0
  0
SOLID
  5
38C
  8
0
  6
CONTINUOUS
 62
     7
 10
11.0
 20
144.5
 30
0.0
 11
6.999999999999999
 21
148.5
 31
0.0
 12
11.0
 22
152.5
 32
0.0
 13
11.0
 23
152.5
 33
0.0
  0
ENDBLK
  8
0
  0
BLOCK
  8
0
  2
*U3
 70
     1
 10
0.0
 20
0.0
 30
0.0
  0
SOLID
  5
392
  8
0
  6
CONTINUOUS
 62
     7
 10
210.0
 20
6.999999999999999
 30
0.0
 11
206.0
 21
11.0
 31
0.0
 12
210.0
 22
11.0
 32
0.0
 13
210.0
 23
11.0
 33
0.0
  0
SOLID
  5
393
  8
0
  6
CONTINUOUS
 62
     7
 10
210.0
 20
6.999999999999999
 30
0.0
 11
210.0
 21
11.0
 31
0.0
 12
214.0
 22
11.0
 32
0.0
 13
214.0
 23
11.0
 33
0.0
  0
ENDBLK
  8
0
  0
BLOCK
  8
0
  2
*U4
 70
     1
 10
0.0
 20
0.0
 30
0.0
  0
SOLID
  5
395
  8
0
  6
CONTINUOUS
 62
     7
 10
0.0
 20
0.0
 30
0.0
 11
0.0
 21
10.0
 31
0.0
 12
2.0
 22
0.0
 32
0.0
 13
2.0
 23
0.0
 33
0.0
  0
SOLID
  5
396
  8
0
  6
CONTINUOUS
 62
     7
 10
2.0
 20
0.0
 30
0.0
 11
0.0
 21
10.0
 31
0.0
 12
2.0
 22
10.0
 32
0.0
 13
2.0
 23
10.0
 33
0.0
  0
SOLID
  5
397
  8
0
  6
CONTINUOUS
 62
     7
 10
2.0
 20
0.0
 30
0.0
 11
2.0
 21
2.0
 31
0.0
 12
10.0
 22
0.0
 32
0.0
 13
10.0
 23
0.0
 33
0.0
  0
SOLID
  5
398
  8
0
  6
CONTINUOUS
 62
     7
 10
10.0
 20
0.0
 30
0.0
 11
2.0
 21
2.0
 31
0.0
 12
10.0
 22
2.0
 32
0.0
 13
10.0
 23
2.0
 33
0.0
  0
ENDBLK
  8
0
  0
BLOCK
  8
0
  2
*U5
 70
     1
 10
0.0
 20
0.0
 30
0.0
  0
SOLID
  5
39A
  8
0
  6
CONTINUOUS
 62
     7
 10
409.9999999999999
 20
0.0
 30
0.0
 11
409.9999999999999
 21
2.0
 31
0.0
 12
418.0
 22
0.0
 32
0.0
 13
418.0
 23
0.0
 33
0.0
  0
SOLID
  5
39B
  8
0
  6
CONTINUOUS
 62
     7
 10
418.0
 20
0.0
 30
0.0
 11
409.9999999999999
 21
2.0
 31
0.0
 12
418.0
 22
2.0
 32
0.0
 13
418.0
 23
2.0
 33
0.0
  0
SOLID
  5
39C
  8
0
  6
CONTINUOUS
 62
     7
 10
418.0
 20
0.0
 30
0.0
 11
418.0
 21
10.0
 31
0.0
 12
420.0
 22
0.0
 32
0.0
 13
420.0
 23
0.0
 33
0.0
  0
SOLID
  5
39D
  8
0
  6
CONTINUOUS
 62
     7
 10
420.0
 20
0.0
 30
0.0
 11
418.0
 21
10.0
 31
0.0
 12
420.0
 22
10.0
 32
0.0
 13
420.0
 23
10.0
 33
0.0
  0
ENDBLK
  8
0
  0
BLOCK
  8
0
  2
*U6
 70
     1
 10
0.0
 20
0.0
 30
0.0
  0
SOLID
  5
39F
  8
0
  6
CONTINUOUS
 62
     7
 10
409.9999999999999
 20
295.0
 30
0.0
 11
409.9999999999999
 21
297.0
 31
0.0
 12
418.0
 22
295.0
 32
0.0
 13
418.0
 23
295.0
 33
0.0
  0
SOLID
  5
3A0
  8
0
  6
CONTINUOUS
 62
     7
 10
418.0
 20
295.0
 30
0.0
 11
409.9999999999999
 21
297.0
 31
0.0
 12
418.0
 22
297.0
 32
0.0
 13
418.0
 23
297.0
 33
0.0
  0
SOLID
  5
3A1
  8
0
  6
CONTINUOUS
 62
     7
 10
418.0
 20
286.9999999999999
 30
0.0
 11
418.0
 21
297.0
 31
0.0
 12
420.0
 22
286.9999999999999
 32
0.0
 13
420.0
 23
286.9999999999999
 33
0.0
  0
SOLID
  5
3A2
  8
0
  6
CONTINUOUS
 62
     7
 10
420.0
 20
286.9999999999999
 30
0.0
 11
418.0
 21
297.0
 31
0.0
 12
420.0
 22
297.0
 32
0.0
 13
420.0
 23
297.0
 33
0.0
  0
ENDBLK
  8
0
  0
BLOCK
  8
0
  2
*U7
 70
     1
 10
0.0
 20
0.0
 30
0.0
  0
SOLID
  5
3A4
  8
0
  6
CONTINUOUS
 62
     7
 10
0.0
 20
286.9999999999999
 30
0.0
 11
0.0
 21
297.0
 31
0.0
 12
2.0
 22
286.9999999999999
 32
0.0
 13
2.0
 23
286.9999999999999
 33
0.0
  0
SOLID
  5
3A5
  8
0
  6
CONTINUOUS
 62
     7
 10
2.0
 20
286.9999999999999
 30
0.0
 11
0.0
 21
297.0
 31
0.0
 12
2.0
 22
297.0
 32
0.0
 13
2.0
 23
297.0
 33
0.0
  0
SOLID
  5
3A6
  8
0
  6
CONTINUOUS
 62
     7
 10
2.0
 20
295.0
 30
0.0
 11
2.0
 21
297.0
 31
0.0
 12
10.0
 22
295.0
 32
0.0
 13
10.0
 23
295.0
 33
0.0
  0
SOLID
  5
3A7
  8
0
  6
CONTINUOUS
 62
     7
 10
10.0
 20
295.0
 30
0.0
 11
2.0
 21
297.0
 31
0.0
 12
10.0
 22
297.0
 32
0.0
 13
10.0
 23
297.0
 33
0.0
  0
ENDBLK
  8
0
  0
ENDSEC
  0
SECTION
  2
ENTITIES
  0
LINE
  5
70
  8
1
  6
CENTER
 62
     5
 10
-788.9484979789
 20
2225.3973975494
 30
0.0
 11
-714.9484979789
 21
2225.3973975494
 31
0.0
  0
LINE
  5
72
  8
1
  6
CONTINUOUS
 62
     7
 10
-614.7501839505
 20
2361.8356352649
 30
0.0
 11
-617.6596291664
 21
2361.8356352649
 31
0.0
  0
LINE
  5
73
  8
1
  6
CONTINUOUS
 62
     7
 10
-610.0094949919
 20
2319.8356352649
 30
0.0
 11
-610.2304499995
 21
2318.5860356959
 31
0.0
  0
LINE
  5
74
  8
1
  6
CONTINUOUS
 62
     7
 10
-615.0094935333
 20
2319.8356352649
 30
0.0
 11
-612.1006355397
 21
2319.8356352649
 31
0.0
  0
LINE
  5
75
  8
1
  6
CONTINUOUS
 62
     7
 10
-612.729815277
 20
2363.0852430546
 30
0.0
 11
-614.529815277
 21
2363.0852409909
 31
0.0
  0
LINE
  5
76
  8
1
  6
CONTINUOUS
 62
     7
 10
-583.1298142821
 20
2319.8356352648
 30
0.0
 11
-582.1006355397001
 21
2319.8356352649
 31
0.0
  0
LINE
  5
77
  8
1
  6
CONTINUOUS
 62
     7
 10
-637.0304499995
 20
2318.5860377596
 30
0.0
 11
-635.2304499995
 21
2318.5860356959
 31
0.0
  0
LINE
  5
78
  8
1
  6
CONTINUOUS
 62
     7
 10
-637.729815277
 20
2363.0852430546
 30
0.0
 11
-635.2304500221
 21
2318.5860356959
 31
0.0
  0
LINE
  5
79
  8
1
  6
CONTINUOUS
 62
     7
 10
-610.0094935333
 20
2319.8356352649
 30
0.0
 11
-608.6984905950001
 21
2319.8356352648
 31
0.0
  0
LINE
  5
7A
  8
1
  6
CONTINUOUS
 62
     7
 10
-635.0094949919
 20
2319.8356352649
 30
0.0
 11
-635.2304499995
 21
2318.5860356959
 31
0.0
  0
LINE
  5
7B
  8
1
  6
CONTINUOUS
 62
     7
 10
-582.729815277
 20
2363.0852430546
 30
0.0
 11
-580.2304500221
 21
2318.5860356959
 31
0.0
  0
LINE
  5
7C
  8
1
  6
CONTINUOUS
 62
     7
 10
-612.0304499995
 20
2318.5860377596
 30
0.0
 11
-610.2304499995
 21
2318.5860356959
 31
0.0
  0
LINE
  5
7D
  8
1
  6
CONTINUOUS
 62
     7
 10
-637.729815277
 20
2363.0852430546
 30
0.0
 11
-639.529815277
 21
2363.0852409909
 31
0.0
  0
LINE
  5
7E
  8
1
  6
CONTINUOUS
 62
     7
 10
-612.729815277
 20
2363.0852430546
 30
0.0
 11
-610.2304500221
 21
2318.5860356959
 31
0.0
  0
LINE
  5
7F
  8
1
  6
CONTINUOUS
 62
     7
 10
-608.6984905950001
 20
2361.8356352649
 30
0.0
 11
-612.6596291664
 21
2361.8356352649
 31
0.0
  0
LINE
  5
80
  8
1
  6
CONTINUOUS
 62
     7
 10
-612.0304499995
 20
2318.5860377596
 30
0.0
 11
-614.529815277
 21
2363.0852409909
 31
0.0
  0
LINE
  5
81
  8
1
  6
CONTINUOUS
 62
     7
 10
-634.7501839505
 20
2361.8356352649
 30
0.0
 11
-637.6596291664
 21
2361.8356352649
 31
0.0
  0
LINE
  5
82
  8
1
  6
CONTINUOUS
 62
     7
 10
-582.0304499995
 20
2318.5860377596
 30
0.0
 11
-583.1298142821
 21
2338.1593410607
 31
0.0
  0
LINE
  5
83
  8
1
  6
CONTINUOUS
 62
     7
 10
-637.0304499995
 20
2318.5860377596
 30
0.0
 11
-638.6298142821
 21
2347.0614418524
 31
0.0
  0
LINE
  5
84
  8
1
  6
CONTINUOUS
 62
     7
 10
-580.0094949919002
 20
2319.8356352649
 30
0.0
 11
-580.2304499995
 21
2318.5860356959
 31
0.0
  0
LINE
  5
85
  8
1
  6
CONTINUOUS
 62
     7
 10
-580.0094935333
 20
2319.8356352649
 30
0.0
 11
-577.1006355397001
 21
2319.8356352649
 31
0.0
  0
LINE
  5
86
  8
1
  6
CONTINUOUS
 62
     7
 10
-614.7501839505
 20
2361.8356352649
 30
0.0
 11
-614.529815277
 21
2363.0852409909
 31
0.0
  0
POINT
  5
87
  8
0
 62
     7
 10
-695.0
 20
2340.0
 30
0.0
  0
INSERT
  5
89
  8
0
 62
     7
  2
D_FRAME_DRAWING_21
 10
0.0
 20
0.0
 30
0.0
  0
LINE
  5
D3
  8
1
  6
CONTINUOUS
 62
     7
 10
-550.0094949919
 20
2319.8356352649
 30
0.0
 11
-550.2304499995001
 21
2318.5860356959
 31
0.0
  0
LINE
  5
D4
  8
1
  6
CONTINUOUS
 62
     7
 10
-557.0304499995
 20
2318.5860377596
 30
0.0
 11
-555.2304499995001
 21
2318.5860356959
 31
0.0
  0
LINE
  5
D5
  8
1
  6
CONTINUOUS
 62
     7
 10
-559.7501839505001
 20
2361.8356352649
 30
0.0
 11
-559.529815277
 21
2363.0852409909
 31
0.0
  0
LINE
  5
D6
  8
1
  6
CONTINUOUS
 62
     7
 10
-564.7501839505001
 20
2361.8356352649
 30
0.0
 11
-564.529815277
 21
2363.0852409909
 31
0.0
  0
LINE
  5
D7
  8
1
  6
CONTINUOUS
 62
     7
 10
-562.729815277
 20
2363.0852430546
 30
0.0
 11
-560.2304500221
 21
2318.5860356959
 31
0.0
  0
LINE
  5
D8
  8
1
  6
CONTINUOUS
 62
     7
 10
-565.0094935333
 20
2319.8356352649
 30
0.0
 11
-562.1006355397
 21
2319.8356352649
 31
0.0
  0
LINE
  5
D9
  8
1
  6
CONTINUOUS
 62
     7
 10
-572.729815277
 20
2363.0852430546
 30
0.0
 11
-574.5298152770001
 21
2363.0852409909
 31
0.0
  0
LINE
  5
DA
  8
1
  6
CONTINUOUS
 62
     7
 10
-575.0094935333
 20
2319.8356352649
 30
0.0
 11
-572.1006355397
 21
2319.8356352649
 31
0.0
  0
LINE
  5
DB
  8
1
  6
CONTINUOUS
 62
     7
 10
-562.0304499995
 20
2318.5860377596
 30
0.0
 11
-560.2304499995001
 21
2318.5860356959
 31
0.0
  0
LINE
  5
DC
  8
1
  6
CONTINUOUS
 62
     7
 10
-554.7501839505001
 20
2361.8356352649
 30
0.0
 11
-557.6596291664
 21
2361.8356352649
 31
0.0
  0
LINE
  5
DD
  8
1
  6
CONTINUOUS
 62
     7
 10
-552.0304499995
 20
2318.5860377596
 30
0.0
 11
-554.529815277
 21
2363.0852409909
 31
0.0
  0
LINE
  5
DE
  8
1
  6
CONTINUOUS
 62
     7
 10
-557.729815277
 20
2363.0852430546
 30
0.0
 11
-559.529815277
 21
2363.0852409909
 31
0.0
  0
LINE
  5
DF
  8
1
  6
CONTINUOUS
 62
     7
 10
-560.0094935333
 20
2319.8356352649
 30
0.0
 11
-557.1006355397
 21
2319.8356352649
 31
0.0
  0
LINE
  5
E0
  8
1
  6
CONTINUOUS
 62
     7
 10
-555.0094949919
 20
2319.8356352649
 30
0.0
 11
-555.2304499995001
 21
2318.5860356959
 31
0.0
  0
LINE
  5
E1
  8
1
  6
CONTINUOUS
 62
     7
 10
-559.7501839505001
 20
2361.8356352649
 30
0.0
 11
-562.6596291664
 21
2361.8356352649
 31
0.0
  0
LINE
  5
E2
  8
1
  6
CONTINUOUS
 62
     7
 10
-562.0304499995
 20
2318.5860377596
 30
0.0
 11
-564.529815277
 21
2363.0852409909
 31
0.0
  0
LINE
  5
E3
  8
1
  6
CONTINUOUS
 62
     7
 10
-567.0304499995
 20
2318.5860377596
 30
0.0
 11
-565.2304499995
 21
2318.5860356959
 31
0.0
  0
LINE
  5
E4
  8
1
  6
CONTINUOUS
 62
     7
 10
-567.729815277
 20
2363.0852430546
 30
0.0
 11
-569.5298152770001
 21
2363.0852409909
 31
0.0
  0
LINE
  5
E5
  8
1
  6
CONTINUOUS
 62
     7
 10
-567.729815277
 20
2363.0852430546
 30
0.0
 11
-565.2304500221
 21
2318.5860356959
 31
0.0
  0
LINE
  5
E6
  8
1
  6
CONTINUOUS
 62
     7
 10
-569.7501839505001
 20
2361.8356352649
 30
0.0
 11
-569.5298152770001
 21
2363.0852409909
 31
0.0
  0
LINE
  5
E7
  8
1
  6
CONTINUOUS
 62
     7
 10
-567.0304499995
 20
2318.5860377596
 30
0.0
 11
-569.5298152770001
 21
2363.0852409909
 31
0.0
  0
LINE
  5
E8
  8
1
  6
CONTINUOUS
 62
     7
 10
-565.0094949919
 20
2319.8356352649
 30
0.0
 11
-565.2304499995
 21
2318.5860356959
 31
0.0
  0
LINE
  5
E9
  8
1
  6
CONTINUOUS
 62
     7
 10
-557.729815277
 20
2363.0852430546
 30
0.0
 11
-555.2304500221001
 21
2318.5860356959
 31
0.0
  0
LINE
  5
EA
  8
1
  6
CONTINUOUS
 62
     7
 10
-569.7501839505001
 20
2361.8356352649
 30
0.0
 11
-572.6596291664
 21
2361.8356352649
 31
0.0
  0
LINE
  5
EB
  8
1
  6
CONTINUOUS
 62
     7
 10
-562.729815277
 20
2363.0852430546
 30
0.0
 11
-564.529815277
 21
2363.0852409909
 31
0.0
  0
LINE
  5
EC
  8
1
  6
CONTINUOUS
 62
     7
 10
-560.0094949919
 20
2319.8356352649
 30
0.0
 11
-560.2304499995001
 21
2318.5860356959
 31
0.0
  0
LINE
  5
ED
  8
1
  6
CONTINUOUS
 62
     7
 10
-564.7501839505001
 20
2361.8356352649
 30
0.0
 11
-567.6596291664
 21
2361.8356352649
 31
0.0
  0
LINE
  5
EE
  8
1
  6
CONTINUOUS
 62
     7
 10
-572.0304499995
 20
2318.5860377596
 30
0.0
 11
-570.2304499995
 21
2318.5860356959
 31
0.0
  0
LINE
  5
EF
  8
1
  6
CONTINUOUS
 62
     7
 10
-570.0094935333
 20
2319.8356352649
 30
0.0
 11
-567.1006355397
 21
2319.8356352649
 31
0.0
  0
LINE
  5
F0
  8
1
  6
CONTINUOUS
 62
     7
 10
-557.0304499995
 20
2318.5860377596
 30
0.0
 11
-559.529815277
 21
2363.0852409909
 31
0.0
  0
LINE
  5
F1
  8
1
  6
CONTINUOUS
 62
     7
 10
-577.729815277
 20
2363.0852430546
 30
0.0
 11
-579.5298152770001
 21
2363.0852409909
 31
0.0
  0
LINE
  5
F2
  8
1
  6
CONTINUOUS
 62
     7
 10
-577.0304499995
 20
2318.5860377596
 30
0.0
 11
-579.5298152770001
 21
2363.0852409909
 31
0.0
  0
LINE
  5
F3
  8
1
  6
CONTINUOUS
 62
     7
 10
-575.0094949919002
 20
2319.8356352649
 30
0.0
 11
-575.2304499995
 21
2318.5860356959
 31
0.0
  0
LINE
  5
F4
  8
1
  6
CONTINUOUS
 62
     7
 10
-579.7501839505
 20
2361.8356352649
 30
0.0
 11
-582.6596291664
 21
2361.8356352649
 31
0.0
  0
LINE
  5
F5
  8
1
  6
CONTINUOUS
 62
     7
 10
-577.0304499995
 20
2318.5860377596
 30
0.0
 11
-575.2304499995
 21
2318.5860356959
 31
0.0
  0
LINE
  5
F6
  8
1
  6
CONTINUOUS
 62
     7
 10
-582.0304499995
 20
2318.5860377596
 30
0.0
 11
-580.2304499995
 21
2318.5860356959
 31
0.0
  0
LINE
  5
F7
  8
1
  6
CONTINUOUS
 62
     7
 10
-582.729815277
 20
2363.0852430546
 30
0.0
 11
-583.1298142821
 21
2363.085242596
 31
0.0
  0
LINE
  5
F8
  8
1
  6
CONTINUOUS
 62
     7
 10
-577.729815277
 20
2363.0852430546
 30
0.0
 11
-575.2304500221
 21
2318.5860356959
 31
0.0
  0
LINE
  5
F9
  8
1
  6
CONTINUOUS
 62
     7
 10
-572.0304499995
 20
2318.5860377596
 30
0.0
 11
-574.5298152770001
 21
2363.0852409909
 31
0.0
  0
LINE
  5
FA
  8
1
  6
CONTINUOUS
 62
     7
 10
-570.0094949919
 20
2319.8356352649
 30
0.0
 11
-570.2304499995
 21
2318.5860356959
 31
0.0
  0
LINE
  5
FB
  8
1
  6
CONTINUOUS
 62
     7
 10
-574.7501839505
 20
2361.8356352649
 30
0.0
 11
-577.6596291664
 21
2361.8356352649
 31
0.0
  0
LINE
  5
FC
  8
1
  6
CONTINUOUS
 62
     7
 10
-572.729815277
 20
2363.0852430546
 30
0.0
 11
-570.2304500221
 21
2318.5860356959
 31
0.0
  0
LINE
  5
FD
  8
1
  6
CONTINUOUS
 62
     7
 10
-574.7501839505
 20
2361.8356352649
 30
0.0
 11
-574.5298152770001
 21
2363.0852409909
 31
0.0
  0
LINE
  5
FE
  8
1
  6
CONTINUOUS
 62
     7
 10
-684.1298142821
 20
2193.8973975494
 30
0.0
 11
-684.1298142821
 21
2256.882009291
 31
0.0
  0
LINE
  5
FF
  8
1
  6
CONTINUOUS
 62
     7
 10
-625.0094949919
 20
2319.8356352649
 30
0.0
 11
-625.2304499995
 21
2318.5860356959
 31
0.0
  0
LINE
  5
100
  8
1
  6
CONTINUOUS
 62
     7
 10
-617.0304499995
 20
2318.5860377596
 30
0.0
 11
-619.529815277
 21
2363.0852409909
 31
0.0
  0
LINE
  5
101
  8
1
  6
CONTINUOUS
 62
     7
 10
-620.0094935333
 20
2319.8356352649
 30
0.0
 11
-617.1006355397
 21
2319.8356352649
 31
0.0
  0
LINE
  5
102
  8
1
  6
CONTINUOUS
 62
     7
 10
-622.0304499995
 20
2318.5860377596
 30
0.0
 11
-620.2304499995
 21
2318.5860356959
 31
0.0
  0
LINE
  5
103
  8
1
  6
CONTINUOUS
 62
     7
 10
-622.729815277
 20
2363.0852430546
 30
0.0
 11
-620.2304500221
 21
2318.5860356959
 31
0.0
  0
LINE
  5
104
  8
1
  6
CONTINUOUS
 62
     7
 10
-617.729815277
 20
2363.0852430546
 30
0.0
 11
-619.529815277
 21
2363.0852409909
 31
0.0
  0
LINE
  5
105
  8
1
  6
CONTINUOUS
 62
     7
 10
-627.729815277
 20
2363.0852430546
 30
0.0
 11
-625.2304500221
 21
2318.5860356959
 31
0.0
  0
LINE
  5
106
  8
1
  6
CONTINUOUS
 62
     7
 10
-619.7501839505
 20
2361.8356352649
 30
0.0
 11
-622.6596291664
 21
2361.8356352649
 31
0.0
  0
LINE
  5
107
  8
1
  6
CONTINUOUS
 62
     7
 10
-617.0304499995
 20
2318.5860377596
 30
0.0
 11
-615.2304499995
 21
2318.5860356959
 31
0.0
  0
LINE
  5
108
  8
1
  6
CONTINUOUS
 62
     7
 10
-617.729815277
 20
2363.0852430546
 30
0.0
 11
-615.2304500221
 21
2318.5860356959
 31
0.0
  0
LINE
  5
109
  8
1
  6
CONTINUOUS
 62
     7
 10
-625.0094935333
 20
2319.8356352649
 30
0.0
 11
-622.1006355397
 21
2319.8356352649
 31
0.0
  0
LINE
  5
10A
  8
1
  6
CONTINUOUS
 62
     7
 10
-622.729815277
 20
2363.0852430546
 30
0.0
 11
-624.529815277
 21
2363.0852409909
 31
0.0
  0
LINE
  5
10B
  8
1
  6
CONTINUOUS
 62
     7
 10
-629.7501839505
 20
2361.8356352649
 30
0.0
 11
-629.529815277
 21
2363.0852409909
 31
0.0
  0
LINE
  5
10C
  8
1
  6
CONTINUOUS
 62
     7
 10
-629.7501839505
 20
2361.8356352649
 30
0.0
 11
-632.6596291664
 21
2361.8356352649
 31
0.0
  0
LINE
  5
10D
  8
1
  6
CONTINUOUS
 62
     7
 10
-627.729815277
 20
2363.0852430546
 30
0.0
 11
-629.529815277
 21
2363.0852409909
 31
0.0
  0
LINE
  5
10E
  8
1
  6
CONTINUOUS
 62
     7
 10
-630.0094935333001
 20
2319.8356352649
 30
0.0
 11
-627.1006355397
 21
2319.8356352649
 31
0.0
  0
LINE
  5
10F
  8
1
  6
CONTINUOUS
 62
     7
 10
-634.7501839505
 20
2361.8356352649
 30
0.0
 11
-634.529815277
 21
2363.0852409909
 31
0.0
  0
LINE
  5
110
  8
1
  6
CONTINUOUS
 62
     7
 10
-624.7501839505
 20
2361.8356352649
 30
0.0
 11
-627.6596291664
 21
2361.8356352649
 31
0.0
  0
LINE
  5
111
  8
1
  6
CONTINUOUS
 62
     7
 10
-632.729815277
 20
2363.0852430546
 30
0.0
 11
-630.2304500221
 21
2318.5860356959
 31
0.0
  0
LINE
  5
112
  8
1
  6
CONTINUOUS
 62
     7
 10
-632.0304499995
 20
2318.5860377596
 30
0.0
 11
-634.529815277
 21
2363.0852409909
 31
0.0
  0
LINE
  5
113
  8
1
  6
CONTINUOUS
 62
     7
 10
-632.729815277
 20
2363.0852430546
 30
0.0
 11
-634.529815277
 21
2363.0852409909
 31
0.0
  0
LINE
  5
114
  8
1
  6
CONTINUOUS
 62
     7
 10
-624.7501839505
 20
2361.8356352649
 30
0.0
 11
-624.529815277
 21
2363.0852409909
 31
0.0
  0
LINE
  5
115
  8
1
  6
CONTINUOUS
 62
     7
 10
-619.7501839505
 20
2361.8356352649
 30
0.0
 11
-619.529815277
 21
2363.0852409909
 31
0.0
  0
LINE
  5
116
  8
1
  6
CONTINUOUS
 62
     7
 10
-627.0304499995
 20
2318.5860377596
 30
0.0
 11
-625.2304499995
 21
2318.5860356959
 31
0.0
  0
LINE
  5
117
  8
1
  6
CONTINUOUS
 62
     7
 10
-620.0094949919
 20
2319.8356352649
 30
0.0
 11
-620.2304499995
 21
2318.5860356959
 31
0.0
  0
LINE
  5
118
  8
1
  6
CONTINUOUS
 62
     7
 10
-630.0094949919
 20
2319.8356352649
 30
0.0
 11
-630.2304499995
 21
2318.5860356959
 31
0.0
  0
LINE
  5
119
  8
1
  6
CONTINUOUS
 62
     7
 10
-635.0094935333001
 20
2319.8356352649
 30
0.0
 11
-632.1006355397
 21
2319.8356352649
 31
0.0
  0
LINE
  5
11A
  8
1
  6
CONTINUOUS
 62
     7
 10
-615.0094949919
 20
2319.8356352649
 30
0.0
 11
-615.2304499995
 21
2318.5860356959
 31
0.0
  0
LINE
  5
11B
  8
1
  6
CONTINUOUS
 62
     7
 10
-622.0304499995
 20
2318.5860377596
 30
0.0
 11
-624.529815277
 21
2363.0852409909
 31
0.0
  0
LINE
  5
11C
  8
1
  6
CONTINUOUS
 62
     7
 10
-632.0304499995
 20
2318.5860377596
 30
0.0
 11
-630.2304499995
 21
2318.5860356959
 31
0.0
  0
LINE
  5
11D
  8
1
  6
CONTINUOUS
 62
     7
 10
-627.0304499995
 20
2318.5860377596
 30
0.0
 11
-629.529815277
 21
2363.0852409909
 31
0.0
  0
LINE
  5
11E
  8
1
  6
CONTINUOUS
 62
     7
 10
-657.6298142821001
 20
2204.1473975494
 30
0.0
 11
-657.6298142821001
 21
2246.6473975494
 31
0.0
  0
LINE
  5
11F
  8
1
  6
CONTINUOUS
 62
     7
 10
-653.6298142821
 20
2246.6473975494
 30
0.0
 11
-657.6298142821001
 21
2246.6473975494
 31
0.0
  0
LINE
  5
120
  8
1
  6
CONTINUOUS
 62
     7
 10
-657.6298142821001
 20
2245.8973975494
 30
0.0
 11
-660.6298142821001
 21
2245.8973975494
 31
0.0
  0
LINE
  5
121
  8
1
  6
CONTINUOUS
 62
     7
 10
-676.1298142821
 20
2192.8973975494
 30
0.0
 11
-676.1298142821
 21
2257.882009291
 31
0.0
  0
ARC
  5
122
  8
1
  6
CONTINUOUS
 62
     7
 10
-683.1298142821
 20
2193.8973975494
 30
0.0
 40
1.000000000000001
 50
180.0
 51
270.0
  0
LINE
  5
123
  8
1
  6
CONTINUOUS
 62
     7
 10
-660.6298142821001
 20
2204.1473975494
 30
0.0
 11
-660.6298142821001
 21
2246.6473975494
 31
0.0
  0
LINE
  5
124
  8
1
  6
CONTINUOUS
 62
     7
 10
-683.1298142821
 20
2192.8973975494
 30
0.0
 11
-676.1298142821
 21
2192.8973975494
 31
0.0
  0
LINE
  5
125
  8
1
  6
CONTINUOUS
 62
     7
 10
-683.1298142821
 20
2257.882009291
 30
0.0
 11
-676.1298142821
 21
2257.882009291
 31
0.0
  0
LINE
  5
126
  8
1
  6
CONTINUOUS
 62
     7
 10
-676.1298142821
 20
2257.882009291
 30
0.0
 11
-667.1406637728002
 21
2260.3973975494
 31
0.0
  0
LINE
  5
127
  8
1
  6
CONTINUOUS
 62
     7
 10
-660.6298142821001
 20
2204.8973975494
 30
0.0
 11
-657.6298142821001
 21
2204.8973975494
 31
0.0
  0
LINE
  5
128
  8
1
  6
CONTINUOUS
 62
     7
 10
-660.6298142821001
 20
2246.6473975494
 30
0.0
 11
-664.6298142821001
 21
2246.6473975494
 31
0.0
  0
LINE
  5
129
  8
1
  6
CONTINUOUS
 62
     7
 10
-657.6298142821001
 20
2204.1473975494
 30
0.0
 11
-653.6298142821
 21
2204.1473975494
 31
0.0
  0
LINE
  5
12A
  8
1
  6
CONTINUOUS
 62
     7
 10
-664.6298142821001
 20
2204.1473975494
 30
0.0
 11
-664.6298142821001
 21
2246.6473975494
 31
0.0
  0
LINE
  5
12B
  8
1
  6
CONTINUOUS
 62
     7
 10
-664.6298142821001
 20
2204.1473975494
 30
0.0
 11
-660.6298142821001
 21
2204.1473975494
 31
0.0
  0
LINE
  5
12C
  8
1
  6
CONTINUOUS
 62
     7
 10
-532.729815277
 20
2247.6470053391
 30
0.0
 11
-534.529815277
 21
2247.6470032754
 31
0.0
  0
LINE
  5
12D
  8
1
  6
CONTINUOUS
 62
     7
 10
-542.729815277
 20
2247.6470053391
 30
0.0
 11
-540.2304500221001
 21
2203.1477979804
 31
0.0
  0
LINE
  5
12E
  8
1
  6
CONTINUOUS
 62
     7
 10
-527.729815277
 20
2247.6470053391
 30
0.0
 11
-529.529815277
 21
2247.6470032754
 31
0.0
  0
LINE
  5
12F
  8
1
  6
CONTINUOUS
 62
     7
 10
-542.0304499995
 20
2203.1478000441
 30
0.0
 11
-544.529815277
 21
2247.6470032754
 31
0.0
  0
LINE
  5
130
  8
1
  6
CONTINUOUS
 62
     7
 10
-527.0304499995
 20
2203.1478000441
 30
0.0
 11
-529.529815277
 21
2247.6470032754
 31
0.0
  0
LINE
  5
131
  8
1
  6
CONTINUOUS
 62
     7
 10
-522.0304499995
 20
2203.1478000441
 30
0.0
 11
-524.529815277
 21
2247.6470032754
 31
0.0
  0
LINE
  5
132
  8
1
  6
CONTINUOUS
 62
     7
 10
-532.0304499995
 20
2203.1478000441
 30
0.0
 11
-530.2304499995
 21
2203.1477979804
 31
0.0
  0
LINE
  5
133
  8
1
  6
CONTINUOUS
 62
     7
 10
-535.0094949919
 20
2204.3973975494
 30
0.0
 11
-535.2304499995
 21
2203.1477979804
 31
0.0
  0
LINE
  5
134
  8
1
  6
CONTINUOUS
 62
     7
 10
-530.0094949919
 20
2204.3973975494
 30
0.0
 11
-530.2304499995
 21
2203.1477979804
 31
0.0
  0
LINE
  5
135
  8
1
  6
CONTINUOUS
 62
     7
 10
-537.0304499995
 20
2203.1478000441
 30
0.0
 11
-539.529815277
 21
2247.6470032754
 31
0.0
  0
LINE
  5
136
  8
1
  6
CONTINUOUS
 62
     7
 10
-527.0304499995
 20
2203.1478000441
 30
0.0
 11
-525.2304499995
 21
2203.1477979804
 31
0.0
  0
LINE
  5
137
  8
1
  6
CONTINUOUS
 62
     7
 10
-525.0094949919
 20
2204.3973975494
 30
0.0
 11
-525.2304499995
 21
2203.1477979804
 31
0.0
  0
LINE
  5
138
  8
1
  6
CONTINUOUS
 62
     7
 10
-520.0094949919
 20
2204.3973975494
 30
0.0
 11
-520.2304499995
 21
2203.1477979804
 31
0.0
  0
LINE
  5
139
  8
1
  6
CONTINUOUS
 62
     7
 10
-542.0304499995
 20
2203.1478000441
 30
0.0
 11
-540.2304499995001
 21
2203.1477979804
 31
0.0
  0
LINE
  5
13A
  8
1
  6
CONTINUOUS
 62
     7
 10
-532.729815277
 20
2247.6470053391
 30
0.0
 11
-530.2304500221
 21
2203.1477979804
 31
0.0
  0
LINE
  5
13B
  8
1
  6
CONTINUOUS
 62
     7
 10
-537.0304499995
 20
2203.1478000441
 30
0.0
 11
-535.2304499995
 21
2203.1477979804
 31
0.0
  0
LINE
  5
13C
  8
1
  6
CONTINUOUS
 62
     7
 10
-530.0094935333
 20
2204.3973975494
 30
0.0
 11
-527.1006355397
 21
2204.3973975494
 31
0.0
  0
LINE
  5
13D
  8
1
  6
CONTINUOUS
 62
     7
 10
-522.729815277
 20
2247.6470053391
 30
0.0
 11
-520.2304500221
 21
2203.1477979804
 31
0.0
  0
LINE
  5
13E
  8
1
  6
CONTINUOUS
 62
     7
 10
-532.0304499995
 20
2203.1478000441
 30
0.0
 11
-534.529815277
 21
2247.6470032754
 31
0.0
  0
LINE
  5
13F
  8
1
  6
CONTINUOUS
 62
     7
 10
-542.729815277
 20
2247.6470053391
 30
0.0
 11
-544.529815277
 21
2247.6470032754
 31
0.0
  0
LINE
  5
140
  8
1
  6
CONTINUOUS
 62
     7
 10
-522.0304499995
 20
2203.1478000441
 30
0.0
 11
-520.2304499995
 21
2203.1477979804
 31
0.0
  0
LINE
  5
141
  8
1
  6
CONTINUOUS
 62
     7
 10
-525.0094935333
 20
2204.3973975494
 30
0.0
 11
-522.1006355397
 21
2204.3973975494
 31
0.0
  0
LINE
  5
142
  8
1
  6
CONTINUOUS
 62
     7
 10
-545.0094935333
 20
2204.3973975494
 30
0.0
 11
-542.1006355397
 21
2204.3973975494
 31
0.0
  0
LINE
  5
143
  8
1
  6
CONTINUOUS
 62
     7
 10
-540.0094935333
 20
2204.3973975494
 30
0.0
 11
-537.1006355397
 21
2204.3973975494
 31
0.0
  0
LINE
  5
144
  8
1
  6
CONTINUOUS
 62
     7
 10
-527.729815277
 20
2247.6470053391
 30
0.0
 11
-525.2304500221
 21
2203.1477979804
 31
0.0
  0
LINE
  5
145
  8
1
  6
CONTINUOUS
 62
     7
 10
-535.0094935333
 20
2204.3973975494
 30
0.0
 11
-532.1006355397
 21
2204.3973975494
 31
0.0
  0
LINE
  5
146
  8
1
  6
CONTINUOUS
 62
     7
 10
-537.729815277
 20
2247.6470053391
 30
0.0
 11
-535.2304500221001
 21
2203.1477979804
 31
0.0
  0
LINE
  5
147
  8
1
  6
CONTINUOUS
 62
     7
 10
-540.0094949919
 20
2204.3973975494
 30
0.0
 11
-540.2304499995001
 21
2203.1477979804
 31
0.0
  0
LINE
  5
148
  8
1
  6
CONTINUOUS
 62
     7
 10
-544.7501839505
 20
2246.3973975494
 30
0.0
 11
-544.529815277
 21
2247.6470032754
 31
0.0
  0
LINE
  5
149
  8
1
  6
CONTINUOUS
 62
     7
 10
-522.729815277
 20
2247.6470053391
 30
0.0
 11
-524.529815277
 21
2247.6470032754
 31
0.0
  0
LINE
  5
14A
  8
1
  6
CONTINUOUS
 62
     7
 10
-544.7501839505
 20
2246.3973975494
 30
0.0
 11
-547.6596291664
 21
2246.3973975494
 31
0.0
  0
LINE
  5
14B
  8
1
  6
CONTINUOUS
 62
     7
 10
-537.729815277
 20
2247.6470053391
 30
0.0
 11
-539.529815277
 21
2247.6470032754
 31
0.0
  0
LINE
  5
14C
  8
1
  6
CONTINUOUS
 62
     7
 10
-545.0094935333
 20
2319.8356352649
 30
0.0
 11
-542.1006355397
 21
2319.8356352649
 31
0.0
  0
LINE
  5
14D
  8
1
  6
CONTINUOUS
 62
     7
 10
-542.0304499995
 20
2318.5860377596
 30
0.0
 11
-540.2304499995001
 21
2318.5860356959
 31
0.0
  0
LINE
  5
14E
  8
1
  6
CONTINUOUS
 62
     7
 10
-535.0094949919
 20
2319.8356352649
 30
0.0
 11
-535.2304499995
 21
2318.5860356959
 31
0.0
  0
LINE
  5
14F
  8
1
  6
CONTINUOUS
 62
     7
 10
-522.0304499995
 20
2318.5860377596
 30
0.0
 11
-524.529815277
 21
2363.0852409909
 31
0.0
  0
LINE
  5
150
  8
1
  6
CONTINUOUS
 62
     7
 10
-535.0094935333
 20
2319.8356352649
 30
0.0
 11
-532.1006355397
 21
2319.8356352649
 31
0.0
  0
LINE
  5
151
  8
1
  6
CONTINUOUS
 62
     7
 10
-530.0094949919
 20
2319.8356352649
 30
0.0
 11
-530.2304499995
 21
2318.5860356959
 31
0.0
  0
LINE
  5
152
  8
1
  6
CONTINUOUS
 62
     7
 10
-529.7501839505
 20
2361.8356352649
 30
0.0
 11
-532.6596291664
 21
2361.8356352649
 31
0.0
  0
LINE
  5
153
  8
1
  6
CONTINUOUS
 62
     7
 10
-529.7501839505
 20
2361.8356352649
 30
0.0
 11
-529.529815277
 21
2363.0852409909
 31
0.0
  0
LINE
  5
154
  8
1
  6
CONTINUOUS
 62
     7
 10
-534.7501839505
 20
2361.8356352649
 30
0.0
 11
-537.6596291664
 21
2361.8356352649
 31
0.0
  0
LINE
  5
155
  8
1
  6
CONTINUOUS
 62
     7
 10
-534.7501839505
 20
2246.3973975494
 30
0.0
 11
-534.529815277
 21
2247.6470032754
 31
0.0
  0
LINE
  5
156
  8
1
  6
CONTINUOUS
 62
     7
 10
-544.7501839505
 20
2361.8356352649
 30
0.0
 11
-547.6596291664
 21
2361.8356352649
 31
0.0
  0
LINE
  5
157
  8
1
  6
CONTINUOUS
 62
     7
 10
-532.0304499995
 20
2318.5860377596
 30
0.0
 11
-530.2304499995
 21
2318.5860356959
 31
0.0
  0
LINE
  5
158
  8
1
  6
CONTINUOUS
 62
     7
 10
-527.0304499995
 20
2318.5860377596
 30
0.0
 11
-525.2304499995
 21
2318.5860356959
 31
0.0
  0
LINE
  5
159
  8
1
  6
CONTINUOUS
 62
     7
 10
-539.7501839505
 20
2246.3973975494
 30
0.0
 11
-542.6596291664
 21
2246.3973975494
 31
0.0
  0
LINE
  5
15A
  8
1
  6
CONTINUOUS
 62
     7
 10
-529.7501839505
 20
2246.3973975494
 30
0.0
 11
-529.529815277
 21
2247.6470032754
 31
0.0
  0
LINE
  5
15B
  8
1
  6
CONTINUOUS
 62
     7
 10
-545.0094949919
 20
2319.8356352649
 30
0.0
 11
-545.2304499995001
 21
2318.5860356959
 31
0.0
  0
LINE
  5
15C
  8
1
  6
CONTINUOUS
 62
     7
 10
-529.7501839505
 20
2246.3973975494
 30
0.0
 11
-532.6596291664
 21
2246.3973975494
 31
0.0
  0
LINE
  5
15D
  8
1
  6
CONTINUOUS
 62
     7
 10
-542.729815277
 20
2363.0852430546
 30
0.0
 11
-544.529815277
 21
2363.0852409909
 31
0.0
  0
LINE
  5
15E
  8
1
  6
CONTINUOUS
 62
     7
 10
-540.0094949919
 20
2319.8356352649
 30
0.0
 11
-540.2304499995001
 21
2318.5860356959
 31
0.0
  0
LINE
  5
15F
  8
1
  6
CONTINUOUS
 62
     7
 10
-530.0094935333
 20
2319.8356352649
 30
0.0
 11
-527.1006355397
 21
2319.8356352649
 31
0.0
  0
LINE
  5
160
  8
1
  6
CONTINUOUS
 62
     7
 10
-525.0094949919
 20
2319.8356352649
 30
0.0
 11
-525.2304499995
 21
2318.5860356959
 31
0.0
  0
LINE
  5
161
  8
1
  6
CONTINUOUS
 62
     7
 10
-525.0094935333
 20
2319.8356352649
 30
0.0
 11
-522.1006355397
 21
2319.8356352649
 31
0.0
  0
LINE
  5
162
  8
1
  6
CONTINUOUS
 62
     7
 10
-522.0304499995
 20
2318.5860377596
 30
0.0
 11
-520.2304499995
 21
2318.5860356959
 31
0.0
  0
LINE
  5
163
  8
1
  6
CONTINUOUS
 62
     7
 10
-524.7501839505
 20
2361.8356352649
 30
0.0
 11
-524.529815277
 21
2363.0852409909
 31
0.0
  0
LINE
  5
164
  8
1
  6
CONTINUOUS
 62
     7
 10
-540.0094935333
 20
2319.8356352649
 30
0.0
 11
-537.1006355397
 21
2319.8356352649
 31
0.0
  0
LINE
  5
165
  8
1
  6
CONTINUOUS
 62
     7
 10
-539.7501839505
 20
2246.3973975494
 30
0.0
 11
-539.529815277
 21
2247.6470032754
 31
0.0
  0
LINE
  5
166
  8
1
  6
CONTINUOUS
 62
     7
 10
-537.729815277
 20
2363.0852430546
 30
0.0
 11
-539.529815277
 21
2363.0852409909
 31
0.0
  0
LINE
  5
167
  8
1
  6
CONTINUOUS
 62
     7
 10
-537.0304499995
 20
2318.5860377596
 30
0.0
 11
-535.2304499995
 21
2318.5860356959
 31
0.0
  0
LINE
  5
168
  8
1
  6
CONTINUOUS
 62
     7
 10
-524.7501839505
 20
2246.3973975494
 30
0.0
 11
-527.6596291664
 21
2246.3973975494
 31
0.0
  0
LINE
  5
169
  8
1
  6
CONTINUOUS
 62
     7
 10
-520.0094949919
 20
2319.8356352649
 30
0.0
 11
-520.2304499995
 21
2318.5860356959
 31
0.0
  0
LINE
  5
16A
  8
1
  6
CONTINUOUS
 62
     7
 10
-539.7501839505
 20
2361.8356352649
 30
0.0
 11
-539.529815277
 21
2363.0852409909
 31
0.0
  0
LINE
  5
16B
  8
1
  6
CONTINUOUS
 62
     7
 10
-537.729815277
 20
2363.0852430546
 30
0.0
 11
-535.2304500221001
 21
2318.5860356959
 31
0.0
  0
LINE
  5
16C
  8
1
  6
CONTINUOUS
 62
     7
 10
-527.729815277
 20
2363.0852430546
 30
0.0
 11
-525.2304500221
 21
2318.5860356959
 31
0.0
  0
LINE
  5
16D
  8
1
  6
CONTINUOUS
 62
     7
 10
-542.0304499995
 20
2318.5860377596
 30
0.0
 11
-544.529815277
 21
2363.0852409909
 31
0.0
  0
LINE
  5
16E
  8
1
  6
CONTINUOUS
 62
     7
 10
-534.7501839505
 20
2246.3973975494
 30
0.0
 11
-537.6596291664
 21
2246.3973975494
 31
0.0
  0
LINE
  5
16F
  8
1
  6
CONTINUOUS
 62
     7
 10
-542.729815277
 20
2363.0852430546
 30
0.0
 11
-540.2304500221001
 21
2318.5860356959
 31
0.0
  0
LINE
  5
170
  8
1
  6
CONTINUOUS
 62
     7
 10
-532.0304499995
 20
2318.5860377596
 30
0.0
 11
-534.529815277
 21
2363.0852409909
 31
0.0
  0
LINE
  5
171
  8
1
  6
CONTINUOUS
 62
     7
 10
-527.0304499995
 20
2318.5860377596
 30
0.0
 11
-529.529815277
 21
2363.0852409909
 31
0.0
  0
LINE
  5
172
  8
1
  6
CONTINUOUS
 62
     7
 10
-539.7501839505
 20
2361.8356352649
 30
0.0
 11
-542.6596291664
 21
2361.8356352649
 31
0.0
  0
LINE
  5
173
  8
1
  6
CONTINUOUS
 62
     7
 10
-524.7501839505
 20
2361.8356352649
 30
0.0
 11
-527.6596291664
 21
2361.8356352649
 31
0.0
  0
LINE
  5
174
  8
1
  6
CONTINUOUS
 62
     7
 10
-532.729815277
 20
2363.0852430546
 30
0.0
 11
-530.2304500221
 21
2318.5860356959
 31
0.0
  0
LINE
  5
175
  8
1
  6
CONTINUOUS
 62
     7
 10
-527.729815277
 20
2363.0852430546
 30
0.0
 11
-529.529815277
 21
2363.0852409909
 31
0.0
  0
LINE
  5
176
  8
1
  6
CONTINUOUS
 62
     7
 10
-524.7501839505
 20
2246.3973975494
 30
0.0
 11
-524.529815277
 21
2247.6470032754
 31
0.0
  0
LINE
  5
177
  8
1
  6
CONTINUOUS
 62
     7
 10
-522.729815277
 20
2363.0852430546
 30
0.0
 11
-520.2304500221
 21
2318.5860356959
 31
0.0
  0
LINE
  5
178
  8
1
  6
CONTINUOUS
 62
     7
 10
-537.0304499995
 20
2318.5860377596
 30
0.0
 11
-539.529815277
 21
2363.0852409909
 31
0.0
  0
LINE
  5
179
  8
1
  6
CONTINUOUS
 62
     7
 10
-544.7501839505
 20
2361.8356352649
 30
0.0
 11
-544.529815277
 21
2363.0852409909
 31
0.0
  0
LINE
  5
17A
  8
1
  6
CONTINUOUS
 62
     7
 10
-534.7501839505
 20
2361.8356352649
 30
0.0
 11
-534.529815277
 21
2363.0852409909
 31
0.0
  0
LINE
  5
17B
  8
1
  6
CONTINUOUS
 62
     7
 10
-532.729815277
 20
2363.0852430546
 30
0.0
 11
-534.529815277
 21
2363.0852409909
 31
0.0
  0
LINE
  5
17C
  8
1
  6
CONTINUOUS
 62
     7
 10
-522.729815277
 20
2363.0852430546
 30
0.0
 11
-524.529815277
 21
2363.0852409909
 31
0.0
  0
TEXT
  5
17D
  8
1
  6
CONTINUOUS
 62
     5
 10
-357.9679300916404
 20
2183.752615909091
 30
0.0
 40
3.5
  1
ＬＰＫＨ－３６Ｐ
 41
0.996045
 51
15.0
  0
LINE
  5
17E
  8
1
  6
CONTINUOUS
 62
     7
 10
-422.1298142821
 20
2347.1907572649
 30
0.0
 11
-422.1298142821
 21
2350.4805132649
 31
0.0
  0
ARC
  5
17F
  8
1
  6
CONTINUOUS
 62
     7
 10
-418.1298142821
 20
2348.8356352649
 30
0.0
 40
4.325
 50
142.353426
 51
157.646574
  0
LINE
  5
180
  8
1
  6
CONTINUOUS
 62
     7
 10
-417.5543202821
 20
2353.1221762649
 30
0.0
 11
-414.7053082821
 21
2351.4772972649
 31
0.0
  0
LINE
  5
181
  8
1
  6
CONTINUOUS
 62
     7
 10
-421.5543202821
 20
2351.4772972649
 30
0.0
 11
-418.7053082821
 21
2353.1221762649
 31
0.0
  0
ARC
  5
182
  8
1
  6
CONTINUOUS
 62
     7
 10
-419.4298242821
 20
2334.1356522649
 30
0.0
 40
0.800017
 50
270.000699
 51
331.0442760000001
  0
LINE
  5
183
  8
1
  6
CONTINUOUS
 62
     7
 10
-419.4298142821
 20
2333.3356352649
 30
0.0
 11
-420.2349172821
 21
2333.3356352649
 31
0.0
  0
LINE
  5
184
  8
1
  6
CONTINUOUS
 62
     7
 10
-420.2349172821
 20
2332.3356352649
 30
0.0
 11
-419.4298142821
 21
2332.3356352649
 31
0.0
  0
LINE
  5
185
  8
1
  6
CONTINUOUS
 62
     7
 10
-418.7298142821
 20
2329.4832402649
 30
0.0
 11
-418.7298142821
 21
2331.9229332649
 31
0.0
  0
ARC
  5
186
  8
1
  6
CONTINUOUS
 62
     7
 10
-419.4298252821
 20
2331.5356162649
 30
0.0
 40
0.800019
 50
28.955831
 51
89.999193
  0
LINE
  5
187
  8
1
  6
CONTINUOUS
 62
     7
 10
-417.5298142821
 20
2331.9229332649
 30
0.0
 11
-417.5298142821
 21
2329.4832402649
 31
0.0
  0
LINE
  5
188
  8
1
  6
CONTINUOUS
 62
     7
 10
-417.5298142821
 20
2352.1880302649
 30
0.0
 11
-417.5298142821
 21
2349.7483372649
 31
0.0
  0
LINE
  5
189
  8
1
  6
CONTINUOUS
 62
     7
 10
-416.8298142821
 20
2332.3356352649
 30
0.0
 11
-416.0247112821
 21
2332.3356352649
 31
0.0
  0
LINE
  5
18A
  8
1
  6
CONTINUOUS
 62
     7
 10
-431.6298142821
 20
2365.1356352649
 30
0.0
 11
-441.2983382821
 21
2365.1356352649
 31
0.0
  0
LINE
  5
18B
  8
1
  6
CONTINUOUS
 62
     7
 10
-410.1298142821
 20
2364.1356352649
 30
0.0
 11
-411.7371142821
 21
2364.2762562649
 31
0.0
  0
LINE
  5
18C
  8
1
  6
CONTINUOUS
 62
     7
 10
-422.9659582821
 20
2348.6817362649
 30
0.0
 11
-422.6411639287
 21
2344.4701362922
 31
0.0
  0
ARC
  5
18D
  8
1
  6
CONTINUOUS
 62
     7
 10
-419.4298242821
 20
2350.1356522649
 30
0.0
 40
0.800017
 50
270.000699
 51
331.0442760000001
  0
LINE
  5
18E
  8
1
  6
CONTINUOUS
 62
     7
 10
-441.2983382821
 20
2365.1356352649
 30
0.0
 11
-445.6298142821
 21
2366.1356352649
 31
0.0
  0
LINE
  5
18F
  8
1
  6
CONTINUOUS
 62
     7
 10
-418.7298142821
 20
2349.7483372649
 30
0.0
 11
-418.7298142821
 21
2352.1880302649
 31
0.0
  0
ARC
  5
190
  8
1
  6
CONTINUOUS
 62
     7
 10
-419.4298252821
 20
2347.5356162649
 30
0.0
 40
0.800019
 50
28.955831
 51
89.999193
  0
ARC
  5
191
  8
1
  6
CONTINUOUS
 62
     7
 10
-411.6499592821
 20
2365.2724502649
 30
0.0
 40
1.0
 50
210.0
 51
265.0
  0
LINE
  5
192
  8
1
  6
CONTINUOUS
 62
     7
 10
-416.0247112821
 20
2349.3356352649
 30
0.0
 11
-416.8298142821
 21
2349.3356352649
 31
0.0
  0
ARC
  5
193
  8
1
  6
CONTINUOUS
 62
     7
 10
-419.4298142821
 20
2350.1356352649
 30
0.0
 40
0.8
 50
331.044976
 51
0.0
  0
ARC
  5
194
  8
1
  6
CONTINUOUS
 62
     7
 10
-418.1298142821
 20
2348.8356352649
 30
0.0
 40
4.325
 50
322.353426
 51
337.646574
  0
ARC
  5
195
  8
1
  6
CONTINUOUS
 62
     7
 10
-418.1298142821
 20
2348.8356352649
 30
0.0
 40
4.325
 50
82.353426
 51
97.646574
  0
LINE
  5
196
  8
1
  6
CONTINUOUS
 62
     7
 10
-441.2983382821
 20
2316.5356352649
 30
0.0
 11
-445.6298142821
 21
2315.5356352649
 31
0.0
  0
ARC
  5
197
  8
1
  6
CONTINUOUS
 62
     7
 10
-418.1298142821
 20
2348.8356352649
 30
0.0
 40
2.163668
 50
166.6388
 51
193.3612
  0
ARC
  5
198
  8
1
  6
CONTINUOUS
 62
     7
 10
-418.1298142821
 20
2348.8356352649
 30
0.0
 40
2.163668
 50
346.6387999999999
 51
13.3612
  0
ARC
  5
199
  8
1
  6
CONTINUOUS
 62
     7
 10
-418.1298142821
 20
2348.8356352649
 30
0.0
 40
4.325
 50
22.353426
 51
37.646574
  0
LINE
  5
19A
  8
1
  6
CONTINUOUS
 62
     7
 10
-418.7298142821
 20
2333.7483372649
 30
0.0
 11
-418.7298142821
 21
2336.1880302649
 31
0.0
  0
LINE
  5
19B
  8
1
  6
CONTINUOUS
 62
     7
 10
-414.1298142821
 20
2350.4805132649
 30
0.0
 11
-414.1298142821
 21
2347.1907572649
 31
0.0
  0
ARC
  5
19C
  8
1
  6
CONTINUOUS
 62
     7
 10
-418.1298142821
 20
2332.8356352649
 30
0.0
 40
2.163668
 50
346.6387999999999
 51
13.3612
  0
ARC
  5
19D
  8
1
  6
CONTINUOUS
 62
     7
 10
-416.8298142821
 20
2350.1356352649
 30
0.0
 40
0.8
 50
180.0
 51
208.955024
  0
LINE
  5
19E
  8
1
  6
CONTINUOUS
 62
     7
 10
-416.0247112821
 20
2333.3356352649
 30
0.0
 11
-416.8298142821
 21
2333.3356352649
 31
0.0
  0
ARC
  5
19F
  8
1
  6
CONTINUOUS
 62
     7
 10
-418.1298142821
 20
2348.8356352649
 30
0.0
 40
4.325
 50
262.353426
 51
277.646574
  0
ARC
  5
1A0
  8
1
  6
CONTINUOUS
 62
     7
 10
-416.8298032821
 20
2350.1356542649
 30
0.0
 40
0.800019
 50
208.955831
 51
269.999193
  0
ARC
  5
1A1
  8
1
  6
CONTINUOUS
 62
     7
 10
-418.1298142821
 20
2332.8356352649
 30
0.0
 40
2.163668
 50
166.6388
 51
193.3612
  0
LINE
  5
1A2
  8
1
  6
CONTINUOUS
 62
     7
 10
-414.7053082821
 20
2346.1939732649
 30
0.0
 11
-417.5543202821
 21
2344.5490942649
 31
0.0
  0
LINE
  5
1A3
  8
1
  6
CONTINUOUS
 62
     7
 10
-413.6562122011
 20
2342.4188693098
 30
0.0
 11
-413.3501652821
 21
2348.6895952649
 31
0.0
  0
LINE
  5
1A4
  8
1
  6
CONTINUOUS
 62
     7
 10
-411.7371142821
 20
2317.3950142649
 30
0.0
 11
-410.1298142821
 21
2317.5356352649
 31
0.0
  0
ARC
  5
1A5
  8
1
  6
CONTINUOUS
 62
     7
 10
-420.3426372821
 20
2349.1494252649
 30
0.0
 40
7.007575
 50
356.237601
 51
17.93606999999997
  0
LINE
  5
1A6
  8
1
  6
CONTINUOUS
 62
     7
 10
-441.2983382821
 20
2316.5356352649
 30
0.0
 11
-431.6298142821
 21
2316.5356352649
 31
0.0
  0
LINE
  5
1A7
  8
1
  6
CONTINUOUS
 62
     7
 10
-445.6298142821
 20
2315.5356352649
 30
0.0
 11
-448.1298142821
 21
2315.5356352649
 31
0.0
  0
LINE
  5
1A8
  8
1
  6
CONTINUOUS
 62
     7
 10
-417.5298142821
 20
2347.9229332649
 30
0.0
 11
-417.5298142821
 21
2345.4832402649
 31
0.0
  0
LINE
  5
1A9
  8
1
  6
CONTINUOUS
 62
     7
 10
-418.7053082821
 20
2344.5490942649
 30
0.0
 11
-421.5543202821
 21
2346.1939732649
 31
0.0
  0
LINE
  5
1AA
  8
1
  6
CONTINUOUS
 62
     7
 10
-412.5159842821
 20
2364.7724502649
 30
0.0
 11
-412.8566062821
 21
2365.3624262649
 31
0.0
  0
ARC
  5
1AB
  8
1
  6
CONTINUOUS
 62
     7
 10
-411.6499592821
 20
2316.3988202649
 30
0.0
 40
1.0
 50
95.0
 51
150.0
  0
ARC
  5
1AC
  8
1
  6
CONTINUOUS
 62
     7
 10
-418.1096842821
 20
2349.2476472649
 30
0.0
 40
4.889136
 50
24.916779
 51
186.64681
  0
LINE
  5
1AD
  8
1
  6
CONTINUOUS
 62
     7
 10
-418.7298142821
 20
2345.4832402649
 30
0.0
 11
-418.7298142821
 21
2347.9229332649
 31
0.0
  0
LINE
  5
1AE
  8
1
  6
CONTINUOUS
 62
     7
 10
-416.8298142821
 20
2348.3356352649
 30
0.0
 11
-416.0247112821
 21
2348.3356352649
 31
0.0
  0
LINE
  5
1AF
  8
1
  6
CONTINUOUS
 62
     7
 10
-420.2349172821
 20
2348.3356352649
 30
0.0
 11
-419.4298142821
 21
2348.3356352649
 31
0.0
  0
ARC
  5
1B0
  8
1
  6
CONTINUOUS
 62
     7
 10
-416.8298042821
 20
2347.5356182649
 30
0.0
 40
0.800017
 50
90.000699
 51
151.044276
  0
CIRCLE
  5
1B1
  8
1
  6
CONTINUOUS
 62
     7
 10
-418.1298142821
 20
2348.8356352649
 30
0.0
 40
3.5
  0
ARC
  5
1B2
  8
1
  6
CONTINUOUS
 62
     7
 10
-416.8298142821
 20
2347.5356352649
 30
0.0
 40
0.8
 50
151.044976
 51
180.0
  0
LINE
  5
1B3
  8
1
  6
CONTINUOUS
 62
     7
 10
-419.4298142821
 20
2349.3356352649
 30
0.0
 11
-420.2349172821
 21
2349.3356352649
 31
0.0
  0
ARC
  5
1B4
  8
1
  6
CONTINUOUS
 62
     7
 10
-419.4298142821
 20
2347.5356352649
 30
0.0
 40
0.8
 50
0.0
 51
28.955024
  0
ARC
  5
1B5
  8
1
  6
CONTINUOUS
 62
     7
 10
-418.1298142821
 20
2348.8356352649
 30
0.0
 40
4.325
 50
202.353426
 51
217.646574
  0
ARC
  5
1B6
  8
1
  6
CONTINUOUS
 62
     7
 10
-414.6298142821
 20
2257.5471795494
 30
0.0
 40
0.825
 50
270.0
 51
307.305183
  0
LINE
  5
1B7
  8
1
  6
CONTINUOUS
 62
     7
 10
-415.3798142821
 20
2256.2221795494
 30
0.0
 11
-420.8798142821
 21
2256.2221795494
 31
0.0
  0
ARC
  5
1B8
  8
1
  6
CONTINUOUS
 62
     7
 10
-417.7500802821
 20
2252.7602535494
 30
0.0
 40
5.669066
 50
213.930168
 51
310.524194
  0
ARC
  5
1B9
  8
1
  6
CONTINUOUS
 62
     7
 10
-421.6298142821
 20
2257.5471795494
 30
0.0
 40
0.825
 50
232.694817
 51
270.0
  0
LINE
  5
1BA
  8
1
  6
CONTINUOUS
 62
     7
 10
-517.1298142821
 20
2250.3973975494
 30
0.0
 11
-448.1298142821
 21
2250.3973975494
 31
0.0
  0
CIRCLE
  5
1BB
  8
1
  6
CONTINUOUS
 62
     7
 10
-341.7262799508
 20
2225.3973975494
 30
0.0
 40
21.296847
  0
CIRCLE
  5
1BC
  8
1
  6
CONTINUOUS
 62
     7
 10
-341.7262799508
 20
2225.3973975494
 30
0.0
 40
24.526791
  0
ARC
  5
1BD
  8
1
  6
CONTINUOUS
 62
     7
 10
-330.4936069508
 20
2250.1973975494
 30
0.0
 40
1.0
 50
15.0
 51
90.0
  0
CIRCLE
  5
1BE
  8
1
  6
CONTINUOUS
 62
     7
 10
-341.7262799508
 20
2225.3973975494
 30
0.0
 40
23.3
  0
LINE
  5
1BF
  8
1
  6
CONTINUOUS
 62
     7
 10
-448.1298142821
 20
2200.3973975494
 30
0.0
 11
-517.1298142821
 21
2200.3973975494
 31
0.0
  0
LINE
  5
1C0
  8
1
  6
CONTINUOUS
 62
     7
 10
-346.6160649508
 20
2251.1973975494
 30
0.0
 11
-352.9589529508
 21
2251.1973975494
 31
0.0
  0
CIRCLE
  5
1C1
  8
1
  6
CONTINUOUS
 62
     7
 10
-341.7262799508
 20
2225.3973975494
 30
0.0
 40
19.7
  0
ARC
  5
1C2
  8
1
  6
CONTINUOUS
 62
     7
 10
-346.6160649508
 20
2241.1973975494
 30
0.0
 40
10.0
 50
82.978336
 51
90.0
  0
LINE
  5
1C3
  8
1
  6
CONTINUOUS
 62
     7
 10
-353.9248789508
 20
2250.4562165494
 30
0.0
 11
-354.8148359508
 21
2247.1348525494
 31
0.0
  0
LINE
  5
1C4
  8
1
  6
CONTINUOUS
 62
     7
 10
-517.1298142821
 20
2200.3973975494
 30
0.0
 11
-517.1298142821
 21
2250.3973975494
 31
0.0
  0
ARC
  5
1C5
  8
1
  6
CONTINUOUS
 62
     7
 10
-341.7262799508
 20
2225.3973975494
 30
0.0
 40
25.758443
 50
120.172241
 51
59.82775900000001
  0
LINE
  5
1C6
  8
1
  6
CONTINUOUS
 62
     7
 10
-471.1298142821
 20
2215.0420584901
 30
0.0
 11
-448.1298142821
 21
2215.0420584901
 31
0.0
  0
ARC
  5
1C7
  8
1
  6
CONTINUOUS
 62
     7
 10
-352.9589529508
 20
2250.1973975494
 30
0.0
 40
1.0
 50
90.0
 51
165.0
  0
LINE
  5
1C8
  8
1
  6
CONTINUOUS
 62
     7
 10
-421.6298142821
 20
2259.7221795494
 30
0.0
 11
-414.6298142821
 21
2259.7221795494
 31
0.0
  0
LINE
  5
1C9
  8
1
  6
CONTINUOUS
 62
     7
 10
-416.6298142821
 20
2254.9721795494
 30
0.0
 11
-419.6298142821
 21
2254.9721795494
 31
0.0
  0
ARC
  5
1CA
  8
1
  6
CONTINUOUS
 62
     7
 10
-336.8364949508
 20
2241.1973975494
 30
0.0
 40
10.0
 50
90.0
 51
97.021664
  0
LINE
  5
1CB
  8
1
  6
CONTINUOUS
 62
     7
 10
-471.1298142821
 20
2250.3973975494
 30
0.0
 11
-471.1298142821
 21
2200.3973975494
 31
0.0
  0
LINE
  5
1CC
  8
1
  6
CENTER
 62
     5
 10
-371.2535442109
 20
2225.3973975494
 30
0.0
 11
-312.9827667914
 21
2225.3973975494
 31
0.0
  0
LINE
  5
1CD
  8
1
  6
CONTINUOUS
 62
     7
 10
-415.6298142821
 20
2251.2221795494
 30
0.0
 11
-420.6298142821
 21
2251.2221795494
 31
0.0
  0
LINE
  5
1CE
  8
1
  6
CONTINUOUS
 62
     7
 10
-328.6118673888
 20
2247.038351432
 30
0.0
 11
-329.5276809508
 21
2250.4562165494
 31
0.0
  0
LINE
  5
1CF
  8
1
  6
CONTINUOUS
 62
     7
 10
-414.1298142821
 20
2259.5533995494
 30
0.0
 11
-414.1298142821
 21
2256.8909585494
 31
0.0
  0
LINE
  5
1D0
  8
1
  6
CONTINUOUS
 62
     7
 10
-415.8798142821
 20
2253.7221795494
 30
0.0
 11
-415.4187422821
 21
2253.2221795494
 31
0.0
  0
LINE
  5
1D1
  8
1
  6
CENTER
 62
     5
 10
-341.7262799508
 20
2264.2148441447
 30
0.0
 11
-341.7262799508
 21
2195.8344378717
 31
0.0
  0
LINE
  5
1D2
  8
1
  6
CONTINUOUS
 62
     7
 10
-420.8408862821
 20
2253.2221795494
 30
0.0
 11
-420.3798142821
 21
2253.7221795494
 31
0.0
  0
LINE
  5
1D3
  8
1
  6
CONTINUOUS
 62
     7
 10
-415.6412252821
 20
2251.2221795494
 30
0.0
 11
-415.4187422821
 21
2251.7221795494
 31
0.0
  0
LINE
  5
1D4
  8
1
  6
CONTINUOUS
 62
     7
 10
-420.8408862821
 20
2251.7221795494
 30
0.0
 11
-420.6184032821
 21
2251.2221795494
 31
0.0
  0
LINE
  5
1D5
  8
1
  6
CONTINUOUS
 62
     7
 10
-471.1298142821
 20
2235.7527366087
 30
0.0
 11
-448.1298142821
 21
2235.7527366087
 31
0.0
  0
LINE
  5
1D6
  8
1
  6
CONTINUOUS
 62
     7
 10
-416.6298142821
 20
2254.4721795494
 30
0.0
 11
-419.6298142821
 21
2254.4721795494
 31
0.0
  0
LINE
  5
1D7
  8
1
  6
CONTINUOUS
 62
     7
 10
-415.4187422821
 20
2253.2221795494
 30
0.0
 11
-415.4187422821
 21
2251.7221795494
 31
0.0
  0
LINE
  5
1D8
  8
1
  6
CONTINUOUS
 62
     7
 10
-431.6298142821
 20
2201.0973975494
 30
0.0
 11
-431.6298142821
 21
2249.6973975494
 31
0.0
  0
LINE
  5
1D9
  8
1
  6
CONTINUOUS
 62
     7
 10
-336.8364949508
 20
2251.1973975494
 30
0.0
 11
-330.4936069508
 21
2251.1973975494
 31
0.0
  0
LINE
  5
1DA
  8
1
  6
CONTINUOUS
 62
     7
 10
-410.1298142821
 20
2202.0973975494
 30
0.0
 11
-410.1298142821
 21
2248.6973975494
 31
0.0
  0
LINE
  5
1DB
  8
1
  6
CONTINUOUS
 62
     7
 10
-413.6468952821
 20
2249.3951175494
 30
0.0
 11
-413.9312152821
 21
2250.4562165494
 31
0.0
  0
ARC
  5
1DC
  8
1
  6
CONTINUOUS
 62
     7
 10
-414.5113542821
 20
2249.2140275494
 30
0.0
 40
0.883223
 50
300.2434600000001
 51
11.83142399999997
  0
ARC
  5
1DD
  8
1
  6
CONTINUOUS
 62
     7
 10
-341.7262799508
 20
2280.8973975494
 30
0.0
 40
30.0
 50
262.978336
 51
277.021664
  0
CIRCLE
  5
1DE
  8
1
  6
CONTINUOUS
 62
     7
 10
-341.7262799508
 20
2225.3973975494
 30
0.0
 40
17.0
  0
LINE
  5
1DF
  8
1
  6
CONTINUOUS
 62
     7
 10
-422.1298142821
 20
2256.8909585494
 30
0.0
 11
-422.1298142821
 21
2259.5533995494
 31
0.0
  0
LINE
  5
1E0
  8
1
  6
CONTINUOUS
 62
     7
 10
-421.6298142821
 20
2256.7221795494
 30
0.0
 11
-414.6298142821
 21
2256.7221795494
 31
0.0
  0
LINE
  5
1E1
  8
1
  6
CONTINUOUS
 62
     7
 10
-422.4594922821
 20
2249.9670225494
 30
0.0
 11
-422.3284132821
 21
2250.4562165494
 31
0.0
  0
CIRCLE
  5
1E2
  8
1
  6
CONTINUOUS
 62
     7
 10
-341.7262799508
 20
2225.3973975494
 30
0.0
 40
23.936815
  0
LINE
  5
1E3
  8
1
  6
CONTINUOUS
 62
     7
 10
-414.8971412821
 20
2251.1973975494
 30
0.0
 11
-421.3624872821
 21
2251.1973975494
 31
0.0
  0
ARC
  5
1E4
  8
1
  6
CONTINUOUS
 62
     7
 10
-414.8971412821
 20
2250.1973975494
 30
0.0
 40
1.0
 50
15.0
 51
90.0
  0
LINE
  5
1E5
  8
1
  6
CONTINUOUS
 62
     7
 10
-420.8408862821
 20
2251.7221795494
 30
0.0
 11
-420.8408862821
 21
2253.2221795494
 31
0.0
  0
ARC
  5
1E6
  8
1
  6
CONTINUOUS
 62
     7
 10
-421.3624872821
 20
2250.1973975494
 30
0.0
 40
1.0
 50
90.0
 51
165.0
  0
LINE
  5
1E7
  8
1
  6
CONTINUOUS
 62
     7
 10
-445.9184892821
 20
2229.5675372902
 30
0.0
 11
-445.9184892821
 21
2250.2256445494
 31
0.0
  0
LINE
  5
1E8
  8
1
  6
CONTINUOUS
 62
     7
 10
-412.5159842821
 20
2249.3342125494
 30
0.0
 11
-412.8566062821
 21
2249.9241875494
 31
0.0
  0
LINE
  5
1E9
  8
1
  6
CONTINUOUS
 62
     7
 10
-441.2983382821
 20
2228.3076285494
 30
0.0
 11
-445.9184892821
 21
2229.5675372902
 31
0.0
  0
ARC
  5
1EA
  8
1
  6
CONTINUOUS
 62
     7
 10
-413.7226322821
 20
2201.3706065494
 30
0.0
 40
1.0
 50
272.694284
 51
330.0
  0
ARC
  5
1EB
  8
1
  6
CONTINUOUS
 62
     7
 10
-413.7226322821
 20
2249.4241875494
 30
0.0
 40
1.0
 50
30.0
 51
87.305716
  0
LINE
  5
1EC
  8
1
  6
CONTINUOUS
 62
     7
 10
-441.2983382821
 20
2222.4871665494
 30
0.0
 11
-441.2983382821
 21
2228.3076285494
 31
0.0
  0
LINE
  5
1ED
  8
1
  6
CONTINUOUS
 62
     7
 10
-445.9184892821
 20
2250.2256445494
 30
0.0
 11
-445.0524642821
 21
2249.2388195494
 31
0.0
  0
LINE
  5
1EE
  8
1
  6
CONTINUOUS
 62
     7
 10
-445.0524642821
 20
2230.0959705494
 30
0.0
 11
-445.0524642821
 21
2249.2388195494
 31
0.0
  0
LINE
  5
1EF
  8
1
  6
CONTINUOUS
 62
     7
 10
-419.6298142821
 20
2254.4721795494
 30
0.0
 11
-420.3798142821
 21
2253.7221795494
 31
0.0
  0
LINE
  5
1F0
  8
1
  6
CONTINUOUS
 62
     7
 10
-445.0524642821
 20
2249.2388195494
 30
0.0
 11
-441.2983382821
 21
2249.6973975494
 31
0.0
  0
LINE
  5
1F1
  8
1
  6
CONTINUOUS
 62
     7
 10
-445.9184892821
 20
2221.2272578086
 30
0.0
 11
-445.9184892821
 21
2200.5691505494
 31
0.0
  0
LINE
  5
1F2
  8
1
  6
CONTINUOUS
 62
     7
 10
-441.2983382821
 20
2222.4871665494
 30
0.0
 11
-445.9184892821
 21
2221.2272578086
 31
0.0
  0
ARC
  5
1F3
  8
1
  6
CONTINUOUS
 62
     7
 10
-444.5555022821
 20
2220.6708425494
 30
0.0
 40
0.497749
 50
101.629841
 51
176.777245
  0
ARC
  5
1F4
  8
1
  6
CONTINUOUS
 62
     7
 10
-421.6298142821
 20
2258.8971795494
 30
0.0
 40
0.825
 50
90.0
 51
127.305183
  0
LINE
  5
1F5
  8
1
  6
CONTINUOUS
 62
     7
 10
-420.6298142821
 20
2251.2221795494
 30
0.0
 11
-420.6298142821
 21
2251.1973975494
 31
0.0
  0
LINE
  5
1F6
  8
1
  6
CONTINUOUS
 62
     7
 10
-411.7371142821
 20
2201.9567765494
 30
0.0
 11
-410.1298142821
 21
2202.0973975494
 31
0.0
  0
LINE
  5
1F7
  8
1
  6
CONTINUOUS
 62
     7
 10
-415.8798142821
 20
2253.7221795494
 30
0.0
 11
-416.6298142821
 21
2254.4721795494
 31
0.0
  0
LINE
  5
1F8
  8
1
  6
CONTINUOUS
 62
     7
 10
-448.1298142821
 20
2200.0973975494
 30
0.0
 11
-448.1298142821
 21
2250.6973975494
 31
0.0
  0
LINE
  5
1F9
  8
1
  6
CONTINUOUS
 62
     7
 10
-445.9184892821
 20
2220.8200480053
 30
0.0
 11
-443.0833152821
 21
2221.5797295494
 31
0.0
  0
LINE
  5
1FA
  8
1
  6
CONTINUOUS
 62
     7
 10
-445.0524642821
 20
2220.6988245494
 30
0.0
 11
-445.0524642821
 21
2201.5559755494
 31
0.0
  0
LINE
  5
1FB
  8
1
  6
CONTINUOUS
 62
     7
 10
-445.6298142821
 20
2200.0973975494
 30
0.0
 11
-448.1298142821
 21
2200.0973975494
 31
0.0
  0
ARC
  5
1FC
  8
1
  6
CONTINUOUS
 62
     7
 10
-413.7249382821
 20
2250.9259565494
 30
0.0
 40
0.5
 50
245.29844
 51
267.305716
  0
LINE
  5
1FD
  8
1
  6
CONTINUOUS
 62
     7
 10
-441.2983382821
 20
2201.0973975494
 30
0.0
 11
-445.6298142821
 21
2200.0973975494
 31
0.0
  0
LINE
  5
1FE
  8
1
  6
CONTINUOUS
 62
     7
 10
-420.8798142821
 20
2256.2221795494
 30
0.0
 11
-419.6298142821
 21
2254.9721795494
 31
0.0
  0
LINE
  5
1FF
  8
1
  6
CONTINUOUS
 62
     7
 10
-422.1437632821
 20
2250.8215835494
 30
0.0
 11
-429.2467202821
 21
2251.1558395494
 31
0.0
  0
ARC
  5
200
  8
1
  6
CONTINUOUS
 62
     7
 10
-429.3407332821
 20
2249.1580505494
 30
0.0
 40
2.0
 50
87.305716
 51
135.0
  0
ARC
  5
201
  8
1
  6
CONTINUOUS
 62
     7
 10
-411.6499592821
 20
2200.9605825494
 30
0.0
 40
1.0
 50
95.0
 51
150.0
  0
ARC
  5
202
  8
1
  6
CONTINUOUS
 62
     7
 10
-411.6499592821
 20
2249.8342125494
 30
0.0
 40
1.0
 50
210.0
 51
265.0
  0
LINE
  5
203
  8
1
  6
CONTINUOUS
 62
     7
 10
-413.6756252821
 20
2250.4230825494
 30
0.0
 11
-413.7450392821
 21
2250.4263495494
 31
0.0
  0
LINE
  5
204
  8
1
  6
CONTINUOUS
 62
     7
 10
-416.6298142821
 20
2254.4721795494
 30
0.0
 11
-416.6298142821
 21
2254.9721795494
 31
0.0
  0
LINE
  5
205
  8
1
  6
CONTINUOUS
 62
     7
 10
-416.6298142821
 20
2254.9721795494
 30
0.0
 11
-415.3798142821
 21
2256.2221795494
 31
0.0
  0
LINE
  5
206
  8
1
  6
CONTINUOUS
 62
     7
 10
-445.6298142821
 20
2250.6973975494
 30
0.0
 11
-448.1298142821
 21
2250.6973975494
 31
0.0
  0
LINE
  5
207
  8
1
  6
CONTINUOUS
 62
     7
 10
-431.6298142821
 20
2201.0973975494
 30
0.0
 11
-430.7549472821
 21
2200.2225305494
 31
0.0
  0
LINE
  5
208
  8
1
  6
CONTINUOUS
 62
     7
 10
-430.7549472821
 20
2250.5722645494
 30
0.0
 11
-431.6298142821
 21
2249.6973975494
 31
0.0
  0
LINE
  5
209
  8
1
  6
CONTINUOUS
 62
     7
 10
-431.6298142821
 20
2249.6973975494
 30
0.0
 11
-441.2983382821
 21
2249.6973975494
 31
0.0
  0
ARC
  5
20A
  8
1
  6
CONTINUOUS
 62
     7
 10
-414.6298142821
 20
2258.8971795494
 30
0.0
 40
0.825
 50
52.694817
 51
90.0
  0
LINE
  5
20B
  8
1
  6
CONTINUOUS
 62
     7
 10
-415.3798142821
 20
2256.2221795494
 30
0.0
 11
-415.3798142821
 21
2256.7221795494
 31
0.0
  0
LINE
  5
20C
  8
1
  6
CONTINUOUS
 62
     7
 10
-441.2983382821
 20
2249.6973975494
 30
0.0
 11
-445.6298142821
 21
2250.6973975494
 31
0.0
  0
LINE
  5
20D
  8
1
  6
CONTINUOUS
 62
     7
 10
-443.0833152821
 20
2229.2150655494
 30
0.0
 11
-441.2983382821
 21
2228.3076285494
 31
0.0
  0
LINE
  5
20E
  8
1
  6
CONTINUOUS
 62
     7
 10
-419.6298142821
 20
2254.9721795494
 30
0.0
 11
-419.6298142821
 21
2254.4721795494
 31
0.0
  0
LINE
  5
20F
  8
1
  6
CONTINUOUS
 62
     7
 10
-415.6298142821
 20
2251.1973975494
 30
0.0
 11
-415.6298142821
 21
2251.2221795494
 31
0.0
  0
LINE
  5
210
  8
1
  6
CONTINUOUS
 62
     7
 10
-412.8566062821
 20
2200.8706065494
 30
0.0
 11
-412.5159842821
 21
2201.4605825494
 31
0.0
  0
LINE
  5
211
  8
1
  6
CONTINUOUS
 62
     7
 10
-445.9184892821
 20
2229.9747470935
 30
0.0
 11
-443.0833152821
 21
2229.2150655494
 31
0.0
  0
ARC
  5
212
  8
1
  6
CONTINUOUS
 62
     7
 10
-444.5555022821
 20
2230.1239525494
 30
0.0
 40
0.497749
 50
183.222755
 51
258.370159
  0
LINE
  5
213
  8
1
  6
CONTINUOUS
 62
     7
 10
-420.8798142821
 20
2256.7221795494
 30
0.0
 11
-420.8798142821
 21
2256.2221795494
 31
0.0
  0
ARC
  5
214
  8
1
  6
CONTINUOUS
 62
     7
 10
-429.3407332821
 20
2201.6367435494
 30
0.0
 40
2.0
 50
225.0
 51
272.694284
  0
LINE
  5
215
  8
1
  6
CONTINUOUS
 62
     7
 10
-429.2467202821
 20
2199.6389545494
 30
0.0
 11
-413.6756252821
 21
2200.3717125494
 31
0.0
  0
LINE
  5
216
  8
1
  6
CONTINUOUS
 62
     7
 10
-441.2983382821
 20
2201.0973975494
 30
0.0
 11
-431.6298142821
 21
2201.0973975494
 31
0.0
  0
LINE
  5
217
  8
1
  6
CONTINUOUS
 62
     7
 10
-410.1298142821
 20
2248.6973975494
 30
0.0
 11
-411.7371142821
 21
2248.8380175494
 31
0.0
  0
ARC
  5
218
  8
1
  6
CONTINUOUS
 62
     7
 10
-644.1298142821
 20
2204.3973975494
 30
0.0
 40
0.4999999999999449
 50
0.0
 51
90.0
  0
LINE
  5
219
  8
1
  6
CONTINUOUS
 62
     7
 10
-653.6298142821
 20
2204.1473975494
 30
0.0
 11
-653.6298142821
 21
2246.6473975494
 31
0.0
  0
LINE
  5
21A
  8
1
  6
CONTINUOUS
 62
     7
 10
-676.1298142821
 20
2192.9127858078
 30
0.0
 11
-669.6094406144001
 21
2191.0882228141
 31
0.0
  0
LINE
  5
21B
  8
1
  6
CONTINUOUS
 62
     7
 10
-643.6298142821
 20
2203.1473975494
 30
0.0
 11
-643.6298142821
 21
2247.6473975494
 31
0.0
  0
LINE
  5
21C
  8
1
  6
CONTINUOUS
 62
     7
 10
-608.6984905950001
 20
2192.8973975494
 30
0.0
 11
-608.6984905950001
 21
2257.8973975494
 31
0.0
  0
LINE
  5
21D
  8
1
  6
CONTINUOUS
 62
     7
 10
-604.6298142821
 20
2249.5297448037
 30
0.0
 11
-604.6298142821
 21
2257.8638195825
 31
0.0
  0
LINE
  5
21E
  8
1
  6
CONTINUOUS
 62
     7
 10
-643.6298142821
 20
2203.1473975494
 30
0.0
 11
-638.6298142821
 21
2203.1473975494
 31
0.0
  0
ARC
  5
21F
  8
1
  6
CONTINUOUS
 62
     7
 10
-586.0261992095
 20
2243.6934304363
 30
0.0
 40
2.90706727409995
 50
41.4621829799
 51
92.0425960262
  0
LINE
  5
220
  8
1
  6
CONTINUOUS
 62
     7
 10
-637.7298373061
 20
2247.6473975494
 30
0.0
 11
-643.6298142821
 21
2247.6473975494
 31
0.0
  0
LINE
  5
221
  8
1
  6
CONTINUOUS
 62
     7
 10
-638.6298142821
 20
2204.3973975494
 30
0.0
 11
-637.1006355397
 21
2204.3973975494
 31
0.0
  0
LINE
  5
222
  8
1
  6
CONTINUOUS
 62
     7
 10
-547.729815277
 20
2247.6470053391
 30
0.0
 11
-549.529815277
 21
2247.6470032754
 31
0.0
  0
LINE
  5
223
  8
1
  6
CONTINUOUS
 62
     7
 10
-586.1298142821
 20
2257.8973975494
 30
0.0
 11
-608.6984905950001
 21
2257.8973975494
 31
0.0
  0
LINE
  5
224
  8
1
  6
CONTINUOUS
 62
     7
 10
-646.6298142821
 20
2204.8973975494
 30
0.0
 11
-644.1298142821
 21
2204.8973975494
 31
0.0
  0
LINE
  5
225
  8
1
  6
CONTINUOUS
 62
     7
 10
-604.6298142821
 20
2227.4125993837
 30
0.0
 11
-583.6298142821
 21
2227.4125993837
 31
0.0
  0
LINE
  5
226
  8
1
  6
CONTINUOUS
 62
     7
 10
-586.1298142821
 20
2246.5986505747
 30
0.0
 11
-604.6298142821
 21
2246.5986505747
 31
0.0
  0
LINE
  5
227
  8
1
  6
CONTINUOUS
 62
     7
 10
-638.6298142821
 20
2203.1473975494
 30
0.0
 11
-638.6298142821
 21
2231.6232041369
 31
0.0
  0
LINE
  5
228
  8
1
  6
CONTINUOUS
 62
     7
 10
-586.1298142821
 20
2249.5297448037
 30
0.0
 11
-604.6298142821
 21
2249.5297448037
 31
0.0
  0
LINE
  5
229
  8
1
  6
CONTINUOUS
 62
     7
 10
-547.0304499995
 20
2203.1478000441
 30
0.0
 11
-545.2304499995001
 21
2203.1477979804
 31
0.0
  0
LINE
  5
22A
  8
1
  6
CONTINUOUS
 62
     7
 10
-650.6298142821
 20
2245.8973975494
 30
0.0
 11
-653.6298142821
 21
2245.8973975494
 31
0.0
  0
LINE
  5
22B
  8
1
  6
CONTINUOUS
 62
     7
 10
-650.6298142821
 20
2204.1473975494
 30
0.0
 11
-650.6298142821
 21
2246.6473975494
 31
0.0
  0
LINE
  5
22C
  8
1
  6
CONTINUOUS
 62
     7
 10
-583.1298142821
 20
2254.8973975494
 30
0.0
 11
-583.1298142821
 21
2226.6990909081
 31
0.0
  0
LINE
  5
22D
  8
1
  6
CONTINUOUS
 62
     7
 10
-549.7501839505001
 20
2246.3973975494
 30
0.0
 11
-552.6596291664
 21
2246.3973975494
 31
0.0
  0
LINE
  5
22E
  8
1
  6
CONTINUOUS
 62
     7
 10
-550.0094935333
 20
2204.3973975494
 30
0.0
 11
-547.1006355397
 21
2204.3973975494
 31
0.0
  0
LINE
  5
22F
  8
1
  6
CONTINUOUS
 62
     7
 10
-646.6298142821
 20
2204.1473975494
 30
0.0
 11
-646.6298142821
 21
2246.6473975494
 31
0.0
  0
LINE
  5
230
  8
1
  6
CONTINUOUS
 62
     7
 10
-650.6298142821
 20
2204.1473975494
 30
0.0
 11
-646.6298142821
 21
2204.1473975494
 31
0.0
  0
LINE
  5
231
  8
1
  6
CONTINUOUS
 62
     7
 10
-604.6298142821
 20
2204.1961445241
 30
0.0
 11
-604.6298142821
 21
2246.5986505747
 31
0.0
  0
LINE
  5
232
  8
1
  6
CONTINUOUS
 62
     7
 10
-644.1298142821
 20
2245.8973975494
 30
0.0
 11
-646.6298142821
 21
2245.8973975494
 31
0.0
  0
ARC
  5
233
  8
1
  6
CONTINUOUS
 62
     7
 10
-585.9281864151001
 20
2246.6470741554
 30
0.0
 40
2.889713430699992
 50
16.7499583865
 51
94.00102654970001
  0
LINE
  5
234
  8
1
  6
CONTINUOUS
 62
     7
 10
-653.6298142821
 20
2204.8973975494
 30
0.0
 11
-650.6298142821
 21
2204.8973975494
 31
0.0
  0
ARC
  5
235
  8
1
  6
CONTINUOUS
 62
     7
 10
-586.1298142821
 20
2254.8973975494
 30
0.0
 40
3.000000000000003
 50
0.0
 51
90.0
  0
LINE
  5
236
  8
1
  6
CONTINUOUS
 62
     7
 10
-586.1298142821
 20
2227.3450728252
 30
0.0
 11
-586.1298142821
 21
2227.3516449299
 31
0.0
  0
LINE
  5
237
  8
1
  6
CONTINUOUS
 62
     7
 10
-646.6298142821
 20
2246.6473975494
 30
0.0
 11
-650.6298142821
 21
2246.6473975494
 31
0.0
  0
ARC
  5
238
  8
1
  6
CONTINUOUS
 62
     7
 10
-586.1298142821
 20
2195.8973975494
 30
0.0
 40
3.000000000000003
 50
270.0
 51
0.0
  0
LINE
  5
239
  8
1
  6
CONTINUOUS
 62
     7
 10
-604.6298142821
 20
2223.3821957151
 30
0.0
 11
-583.6298142821
 21
2223.3821957151
 31
0.0
  0
LINE
  5
23A
  8
1
  6
CONTINUOUS
 62
     7
 10
-586.1298142821
 20
2223.4497222736
 30
0.0
 11
-586.1298142821
 21
2223.4431501689
 31
0.0
  0
LINE
  5
23B
  8
1
  6
CONTINUOUS
 62
     7
 10
-586.1298142821
 20
2201.2650502951
 30
0.0
 11
-604.6298142821
 21
2201.2650502951
 31
0.0
  0
LINE
  5
23C
  8
1
  6
CONTINUOUS
 62
     7
 10
-586.1298142821
 20
2204.1961445241
 30
0.0
 11
-604.6298142821
 21
2204.1961445241
 31
0.0
  0
LINE
  5
23D
  8
1
  6
CONTINUOUS
 62
     7
 10
-549.7501839505001
 20
2246.3973975494
 30
0.0
 11
-549.529815277
 21
2247.6470032754
 31
0.0
  0
LINE
  5
23E
  8
1
  6
CONTINUOUS
 62
     7
 10
-586.1298142821
 20
2192.8973975494
 30
0.0
 11
-608.6984905950001
 21
2192.8973975494
 31
0.0
  0
LINE
  5
23F
  8
1
  6
CONTINUOUS
 62
     7
 10
-547.729815277
 20
2247.6470053391
 30
0.0
 11
-545.2304500221001
 21
2203.1477979804
 31
0.0
  0
LINE
  5
240
  8
1
  6
CONTINUOUS
 62
     7
 10
-583.1298142821
 20
2195.8973975494
 30
0.0
 11
-583.1298142821
 21
2224.0957041907
 31
0.0
  0
LINE
  5
241
  8
1
  6
CONTINUOUS
 62
     7
 10
-547.0304499995
 20
2203.1478000441
 30
0.0
 11
-549.529815277
 21
2247.6470032754
 31
0.0
  0
LINE
  5
242
  8
1
  6
CONTINUOUS
 62
     7
 10
-545.0094949919
 20
2204.3973975494
 30
0.0
 11
-545.2304499995001
 21
2203.1477979804
 31
0.0
  0
LINE
  5
243
  8
1
  6
CONTINUOUS
 62
     7
 10
-604.6298142821
 20
2201.2650502951
 30
0.0
 11
-604.6298142821
 21
2192.9309755163
 31
0.0
  0
LINE
  5
244
  8
1
  6
CONTINUOUS
 62
     7
 10
-552.0304499995
 20
2203.1478000441
 30
0.0
 11
-550.2304499995001
 21
2203.1477979804
 31
0.0
  0
ARC
  5
245
  8
1
  6
CONTINUOUS
 62
     7
 10
-644.1298142821
 20
2246.3973975494
 30
0.0
 40
0.4999999999999449
 50
270.0
 51
0.0
  0
LINE
  5
246
  8
1
  6
CONTINUOUS
 62
     7
 10
-564.7501839505001
 20
2246.3973975494
 30
0.0
 11
-564.529815277
 21
2247.6470032754
 31
0.0
  0
LINE
  5
247
  8
1
  6
CONTINUOUS
 62
     7
 10
-559.7501839505001
 20
2246.3973975494
 30
0.0
 11
-562.6596291664
 21
2246.3973975494
 31
0.0
  0
LINE
  5
248
  8
1
  6
CONTINUOUS
 62
     7
 10
-572.0304499995
 20
2203.1478000441
 30
0.0
 11
-570.2304499995
 21
2203.1477979804
 31
0.0
  0
LINE
  5
249
  8
1
  6
CONTINUOUS
 62
     7
 10
-560.0094949919
 20
2204.3973975494
 30
0.0
 11
-560.2304499995001
 21
2203.1477979804
 31
0.0
  0
LINE
  5
24A
  8
1
  6
CONTINUOUS
 62
     7
 10
-552.729815277
 20
2247.6470053391
 30
0.0
 11
-550.2304500221001
 21
2203.1477979804
 31
0.0
  0
LINE
  5
24B
  8
1
  6
CONTINUOUS
 62
     7
 10
-559.7501839505001
 20
2246.3973975494
 30
0.0
 11
-559.529815277
 21
2247.6470032754
 31
0.0
  0
LINE
  5
24C
  8
1
  6
CONTINUOUS
 62
     7
 10
-562.729815277
 20
2247.6470053391
 30
0.0
 11
-564.529815277
 21
2247.6470032754
 31
0.0
  0
LINE
  5
24D
  8
1
  6
CONTINUOUS
 62
     7
 10
-555.0094949919
 20
2204.3973975494
 30
0.0
 11
-555.2304499995001
 21
2203.1477979804
 31
0.0
  0
LINE
  5
24E
  8
1
  6
CONTINUOUS
 62
     7
 10
-565.0094935333
 20
2204.3973975494
 30
0.0
 11
-562.1006355397
 21
2204.3973975494
 31
0.0
  0
LINE
  5
24F
  8
1
  6
CONTINUOUS
 62
     7
 10
-554.7501839505001
 20
2246.3973975494
 30
0.0
 11
-554.529815277
 21
2247.6470032754
 31
0.0
  0
LINE
  5
250
  8
1
  6
CONTINUOUS
 62
     7
 10
-554.7501839505001
 20
2246.3973975494
 30
0.0
 11
-557.6596291664
 21
2246.3973975494
 31
0.0
  0
LINE
  5
251
  8
1
  6
CONTINUOUS
 62
     7
 10
-562.0304499995
 20
2203.1478000441
 30
0.0
 11
-560.2304499995001
 21
2203.1477979804
 31
0.0
  0
LINE
  5
252
  8
1
  6
CONTINUOUS
 62
     7
 10
-557.0304499995
 20
2203.1478000441
 30
0.0
 11
-559.529815277
 21
2247.6470032754
 31
0.0
  0
LINE
  5
253
  8
1
  6
CONTINUOUS
 62
     7
 10
-567.0304499995
 20
2203.1478000441
 30
0.0
 11
-565.2304499995
 21
2203.1477979804
 31
0.0
  0
LINE
  5
254
  8
1
  6
CONTINUOUS
 62
     7
 10
-562.0304499995
 20
2203.1478000441
 30
0.0
 11
-564.529815277
 21
2247.6470032754
 31
0.0
  0
LINE
  5
255
  8
1
  6
CONTINUOUS
 62
     7
 10
-567.729815277
 20
2247.6470053391
 30
0.0
 11
-569.5298152770001
 21
2247.6470032754
 31
0.0
  0
LINE
  5
256
  8
1
  6
CONTINUOUS
 62
     7
 10
-570.0094935333
 20
2204.3973975494
 30
0.0
 11
-567.1006355397
 21
2204.3973975494
 31
0.0
  0
LINE
  5
257
  8
1
  6
CONTINUOUS
 62
     7
 10
-560.0094935333
 20
2204.3973975494
 30
0.0
 11
-557.1006355397
 21
2204.3973975494
 31
0.0
  0
LINE
  5
258
  8
1
  6
CONTINUOUS
 62
     7
 10
-569.7501839505001
 20
2246.3973975494
 30
0.0
 11
-569.5298152770001
 21
2247.6470032754
 31
0.0
  0
LINE
  5
259
  8
1
  6
CONTINUOUS
 62
     7
 10
-567.729815277
 20
2247.6470053391
 30
0.0
 11
-565.2304500221
 21
2203.1477979804
 31
0.0
  0
LINE
  5
25A
  8
1
  6
CONTINUOUS
 62
     7
 10
-567.0304499995
 20
2203.1478000441
 30
0.0
 11
-569.5298152770001
 21
2247.6470032754
 31
0.0
  0
LINE
  5
25B
  8
1
  6
CONTINUOUS
 62
     7
 10
-555.0094935333
 20
2204.3973975494
 30
0.0
 11
-552.1006355397
 21
2204.3973975494
 31
0.0
  0
LINE
  5
25C
  8
1
  6
CONTINUOUS
 62
     7
 10
-562.729815277
 20
2247.6470053391
 30
0.0
 11
-560.2304500221
 21
2203.1477979804
 31
0.0
  0
LINE
  5
25D
  8
1
  6
CONTINUOUS
 62
     7
 10
-552.0304499995
 20
2203.1478000441
 30
0.0
 11
-554.529815277
 21
2247.6470032754
 31
0.0
  0
LINE
  5
25E
  8
1
  6
CONTINUOUS
 62
     7
 10
-552.729815277
 20
2247.6470053391
 30
0.0
 11
-554.529815277
 21
2247.6470032754
 31
0.0
  0
LINE
  5
25F
  8
1
  6
CONTINUOUS
 62
     7
 10
-569.7501839505001
 20
2246.3973975494
 30
0.0
 11
-572.6596291664
 21
2246.3973975494
 31
0.0
  0
LINE
  5
260
  8
1
  6
CONTINUOUS
 62
     7
 10
-557.729815277
 20
2247.6470053391
 30
0.0
 11
-559.529815277
 21
2247.6470032754
 31
0.0
  0
LINE
  5
261
  8
1
  6
CONTINUOUS
 62
     7
 10
-557.729815277
 20
2247.6470053391
 30
0.0
 11
-555.2304500221001
 21
2203.1477979804
 31
0.0
  0
LINE
  5
262
  8
1
  6
CONTINUOUS
 62
     7
 10
-557.0304499995
 20
2203.1478000441
 30
0.0
 11
-555.2304499995001
 21
2203.1477979804
 31
0.0
  0
LINE
  5
263
  8
1
  6
CONTINUOUS
 62
     7
 10
-564.7501839505001
 20
2246.3973975494
 30
0.0
 11
-567.6596291664
 21
2246.3973975494
 31
0.0
  0
LINE
  5
264
  8
1
  6
CONTINUOUS
 62
     7
 10
-565.0094949919
 20
2204.3973975494
 30
0.0
 11
-565.2304499995
 21
2203.1477979804
 31
0.0
  0
LINE
  5
265
  8
1
  6
CONTINUOUS
 62
     7
 10
-550.0094949919
 20
2204.3973975494
 30
0.0
 11
-550.2304499995001
 21
2203.1477979804
 31
0.0
  0
LINE
  5
266
  8
1
  6
CONTINUOUS
 62
     7
 10
-570.0094949919
 20
2204.3973975494
 30
0.0
 11
-570.2304499995
 21
2203.1477979804
 31
0.0
  0
LINE
  5
267
  8
1
  6
CONTINUOUS
 62
     7
 10
-577.729815277
 20
2247.6470053391
 30
0.0
 11
-575.2304500221
 21
2203.1477979804
 31
0.0
  0
LINE
  5
268
  8
1
  6
CONTINUOUS
 62
     7
 10
-572.729815277
 20
2247.6470053391
 30
0.0
 11
-570.2304500221
 21
2203.1477979804
 31
0.0
  0
LINE
  5
269
  8
1
  6
CONTINUOUS
 62
     7
 10
-579.7501839505
 20
2246.3973975494
 30
0.0
 11
-582.6596291664
 21
2246.3973975494
 31
0.0
  0
LINE
  5
26A
  8
1
  6
CONTINUOUS
 62
     7
 10
-582.0304499995
 20
2203.1478000441
 30
0.0
 11
-580.2304499995
 21
2203.1477979804
 31
0.0
  0
LINE
  5
26B
  8
1
  6
CONTINUOUS
 62
     7
 10
-575.0094935333
 20
2204.3973975494
 30
0.0
 11
-572.1006355397
 21
2204.3973975494
 31
0.0
  0
LINE
  5
26C
  8
1
  6
CONTINUOUS
 62
     7
 10
-572.0304499995
 20
2203.1478000441
 30
0.0
 11
-574.5298152770001
 21
2247.6470032754
 31
0.0
  0
LINE
  5
26D
  8
1
  6
CONTINUOUS
 62
     7
 10
-577.0304499995
 20
2203.1478000441
 30
0.0
 11
-579.5298152770001
 21
2247.6470032754
 31
0.0
  0
LINE
  5
26E
  8
1
  6
CONTINUOUS
 62
     7
 10
-575.0094949919002
 20
2204.3973975494
 30
0.0
 11
-575.2304499995
 21
2203.1477979804
 31
0.0
  0
LINE
  5
26F
  8
1
  6
CONTINUOUS
 62
     7
 10
-572.729815277
 20
2247.6470053391
 30
0.0
 11
-574.5298152770001
 21
2247.6470032754
 31
0.0
  0
LINE
  5
270
  8
1
  6
CONTINUOUS
 62
     7
 10
-574.7501839505
 20
2246.3973975494
 30
0.0
 11
-574.5298152770001
 21
2247.6470032754
 31
0.0
  0
LINE
  5
271
  8
1
  6
CONTINUOUS
 62
     7
 10
-577.729815277
 20
2247.6470053391
 30
0.0
 11
-579.5298152770001
 21
2247.6470032754
 31
0.0
  0
LINE
  5
272
  8
1
  6
CONTINUOUS
 62
     7
 10
-574.7501839505
 20
2246.3973975494
 30
0.0
 11
-577.6596291664
 21
2246.3973975494
 31
0.0
  0
LINE
  5
273
  8
1
  6
CONTINUOUS
 62
     7
 10
-577.0304499995
 20
2203.1478000441
 30
0.0
 11
-575.2304499995
 21
2203.1477979804
 31
0.0
  0
LINE
  5
274
  8
1
  6
CONTINUOUS
 62
     7
 10
-586.1298142821
 20
2373.3356352649
 30
0.0
 11
-608.6984905950001
 21
2373.3356352649
 31
0.0
  0
LINE
  5
275
  8
1
  6
CONTINUOUS
 62
     7
 10
-549.7501839505001
 20
2361.8356352649
 30
0.0
 11
-552.6596291664
 21
2361.8356352649
 31
0.0
  0
ARC
  5
276
  8
1
  6
CONTINUOUS
 62
     7
 10
-644.1298142821
 20
2319.8356352649
 30
0.0
 40
0.4999999999999449
 50
0.0
 51
90.0
  0
LINE
  5
277
  8
1
  6
CONTINUOUS
 62
     7
 10
-644.1298142821
 20
2361.3356352649
 30
0.0
 11
-646.6298142821
 21
2361.3356352649
 31
0.0
  0
LINE
  5
278
  8
1
  6
CONTINUOUS
 62
     7
 10
-608.6984905950001
 20
2308.3356352649
 30
0.0
 11
-608.6984905950001
 21
2373.3356352649
 31
0.0
  0
LINE
  5
279
  8
1
  6
CONTINUOUS
 62
     7
 10
-643.6298142821
 20
2318.5856352649
 30
0.0
 11
-638.6298142821
 21
2318.5856352649
 31
0.0
  0
LINE
  5
27A
  8
1
  6
CONTINUOUS
 62
     7
 10
-643.6298142821
 20
2318.5856352649
 30
0.0
 11
-643.6298142821
 21
2363.0856352649
 31
0.0
  0
LINE
  5
27B
  8
1
  6
CONTINUOUS
 62
     7
 10
-650.6298142821
 20
2361.3356352649
 30
0.0
 11
-653.6298142821
 21
2361.3356352649
 31
0.0
  0
LINE
  5
27C
  8
1
  6
CONTINUOUS
 62
     7
 10
-550.0094935333
 20
2319.8356352649
 30
0.0
 11
-547.1006355397
 21
2319.8356352649
 31
0.0
  0
LINE
  5
27D
  8
1
  6
CONTINUOUS
 62
     7
 10
-638.6298142821
 20
2319.8356352649
 30
0.0
 11
-637.1006355397
 21
2319.8356352649
 31
0.0
  0
LINE
  5
27E
  8
1
  6
CONTINUOUS
 62
     7
 10
-586.1298142821
 20
2338.8879599891
 30
0.0
 11
-586.1298142821
 21
2338.8813878844
 31
0.0
  0
LINE
  5
27F
  8
1
  6
CONTINUOUS
 62
     7
 10
-604.6298142821
 20
2318.9227835841
 30
0.0
 11
-604.6298142821
 21
2362.7484869457
 31
0.0
  0
LINE
  5
280
  8
1
  6
CONTINUOUS
 62
     7
 10
-604.6298142821
 20
2316.8340325848
 30
0.0
 11
-604.6298142821
 21
2308.3692132318
 31
0.0
  0
LINE
  5
281
  8
1
  6
CONTINUOUS
 62
     7
 10
-604.6298142821
 20
2338.8204334306
 30
0.0
 11
-583.7290845963
 21
2338.8204334306
 31
0.0
  0
LINE
  5
282
  8
1
  6
CONTINUOUS
 62
     7
 10
-583.1298142821
 20
2311.3356352649
 30
0.0
 11
-583.1298142821
 21
2339.5339419062
 31
0.0
  0
ARC
  5
283
  8
1
  6
CONTINUOUS
 62
     7
 10
-586.0261992095
 20
2322.5396023781
 30
0.0
 40
2.90706727409995
 50
267.9574039738
 51
318.5378170201
  0
LINE
  5
284
  8
1
  6
CONTINUOUS
 62
     7
 10
-547.0304499995
 20
2318.5860377596
 30
0.0
 11
-545.2304499995001
 21
2318.5860356959
 31
0.0
  0
LINE
  5
285
  8
1
  6
CONTINUOUS
 62
     7
 10
-586.1298142821
 20
2342.7833105407
 30
0.0
 11
-586.1298142821
 21
2342.7898826454
 31
0.0
  0
LINE
  5
286
  8
1
  6
CONTINUOUS
 62
     7
 10
-586.1298142821
 20
2364.9679825192
 30
0.0
 11
-604.6298142821
 21
2364.9679825192
 31
0.0
  0
LINE
  5
287
  8
1
  6
CONTINUOUS
 62
     7
 10
-637.7301299964001
 20
2363.0856307051
 30
0.0
 11
-638.6298142855001
 21
2363.0856296736
 31
0.0
  0
LINE
  5
288
  8
1
  6
CONTINUOUS
 62
     7
 10
-638.6298142821
 20
2363.0856352649
 30
0.0
 11
-643.6298142821
 21
2363.0856352649
 31
0.0
  0
LINE
  5
289
  8
1
  6
CONTINUOUS
 62
     7
 10
-583.1298142821
 20
2370.3356352649
 30
0.0
 11
-583.1298142821
 21
2342.1373286236
 31
0.0
  0
LINE
  5
28A
  8
1
  6
CONTINUOUS
 62
     7
 10
-604.6298142821
 20
2364.837237945
 30
0.0
 11
-604.6298142821
 21
2373.302057298
 31
0.0
  0
ARC
  5
28B
  8
1
  6
CONTINUOUS
 62
     7
 10
-644.1298142821
 20
2361.8356352649
 30
0.0
 40
0.4999999999999449
 50
270.0
 51
0.0
  0
LINE
  5
28C
  8
1
  6
CONTINUOUS
 62
     7
 10
-586.1298142821
 20
2362.0368882902
 30
0.0
 11
-604.6298142821
 21
2362.0368882902
 31
0.0
  0
LINE
  5
28D
  8
1
  6
CONTINUOUS
 62
     7
 10
-604.6298142821
 20
2342.8508370992
 30
0.0
 11
-583.7290845963
 21
2342.8508370992
 31
0.0
  0
LINE
  5
28E
  8
1
  6
CONTINUOUS
 62
     7
 10
-646.6298142821
 20
2320.3356352649
 30
0.0
 11
-644.1298142821
 21
2320.3356352649
 31
0.0
  0
LINE
  5
28F
  8
1
  6
CONTINUOUS
 62
     7
 10
-638.6298142821
 20
2318.5856352649
 30
0.0
 11
-638.6298142821
 21
2347.0614418524
 31
0.0
  0
ARC
  5
290
  8
1
  6
CONTINUOUS
 62
     7
 10
-585.9281864151001
 20
2362.0853118709
 30
0.0
 40
2.889713430699992
 50
16.7499583865
 51
94.00102654970001
  0
ARC
  5
291
  8
1
  6
CONTINUOUS
 62
     7
 10
-586.1298142821
 20
2370.3356352649
 30
0.0
 40
3.000000000000003
 50
0.0
 51
90.0
  0
ARC
  5
292
  8
1
  6
CONTINUOUS
 62
     7
 10
-586.0261992095
 20
2359.1316681518
 30
0.0
 40
2.90706727409995
 50
41.4621829799
 51
92.0425960262
  0
LINE
  5
293
  8
1
  6
CONTINUOUS
 62
     7
 10
-547.729815277
 20
2363.0852430546
 30
0.0
 11
-549.529815277
 21
2363.0852409909
 31
0.0
  0
LINE
  5
294
  8
1
  6
CONTINUOUS
 62
     7
 10
-555.0094935333
 20
2319.8356352649
 30
0.0
 11
-552.1006355397
 21
2319.8356352649
 31
0.0
  0
LINE
  5
295
  8
1
  6
CONTINUOUS
 62
     7
 10
-552.729815277
 20
2363.0852430546
 30
0.0
 11
-554.529815277
 21
2363.0852409909
 31
0.0
  0
LINE
  5
296
  8
1
  6
CONTINUOUS
 62
     7
 10
-554.7501839505001
 20
2361.8356352649
 30
0.0
 11
-554.529815277
 21
2363.0852409909
 31
0.0
  0
LINE
  5
297
  8
1
  6
CONTINUOUS
 62
     7
 10
-552.729815277
 20
2363.0852430546
 30
0.0
 11
-550.2304500221001
 21
2318.5860356959
 31
0.0
  0
ARC
  5
298
  8
1
  6
CONTINUOUS
 62
     7
 10
-586.1298142821
 20
2311.3356352649
 30
0.0
 40
3.000000000000003
 50
270.0
 51
0.0
  0
LINE
  5
299
  8
1
  6
CONTINUOUS
 62
     7
 10
-586.1298142821
 20
2316.7032880106
 30
0.0
 11
-604.6298142821
 21
2316.7032880106
 31
0.0
  0
LINE
  5
29A
  8
1
  6
CONTINUOUS
 62
     7
 10
-549.7501839505001
 20
2361.8356352649
 30
0.0
 11
-549.529815277
 21
2363.0852409909
 31
0.0
  0
ARC
  5
29B
  8
1
  6
CONTINUOUS
 62
     7
 10
-585.9281864151001
 20
2319.5859586589
 30
0.0
 40
2.889713430699992
 50
265.9989734503
 51
343.2500416135
  0
LINE
  5
29C
  8
1
  6
CONTINUOUS
 62
     7
 10
-547.729815277
 20
2363.0852430546
 30
0.0
 11
-545.2304500221001
 21
2318.5860356959
 31
0.0
  0
LINE
  5
29D
  8
1
  6
CONTINUOUS
 62
     7
 10
-586.1298142821
 20
2319.6343822396
 30
0.0
 11
-604.6298142821
 21
2319.6343822396
 31
0.0
  0
LINE
  5
29E
  8
1
  6
CONTINUOUS
 62
     7
 10
-547.0304499995
 20
2318.5860377596
 30
0.0
 11
-549.529815277
 21
2363.0852409909
 31
0.0
  0
LINE
  5
29F
  8
1
  6
CONTINUOUS
 62
     7
 10
-586.1298142821
 20
2308.3356352649
 30
0.0
 11
-608.6984905950001
 21
2308.3356352649
 31
0.0
  0
LINE
  5
2A0
  8
1
  6
CONTINUOUS
 62
     7
 10
-545.0094949919
 20
2319.8356352649
 30
0.0
 11
-545.2304499995001
 21
2318.5860356959
 31
0.0
  0
LINE
  5
2A1
  8
1
  6
CONTINUOUS
 62
     7
 10
-552.0304499995
 20
2318.5860377596
 30
0.0
 11
-550.2304499995001
 21
2318.5860356959
 31
0.0
  0
LINE
  5
2A2
  8
1
  6
CONTINUOUS
 62
     7
 10
-347.4762799508
 20
2253.7221795494
 30
0.0
 11
-348.2262799508
 21
2254.4721795494
 31
0.0
  0
LINE
  5
2A3
  8
1
  6
CONTINUOUS
 62
     7
 10
-445.0524642821
 20
2201.5559755494
 30
0.0
 11
-441.2983382821
 21
2201.0973975494
 31
0.0
  0
LINE
  5
2A4
  8
1
  6
CONTINUOUS
 62
     7
 10
-351.2262799508
 20
2254.4721795494
 30
0.0
 11
-351.9762799508
 21
2253.7221795494
 31
0.0
  0
LINE
  5
2A5
  8
1
  6
CONTINUOUS
 62
     7
 10
-347.2262799508
 20
2251.1973975494
 30
0.0
 11
-347.2262799508
 21
2251.2221795494
 31
0.0
  0
LINE
  5
2A6
  8
1
  6
CONTINUOUS
 62
     7
 10
-348.2262799508
 20
2254.4721795494
 30
0.0
 11
-348.2262799508
 21
2254.9721795494
 31
0.0
  0
ARC
  5
2A7
  8
1
  6
CONTINUOUS
 62
     7
 10
-347.3168099508
 20
2260.7132795494
 30
0.0
 40
1.0
 50
5.0
 51
80.9590607153
  0
LINE
  5
2A8
  8
1
  6
CONTINUOUS
 62
     7
 10
-337.7262799508
 20
2256.8909585494
 30
0.0
 11
-337.7262799508
 21
2259.5533995494
 31
0.0
  0
LINE
  5
2A9
  8
1
  6
CONTINUOUS
 62
     7
 10
-330.9762799508
 20
2256.2221795494
 30
0.0
 11
-336.4762799508
 21
2256.2221795494
 31
0.0
  0
LINE
  5
2AA
  8
1
  6
CONTINUOUS
 62
     7
 10
-331.2262799508
 20
2251.2221795494
 30
0.0
 11
-336.2262799508
 21
2251.2221795494
 31
0.0
  0
LINE
  5
2AB
  8
1
  6
CONTINUOUS
 62
     7
 10
-337.2262799508
 20
2259.7221795494
 30
0.0
 11
-330.2262799508
 21
2259.7221795494
 31
0.0
  0
LINE
  5
2AC
  8
1
  6
CONTINUOUS
 62
     7
 10
-347.2262799508
 20
2251.2221795494
 30
0.0
 11
-352.2262799508
 21
2251.2221795494
 31
0.0
  0
LINE
  5
2AD
  8
1
  6
CONTINUOUS
 62
     7
 10
-347.0152079508
 20
2253.2221795494
 30
0.0
 11
-347.0152079508
 21
2251.7221795494
 31
0.0
  0
LINE
  5
2AE
  8
1
  6
CONTINUOUS
 62
     7
 10
-445.9184892821
 20
2200.5691505494
 30
0.0
 11
-445.0524642821
 21
2201.5559755494
 31
0.0
  0
LINE
  5
2AF
  8
1
  6
CONTINUOUS
 62
     7
 10
-332.2262799508
 20
2254.4721795494
 30
0.0
 11
-335.2262799508
 21
2254.4721795494
 31
0.0
  0
LINE
  5
2B0
  8
1
  6
CONTINUOUS
 62
     7
 10
-331.4762799508
 20
2253.7221795494
 30
0.0
 11
-331.0152079508
 21
2253.2221795494
 31
0.0
  0
LINE
  5
2B1
  8
1
  6
CONTINUOUS
 62
     7
 10
-347.4762799508
 20
2253.7221795494
 30
0.0
 11
-347.0152079508
 21
2253.2221795494
 31
0.0
  0
LINE
  5
2B2
  8
1
  6
CONTINUOUS
 62
     7
 10
-352.4373519508
 20
2251.7221795494
 30
0.0
 11
-352.2148689508
 21
2251.2221795494
 31
0.0
  0
LINE
  5
2B3
  8
1
  6
CONTINUOUS
 62
     7
 10
-348.2262799508
 20
2254.9721795494
 30
0.0
 11
-346.9762799508
 21
2256.2221795494
 31
0.0
  0
ARC
  5
2B4
  8
1
  6
CONTINUOUS
 62
     7
 10
-349.7262799508
 20
2245.57052039
 30
0.0
 40
16.3332547308
 50
80.9590607153
 51
99.04093928470003
  0
LINE
  5
2B5
  8
1
  6
CONTINUOUS
 62
     7
 10
-332.2262799508
 20
2254.9721795494
 30
0.0
 11
-335.2262799508
 21
2254.9721795494
 31
0.0
  0
LINE
  5
2B6
  8
1
  6
CONTINUOUS
 62
     7
 10
-351.2262799508
 20
2254.9721795494
 30
0.0
 11
-351.2262799508
 21
2254.4721795494
 31
0.0
  0
LINE
  5
2B7
  8
1
  6
CONTINUOUS
 62
     7
 10
-336.4373519508
 20
2253.2221795494
 30
0.0
 11
-335.9762799508
 21
2253.7221795494
 31
0.0
  0
LINE
  5
2B8
  8
1
  6
CONTINUOUS
 62
     7
 10
-331.2376909508
 20
2251.2221795494
 30
0.0
 11
-331.0152079508
 21
2251.7221795494
 31
0.0
  0
ARC
  5
2B9
  8
1
  6
CONTINUOUS
 62
     7
 10
-415.7203442821
 20
2260.7132795494
 30
0.0
 40
1.0
 50
5.0
 51
80.9590607153
  0
LINE
  5
2BA
  8
1
  6
CONTINUOUS
 62
     7
 10
-346.9762799508
 20
2256.2221795494
 30
0.0
 11
-352.4762799508
 21
2256.2221795494
 31
0.0
  0
LINE
  5
2BB
  8
1
  6
CONTINUOUS
 62
     7
 10
-348.2262799508
 20
2254.4721795494
 30
0.0
 11
-351.2262799508
 21
2254.4721795494
 31
0.0
  0
LINE
  5
2BC
  8
1
  6
CONTINUOUS
 62
     7
 10
-347.2376909508
 20
2251.2221795494
 30
0.0
 11
-347.0152079508
 21
2251.7221795494
 31
0.0
  0
LINE
  5
2BD
  8
1
  6
CONTINUOUS
 62
     7
 10
-353.2262799508
 20
2256.7221795494
 30
0.0
 11
-346.2262799508
 21
2256.7221795494
 31
0.0
  0
LINE
  5
2BE
  8
1
  6
CONTINUOUS
 62
     7
 10
-443.0833152821
 20
2221.5797295494
 30
0.0
 11
-441.2983382821
 21
2222.4871665494
 31
0.0
  0
ARC
  5
2BF
  8
1
  6
CONTINUOUS
 62
     7
 10
-353.2262799508
 20
2258.8971795494
 30
0.0
 40
0.825
 50
90.0
 51
127.305183
  0
LINE
  5
2C0
  8
1
  6
CONTINUOUS
 62
     7
 10
-414.6298142821
 20
2259.7221795494
 30
0.0
 11
-414.7241492821
 21
2260.8004355494
 31
0.0
  0
LINE
  5
2C1
  8
1
  6
CONTINUOUS
 62
     7
 10
-352.2262799508
 20
2251.2221795494
 30
0.0
 11
-352.2262799508
 21
2251.1973975494
 31
0.0
  0
LINE
  5
2C2
  8
1
  6
CONTINUOUS
 62
     7
 10
-346.2262799508
 20
2259.7221795494
 30
0.0
 11
-346.3206149508
 21
2260.8004355494
 31
0.0
  0
LINE
  5
2C3
  8
1
  6
CONTINUOUS
 62
     7
 10
-348.2262799508
 20
2254.9721795494
 30
0.0
 11
-351.2262799508
 21
2254.9721795494
 31
0.0
  0
LINE
  5
2C4
  8
1
  6
CONTINUOUS
 62
     7
 10
-353.1319449508
 20
2260.8004355494
 30
0.0
 11
-353.2262799508
 21
2259.7221795494
 31
0.0
  0
LINE
  5
2C5
  8
1
  6
CONTINUOUS
 62
     7
 10
-329.7262799508
 20
2259.5533995494
 30
0.0
 11
-329.7262799508
 21
2256.8909585494
 31
0.0
  0
LINE
  5
2C6
  8
1
  6
CONTINUOUS
 62
     7
 10
-353.7262799508
 20
2256.8909585494
 30
0.0
 11
-353.7262799508
 21
2259.5533995494
 31
0.0
  0
LINE
  5
2C7
  8
1
  6
CONTINUOUS
 62
     7
 10
-346.9762799508
 20
2256.2221795494
 30
0.0
 11
-346.9762799508
 21
2256.7221795494
 31
0.0
  0
LINE
  5
2C8
  8
1
  6
CONTINUOUS
 62
     7
 10
-345.7262799508
 20
2259.5533995494
 30
0.0
 11
-345.7262799508
 21
2256.8909585494
 31
0.0
  0
LINE
  5
2C9
  8
1
  6
CONTINUOUS
 62
     7
 10
-352.4373519508
 20
2253.2221795494
 30
0.0
 11
-351.9762799508
 21
2253.7221795494
 31
0.0
  0
ARC
  5
2CA
  8
1
  6
CONTINUOUS
 62
     7
 10
-346.2262799508
 20
2257.5471795494
 30
0.0
 40
0.825
 50
270.0
 51
307.305183
  0
LINE
  5
2CB
  8
1
  6
CONTINUOUS
 62
     7
 10
-352.4762799508
 20
2256.7221795494
 30
0.0
 11
-352.4762799508
 21
2256.2221795494
 31
0.0
  0
ARC
  5
2CC
  8
1
  6
CONTINUOUS
 62
     7
 10
-352.1357499508
 20
2260.7132795494
 30
0.0
 40
1.0
 50
99.04093928470003
 51
175.0
  0
LINE
  5
2CD
  8
1
  6
CONTINUOUS
 62
     7
 10
-337.2262799508
 20
2256.7221795494
 30
0.0
 11
-330.2262799508
 21
2256.7221795494
 31
0.0
  0
ARC
  5
2CE
  8
1
  6
CONTINUOUS
 62
     7
 10
-353.2262799508
 20
2257.5471795494
 30
0.0
 40
0.825
 50
232.694817
 51
270.0
  0
ARC
  5
2CF
  8
1
  6
CONTINUOUS
 62
     7
 10
-420.5392842821
 20
2260.7132795494
 30
0.0
 40
1.0
 50
99.04093928470003
 51
175.0
  0
LINE
  5
2D0
  8
1
  6
CONTINUOUS
 62
     7
 10
-353.2262799508
 20
2259.7221795494
 30
0.0
 11
-346.2262799508
 21
2259.7221795494
 31
0.0
  0
LINE
  5
2D1
  8
1
  6
CONTINUOUS
 62
     7
 10
-352.4373519508
 20
2251.7221795494
 30
0.0
 11
-352.4373519508
 21
2253.2221795494
 31
0.0
  0
ARC
  5
2D2
  8
1
  6
CONTINUOUS
 62
     7
 10
-346.2262799508
 20
2258.8971795494
 30
0.0
 40
0.825
 50
52.694817
 51
90.0
  0
ARC
  5
2D3
  8
1
  6
CONTINUOUS
 62
     7
 10
-418.1298142821
 20
2245.57052039
 30
0.0
 40
16.3332547308
 50
80.9590607153
 51
99.04093928470003
  0
LINE
  5
2D4
  8
1
  6
CONTINUOUS
 62
     7
 10
-421.5354792821
 20
2260.8004355494
 30
0.0
 11
-421.6298142821
 21
2259.7221795494
 31
0.0
  0
LINE
  5
2D5
  8
1
  6
CONTINUOUS
 62
     7
 10
-352.4762799508
 20
2256.2221795494
 30
0.0
 11
-351.2262799508
 21
2254.9721795494
 31
0.0
  0
ARC
  5
2D6
  8
1
  6
CONTINUOUS
 62
     7
 10
-337.2262799508
 20
2257.5471795494
 30
0.0
 40
0.825
 50
232.694817
 51
270.0
  0
LINE
  5
2D7
  8
1
  6
CONTINUOUS
 62
     7
 10
-332.2262799508
 20
2254.9721795494
 30
0.0
 11
-330.9762799508
 21
2256.2221795494
 31
0.0
  0
LINE
  5
2D8
  8
1
  6
CONTINUOUS
 62
     7
 10
-335.2262799508
 20
2254.9721795494
 30
0.0
 11
-335.2262799508
 21
2254.4721795494
 31
0.0
  0
LINE
  5
2D9
  8
1
  6
CONTINUOUS
 62
     7
 10
-330.9762799508
 20
2256.2221795494
 30
0.0
 11
-330.9762799508
 21
2256.7221795494
 31
0.0
  0
LINE
  5
2DA
  8
1
  6
CONTINUOUS
 62
     7
 10
-332.2262799508
 20
2254.4721795494
 30
0.0
 11
-332.2262799508
 21
2254.9721795494
 31
0.0
  0
LINE
  5
2DB
  8
1
  6
CONTINUOUS
 62
     7
 10
-336.4762799508
 20
2256.2221795494
 30
0.0
 11
-335.2262799508
 21
2254.9721795494
 31
0.0
  0
LINE
  5
2DC
  8
1
  6
CONTINUOUS
 62
     7
 10
-331.2262799508
 20
2251.1973975494
 30
0.0
 11
-331.2262799508
 21
2251.2221795494
 31
0.0
  0
LINE
  5
2DD
  8
1
  6
CONTINUOUS
 62
     7
 10
-336.2262799508
 20
2251.2221795494
 30
0.0
 11
-336.2262799508
 21
2251.1973975494
 31
0.0
  0
LINE
  5
2DE
  8
1
  6
CONTINUOUS
 62
     7
 10
-337.1319449508
 20
2260.8004355494
 30
0.0
 11
-337.2262799508
 21
2259.7221795494
 31
0.0
  0
ARC
  5
2DF
  8
1
  6
CONTINUOUS
 62
     7
 10
-331.3168099508
 20
2260.7132795494
 30
0.0
 40
1.0
 50
5.0
 51
80.9590607153
  0
LINE
  5
2E0
  8
1
  6
CONTINUOUS
 62
     7
 10
-336.4373519508
 20
2251.7221795494
 30
0.0
 11
-336.2148689508
 21
2251.2221795494
 31
0.0
  0
LINE
  5
2E1
  8
1
  6
CONTINUOUS
 62
     7
 10
-331.4762799508
 20
2253.7221795494
 30
0.0
 11
-332.2262799508
 21
2254.4721795494
 31
0.0
  0
LINE
  5
2E2
  8
1
  6
CONTINUOUS
 62
     7
 10
-336.4762799508
 20
2256.7221795494
 30
0.0
 11
-336.4762799508
 21
2256.2221795494
 31
0.0
  0
LINE
  5
2E3
  8
1
  6
CONTINUOUS
 62
     7
 10
-331.0152079508
 20
2253.2221795494
 30
0.0
 11
-331.0152079508
 21
2251.7221795494
 31
0.0
  0
ARC
  5
2E4
  8
1
  6
CONTINUOUS
 62
     7
 10
-330.2262799508
 20
2257.5471795494
 30
0.0
 40
0.825
 50
270.0
 51
307.305183
  0
LINE
  5
2E5
  8
1
  6
CONTINUOUS
 62
     7
 10
-330.2262799508
 20
2259.7221795494
 30
0.0
 11
-330.3206149508
 21
2260.8004355494
 31
0.0
  0
LINE
  5
2E6
  8
1
  6
CONTINUOUS
 62
     7
 10
-336.4373519508
 20
2251.7221795494
 30
0.0
 11
-336.4373519508
 21
2253.2221795494
 31
0.0
  0
ARC
  5
2E7
  8
1
  6
CONTINUOUS
 62
     7
 10
-337.2262799508
 20
2258.8971795494
 30
0.0
 40
0.825
 50
90.0
 51
127.305183
  0
ARC
  5
2E8
  8
1
  6
CONTINUOUS
 62
     7
 10
-330.2262799508
 20
2258.8971795494
 30
0.0
 40
0.825
 50
52.694817
 51
90.0
  0
LINE
  5
2E9
  8
1
  6
CONTINUOUS
 62
     7
 10
-335.2262799508
 20
2254.4721795494
 30
0.0
 11
-335.9762799508
 21
2253.7221795494
 31
0.0
  0
ARC
  5
2EA
  8
1
  6
CONTINUOUS
 62
     7
 10
-336.1357499508
 20
2260.7132795494
 30
0.0
 40
1.0
 50
99.04093928470003
 51
175.0
  0
ARC
  5
2EB
  8
1
  6
CONTINUOUS
 62
     7
 10
-333.7262799508
 20
2245.57052039
 30
0.0
 40
16.3332547308
 50
80.9590607153
 51
99.04093928470003
  0
LINE
  5
2EC
  8
1
  6
CONTINUOUS
 62
     7
 10
-414.1298142821
 20
2334.4805132649
 30
0.0
 11
-414.1298142821
 21
2331.1907572649
 31
0.0
  0
ARC
  5
2ED
  8
1
  6
CONTINUOUS
 62
     7
 10
-416.8298142821
 20
2331.5356352649
 30
0.0
 40
0.8
 50
151.044976
 51
180.0
  0
CIRCLE
  5
2EE
  8
1
  6
CONTINUOUS
 62
     7
 10
-418.1298142821
 20
2332.8356352649
 30
0.0
 40
3.5
  0
ARC
  5
2EF
  8
1
  6
CONTINUOUS
 62
     7
 10
-416.8298042821
 20
2331.5356182649
 30
0.0
 40
0.800017
 50
90.000699
 51
151.044276
  0
ARC
  5
2F0
  8
1
  6
CONTINUOUS
 62
     7
 10
-418.1298142821
 20
2332.8356352649
 30
0.0
 40
4.325
 50
82.353426
 51
97.646574
  0
LINE
  5
2F1
  8
1
  6
CONTINUOUS
 62
     7
 10
-414.7053082821
 20
2330.1939732649
 30
0.0
 11
-417.5543202821
 21
2328.5490942649
 31
0.0
  0
ARC
  5
2F2
  8
1
  6
CONTINUOUS
 62
     7
 10
-419.4298142821
 20
2331.5356352649
 30
0.0
 40
0.8
 50
0.0
 51
28.955024
  0
ARC
  5
2F3
  8
1
  6
CONTINUOUS
 62
     7
 10
-418.1298142821
 20
2332.8356352649
 30
0.0
 40
4.325
 50
322.353426
 51
337.646574
  0
LINE
  5
2F4
  8
1
  6
CONTINUOUS
 62
     7
 10
-418.7053082821
 20
2328.5490942649
 30
0.0
 11
-421.5543202821
 21
2330.1939732649
 31
0.0
  0
LINE
  5
2F5
  8
1
  6
CONTINUOUS
 62
     7
 10
-417.5543202821
 20
2337.1221762649
 30
0.0
 11
-414.7053082821
 21
2335.4772972649
 31
0.0
  0
LINE
  5
2F6
  8
1
  6
CONTINUOUS
 62
     7
 10
-422.1298142821
 20
2331.1907572649
 30
0.0
 11
-422.1298142821
 21
2334.4805132649
 31
0.0
  0
ARC
  5
2F7
  8
1
  6
CONTINUOUS
 62
     7
 10
-418.1298142821
 20
2332.8356352649
 30
0.0
 40
4.325
 50
22.353426
 51
37.646574
  0
ARC
  5
2F8
  8
1
  6
CONTINUOUS
 62
     7
 10
-416.8298032821
 20
2334.1356542649
 30
0.0
 40
0.800019
 50
208.955831
 51
269.999193
  0
LINE
  5
2F9
  8
1
  6
CONTINUOUS
 62
     7
 10
-417.5298142821
 20
2336.1880302649
 30
0.0
 11
-417.5298142821
 21
2333.7483372649
 31
0.0
  0
ARC
  5
2FA
  8
1
  6
CONTINUOUS
 62
     7
 10
-418.1298142821
 20
2332.8356352649
 30
0.0
 40
4.325
 50
142.353426
 51
157.646574
  0
ARC
  5
2FB
  8
1
  6
CONTINUOUS
 62
     7
 10
-419.4298142821
 20
2334.1356352649
 30
0.0
 40
0.8
 50
331.044976
 51
0.0
  0
ARC
  5
2FC
  8
1
  6
CONTINUOUS
 62
     7
 10
-418.1298142821
 20
2332.8356352649
 30
0.0
 40
4.325
 50
262.353426
 51
277.646574
  0
ARC
  5
2FD
  8
1
  6
CONTINUOUS
 62
     7
 10
-418.1298142821
 20
2332.8356352649
 30
0.0
 40
4.325
 50
202.353426
 51
217.646574
  0
ARC
  5
2FE
  8
1
  6
CONTINUOUS
 62
     7
 10
-416.8298142821
 20
2334.1356352649
 30
0.0
 40
0.8
 50
180.0
 51
208.955024
  0
LINE
  5
2FF
  8
1
  6
CONTINUOUS
 62
     7
 10
-421.5543202821
 20
2335.4772972649
 30
0.0
 11
-418.7053082821
 21
2337.1221762649
 31
0.0
  0
LINE
  5
300
  8
1
  6
CONTINUOUS
 62
     7
 10
-517.1298142821
 20
2246.3973975494
 30
0.0
 11
-522.6596291664
 21
2246.3973975494
 31
0.0
  0
LINE
  5
301
  8
1
  6
CONTINUOUS
 62
     7
 10
-520.0094949919
 20
2204.3973975494
 30
0.0
 11
-517.1298142821
 21
2204.3973975494
 31
0.0
  0
LINE
  5
302
  8
1
  6
CONTINUOUS
 62
     7
 10
-517.1298142821
 20
2361.8356352649
 30
0.0
 11
-522.6596291664
 21
2361.8356352649
 31
0.0
  0
LINE
  5
303
  8
1
  6
CONTINUOUS
 62
     7
 10
-520.0094949919
 20
2319.8356352649
 30
0.0
 11
-517.1298142821
 21
2319.8356352649
 31
0.0
  0
LINE
  5
304
  8
1
  6
CONTINUOUS
 62
     7
 10
-660.6298142821001
 20
2362.0856352649
 30
0.0
 11
-664.6298142821001
 21
2362.0856352649
 31
0.0
  0
LINE
  5
305
  8
1
  6
CONTINUOUS
 62
     7
 10
-676.1298142821
 20
2308.3356352649
 30
0.0
 11
-676.1298142821
 21
2373.3202470065
 31
0.0
  0
LINE
  5
306
  8
1
  6
CONTINUOUS
 62
     7
 10
-683.1298142821
 20
2373.3202470065
 30
0.0
 11
-676.1298142821
 21
2373.3202470065
 31
0.0
  0
ARC
  5
307
  8
1
  6
CONTINUOUS
 62
     7
 10
-683.1298142821
 20
2309.3356352649
 30
0.0
 40
1.000000000000001
 50
180.0
 51
270.0
  0
LINE
  5
308
  8
1
  6
CONTINUOUS
 62
     7
 10
-660.6298142821001
 20
2319.5856352649
 30
0.0
 11
-660.6298142821001
 21
2362.0856352649
 31
0.0
  0
LINE
  5
309
  8
1
  6
CONTINUOUS
 62
     7
 10
-684.1298142821
 20
2309.3356352649
 30
0.0
 11
-684.1298142821
 21
2372.3202470065
 31
0.0
  0
LINE
  5
30A
  8
1
  6
CONTINUOUS
 62
     7
 10
-664.6298142821001
 20
2319.5856352649
 30
0.0
 11
-664.6298142821001
 21
2362.0856352649
 31
0.0
  0
LINE
  5
30B
  8
1
  6
CONTINUOUS
 62
     7
 10
-683.1298142821
 20
2308.3356352649
 30
0.0
 11
-676.1298142821
 21
2308.3356352649
 31
0.0
  0
LINE
  5
30C
  8
1
  6
CONTINUOUS
 62
     7
 10
-664.6298142821001
 20
2319.5856352649
 30
0.0
 11
-660.6298142821001
 21
2319.5856352649
 31
0.0
  0
LINE
  5
30D
  8
1
  6
CONTINUOUS
 62
     7
 10
-657.6298142821001
 20
2319.5856352649
 30
0.0
 11
-653.6298142821
 21
2319.5856352649
 31
0.0
  0
LINE
  5
30E
  8
1
  6
CONTINUOUS
 62
     7
 10
-657.6298142821001
 20
2319.5856352649
 30
0.0
 11
-657.6298142821001
 21
2362.0856352649
 31
0.0
  0
LINE
  5
30F
  8
1
  6
CONTINUOUS
 62
     7
 10
-653.6298142821
 20
2320.3356352649
 30
0.0
 11
-650.6298142821
 21
2320.3356352649
 31
0.0
  0
LINE
  5
310
  8
1
  6
CONTINUOUS
 62
     7
 10
-657.6298142821001
 20
2361.3356352649
 30
0.0
 11
-660.6298142821001
 21
2361.3356352649
 31
0.0
  0
LINE
  5
311
  8
1
  6
CONTINUOUS
 62
     7
 10
-667.1406637728002
 20
2320.3356352649
 30
0.0
 11
-664.629814282
 21
2320.3356352649
 31
0.0
  0
LINE
  5
312
  8
1
  6
CONTINUOUS
 62
     7
 10
-676.1298142821
 20
2308.3510235233
 30
0.0
 11
-667.1406637728002
 21
2305.8356352649
 31
0.0
  0
LINE
  5
313
  8
1
  6
CONTINUOUS
 62
     7
 10
-653.6298142821
 20
2319.5856352649
 30
0.0
 11
-653.6298142821
 21
2362.0856352649
 31
0.0
  0
LINE
  5
314
  8
1
  6
CONTINUOUS
 62
     7
 10
-676.1298142821
 20
2373.3202470065
 30
0.0
 11
-667.1406637728002
 21
2375.8356352649
 31
0.0
  0
LINE
  5
315
  8
1
  6
CONTINUOUS
 62
     7
 10
-667.1406637728002
 20
2375.8356352649
 30
0.0
 11
-667.1406637728002
 21
2305.8356352649
 31
0.0
  0
LINE
  5
316
  8
1
  6
CONTINUOUS
 62
     7
 10
-653.6298142821
 20
2362.0856352649
 30
0.0
 11
-657.6298142821001
 21
2362.0856352649
 31
0.0
  0
LINE
  5
317
  8
1
  6
CONTINUOUS
 62
     7
 10
-660.6298142821001
 20
2320.3356352649
 30
0.0
 11
-657.6298142821001
 21
2320.3356352649
 31
0.0
  0
LINE
  5
318
  8
1
  6
CONTINUOUS
 62
     7
 10
-650.6298142821
 20
2319.5856352649
 30
0.0
 11
-650.6298142821
 21
2362.0856352649
 31
0.0
  0
LINE
  5
319
  8
1
  6
CONTINUOUS
 62
     7
 10
-664.629814282
 20
2361.3356352649
 30
0.0
 11
-667.1406637728002
 21
2361.3356352649
 31
0.0
  0
LINE
  5
31A
  8
1
  6
CONTINUOUS
 62
     7
 10
-646.6298142821
 20
2319.5856352649
 30
0.0
 11
-646.6298142821
 21
2362.0856352649
 31
0.0
  0
LINE
  5
31B
  8
1
  6
CONTINUOUS
 62
     7
 10
-650.6298142821
 20
2319.5856352649
 30
0.0
 11
-646.6298142821
 21
2319.5856352649
 31
0.0
  0
LINE
  5
31C
  8
1
  6
CONTINUOUS
 62
     7
 10
-646.6298142821
 20
2362.0856352649
 30
0.0
 11
-650.6298142821
 21
2362.0856352649
 31
0.0
  0
CIRCLE
  5
31D
  8
1
  6
CONTINUOUS
 62
     7
 10
-751.9484979789
 20
2225.3973975494
 30
0.0
 40
17.4941991426
  0
LINE
  5
31E
  8
1
  6
CENTER
 62
     5
 10
-751.9484979789
 20
2188.3973975494
 30
0.0
 11
-751.9484979789
 21
2262.3973975494
 31
0.0
  0
CIRCLE
  5
31F
  8
1
  6
CONTINUOUS
 62
     7
 10
-751.9484979789
 20
2225.3973975494
 30
0.0
 40
35.0
  0
CIRCLE
  5
320
  8
1
  6
CONTINUOUS
 62
     7
 10
-751.9484979789
 20
2225.3973975494
 30
0.0
 40
32.5
  0
LINE
  5
321
  8
1
  6
CONTINUOUS
 62
     7
 10
-422.9659582821
 20
2332.9895342649
 30
0.0
 11
-422.6411639287
 21
2337.2011342376
 31
0.0
  0
ARC
  5
322
  8
1
  6
CONTINUOUS
 62
     7
 10
-420.3426372821
 20
2332.5218452649
 30
0.0
 40
7.007575
 50
342.06393
 51
3.762399000000016
  0
LINE
  5
323
  8
1
  6
CONTINUOUS
 62
     7
 10
-410.1298142821
 20
2317.5356352649
 30
0.0
 11
-410.1298142821
 21
2364.1356352649
 31
0.0
  0
LINE
  5
324
  8
1
  6
CONTINUOUS
 62
     7
 10
-445.6298142821
 20
2366.1356352649
 30
0.0
 11
-448.1298142821
 21
2366.1356352649
 31
0.0
  0
LINE
  5
325
  8
1
  6
CONTINUOUS
 62
     7
 10
-448.1298142821
 20
2315.8356352649
 30
0.0
 11
-517.1298142821
 21
2315.8356352649
 31
0.0
  0
ARC
  5
326
  8
1
  6
CONTINUOUS
 62
     7
 10
-418.1096842821
 20
2332.4236232649
 30
0.0
 40
4.889136
 50
173.35319
 51
335.083221
  0
LINE
  5
327
  8
1
  6
CONTINUOUS
 62
     7
 10
-471.1298142821
 20
2330.4802962056
 30
0.0
 11
-448.1298142821
 21
2330.4802962056
 31
0.0
  0
LINE
  5
328
  8
1
  6
CONTINUOUS
 62
     7
 10
-413.6756252821
 20
2339.2514542649
 30
0.0
 11
-413.6756252821
 21
2342.4198162649
 31
0.0
  0
LINE
  5
329
  8
1
  6
CONTINUOUS
 62
     7
 10
-448.1298142821
 20
2315.5356352649
 30
0.0
 11
-448.1298142821
 21
2366.1356352649
 31
0.0
  0
LINE
  5
32A
  8
1
  6
CONTINUOUS
 62
     7
 10
-429.2467202821
 20
2315.0771922649
 30
0.0
 11
-413.6756252821
 21
2315.8099502649
 31
0.0
  0
LINE
  5
32B
  8
1
  6
CONTINUOUS
 62
     7
 10
-517.1298142821
 20
2315.8356352649
 30
0.0
 11
-517.1298142821
 21
2365.8356352649
 31
0.0
  0
LINE
  5
32C
  8
1
  6
CONTINUOUS
 62
     7
 10
-413.6756252821
 20
2365.8613202649
 30
0.0
 11
-429.2467202821
 21
2366.5940782649
 31
0.0
  0
ARC
  5
32D
  8
1
  6
CONTINUOUS
 62
     7
 10
-429.3407332821
 20
2317.0749822649
 30
0.0
 40
2.0
 50
225.0
 51
272.694284
  0
LINE
  5
32E
  8
1
  6
CONTINUOUS
 62
     7
 10
-517.1298142821
 20
2365.8356352649
 30
0.0
 11
-448.1298142821
 21
2365.8356352649
 31
0.0
  0
LINE
  5
32F
  8
1
  6
CONTINUOUS
 62
     7
 10
-471.1298142821
 20
2365.8356352649
 30
0.0
 11
-471.1298142821
 21
2315.8356352649
 31
0.0
  0
LINE
  5
330
  8
1
  6
CONTINUOUS
 62
     7
 10
-430.7549472821
 20
2366.0105022649
 30
0.0
 11
-431.6298142821
 21
2365.1356352649
 31
0.0
  0
LINE
  5
331
  8
1
  6
CONTINUOUS
 62
     7
 10
-431.6298142821
 20
2316.5356352649
 30
0.0
 11
-430.7549472821
 21
2315.6607682649
 31
0.0
  0
ARC
  5
332
  8
1
  6
CONTINUOUS
 62
     7
 10
-429.3407332821
 20
2364.5962882649
 30
0.0
 40
2.0
 50
87.305716
 51
135.0
  0
ARC
  5
333
  8
1
  6
CONTINUOUS
 62
     7
 10
-413.7226322821
 20
2364.8624262649
 30
0.0
 40
1.0
 50
30.0
 51
87.305716
  0
LINE
  5
334
  8
1
  6
CONTINUOUS
 62
     7
 10
-431.6298142821
 20
2316.5356352649
 30
0.0
 11
-431.6298142821
 21
2365.1356352649
 31
0.0
  0
ARC
  5
335
  8
1
  6
CONTINUOUS
 62
     7
 10
-413.7226322821
 20
2316.8088442649
 30
0.0
 40
1.0
 50
272.694284
 51
330.0
  0
LINE
  5
336
  8
1
  6
CONTINUOUS
 62
     7
 10
-412.8566062821
 20
2316.3088442649
 30
0.0
 11
-412.5159842821
 21
2316.8988202649
 31
0.0
  0
ARC
  5
337
  8
1
  6
CONTINUOUS
 62
     7
 10
-433.3007552821
 20
2340.8356352649
 30
0.0
 40
11.334192
 50
341.2662200000001
 51
18.73378000000002
  0
LINE
  5
338
  8
1
  6
CONTINUOUS
 62
     7
 10
-471.1298142821
 20
2351.1909743242
 30
0.0
 11
-448.1298142821
 21
2351.1909743242
 31
0.0
  0
LINE
  5
339
  8
1
  6
CONTINUOUS
 62
     7
 10
-413.6562122011
 20
2339.25240122
 30
0.0
 11
-413.3501652821
 21
2332.9816752649
 31
0.0
  0
LINE
  5
33A
  8
1
  6
CONTINUOUS
 62
     7
 10
-615.0094949919
 20
2204.3973975494
 30
0.0
 11
-615.2304499995
 21
2203.1477979804
 31
0.0
  0
LINE
  5
33B
  8
1
  6
CONTINUOUS
 62
     7
 10
-620.0094935333
 20
2204.3973975494
 30
0.0
 11
-617.1006355397
 21
2204.3973975494
 31
0.0
  0
LINE
  5
33C
  8
1
  6
CONTINUOUS
 62
     7
 10
-619.7501839505
 20
2246.3973975494
 30
0.0
 11
-622.6596291664
 21
2246.3973975494
 31
0.0
  0
LINE
  5
33D
  8
1
  6
CONTINUOUS
 62
     7
 10
-619.7501839505
 20
2246.3973975494
 30
0.0
 11
-619.529815277
 21
2247.6470032754
 31
0.0
  0
LINE
  5
33E
  8
1
  6
CONTINUOUS
 62
     7
 10
-635.0094949919
 20
2204.3973975494
 30
0.0
 11
-635.2304499995
 21
2203.1477979804
 31
0.0
  0
LINE
  5
33F
  8
1
  6
CONTINUOUS
 62
     7
 10
-614.7501839505
 20
2246.3973975494
 30
0.0
 11
-614.529815277
 21
2247.6470032754
 31
0.0
  0
LINE
  5
340
  8
1
  6
CONTINUOUS
 62
     7
 10
-614.7501839505
 20
2246.3973975494
 30
0.0
 11
-617.6596291664
 21
2246.3973975494
 31
0.0
  0
LINE
  5
341
  8
1
  6
CONTINUOUS
 62
     7
 10
-622.729815277
 20
2247.6470053391
 30
0.0
 11
-624.529815277
 21
2247.6470032754
 31
0.0
  0
LINE
  5
342
  8
1
  6
CONTINUOUS
 62
     7
 10
-637.7298373061
 20
2247.6473975494
 30
0.0
 11
-635.2304500221
 21
2203.1477979804
 31
0.0
  0
LINE
  5
343
  8
1
  6
CONTINUOUS
 62
     7
 10
-608.6984905950001
 20
2246.3973975494
 30
0.0
 11
-612.6596291664
 21
2246.3973975494
 31
0.0
  0
LINE
  5
344
  8
1
  6
CONTINUOUS
 62
     7
 10
-622.0304499995
 20
2203.1478000441
 30
0.0
 11
-620.2304499995
 21
2203.1477979804
 31
0.0
  0
LINE
  5
345
  8
1
  6
CONTINUOUS
 62
     7
 10
-624.7501839505
 20
2246.3973975494
 30
0.0
 11
-624.529815277
 21
2247.6470032754
 31
0.0
  0
LINE
  5
346
  8
1
  6
CONTINUOUS
 62
     7
 10
-637.0304499995
 20
2203.1478000441
 30
0.0
 11
-635.2304499995
 21
2203.1477979804
 31
0.0
  0
LINE
  5
347
  8
1
  6
CONTINUOUS
 62
     7
 10
-615.0094935333
 20
2204.3973975494
 30
0.0
 11
-612.1006355397
 21
2204.3973975494
 31
0.0
  0
LINE
  5
348
  8
1
  6
CONTINUOUS
 62
     7
 10
-583.1298142821
 20
2204.3973975493
 30
0.0
 11
-582.1006355397001
 21
2204.3973975494
 31
0.0
  0
LINE
  5
349
  8
1
  6
CONTINUOUS
 62
     7
 10
-580.0094935333
 20
2204.3973975494
 30
0.0
 11
-577.1006355397001
 21
2204.3973975494
 31
0.0
  0
LINE
  5
34A
  8
1
  6
CONTINUOUS
 62
     7
 10
-612.729815277
 20
2247.6470053391
 30
0.0
 11
-614.529815277
 21
2247.6470032754
 31
0.0
  0
LINE
  5
34B
  8
1
  6
CONTINUOUS
 62
     7
 10
-612.729815277
 20
2247.6470053391
 30
0.0
 11
-610.2304500221
 21
2203.1477979804
 31
0.0
  0
LINE
  5
34C
  8
1
  6
CONTINUOUS
 62
     7
 10
-612.0304499995
 20
2203.1478000441
 30
0.0
 11
-610.2304499995
 21
2203.1477979804
 31
0.0
  0
LINE
  5
34D
  8
1
  6
CONTINUOUS
 62
     7
 10
-617.0304499995
 20
2203.1478000441
 30
0.0
 11
-615.2304499995
 21
2203.1477979804
 31
0.0
  0
LINE
  5
34E
  8
1
  6
CONTINUOUS
 62
     7
 10
-617.729815277
 20
2247.6470053391
 30
0.0
 11
-615.2304500221
 21
2203.1477979804
 31
0.0
  0
LINE
  5
34F
  8
1
  6
CONTINUOUS
 62
     7
 10
-582.729815277
 20
2247.6470053391
 30
0.0
 11
-583.1298142821
 21
2247.6470048805
 31
0.0
  0
LINE
  5
350
  8
1
  6
CONTINUOUS
 62
     7
 10
-582.0304499995
 20
2203.1478000441
 30
0.0
 11
-583.1298142821
 21
2222.7211033452
 31
0.0
  0
LINE
  5
351
  8
1
  6
CONTINUOUS
 62
     7
 10
-582.729815277
 20
2247.6470053391
 30
0.0
 11
-580.2304500221
 21
2203.1477979804
 31
0.0
  0
LINE
  5
352
  8
1
  6
CONTINUOUS
 62
     7
 10
-610.0094935333
 20
2204.3973975494
 30
0.0
 11
-608.6984905950001
 21
2204.3973975493
 31
0.0
  0
LINE
  5
353
  8
1
  6
CONTINUOUS
 62
     7
 10
-634.7501839505
 20
2246.3973975494
 30
0.0
 11
-637.6596291664
 21
2246.3973975494
 31
0.0
  0
LINE
  5
354
  8
1
  6
CONTINUOUS
 62
     7
 10
-580.0094949919002
 20
2204.3973975494
 30
0.0
 11
-580.2304499995
 21
2203.1477979804
 31
0.0
  0
LINE
  5
355
  8
1
  6
CONTINUOUS
 62
     7
 10
-637.0304499995
 20
2203.1478000441
 30
0.0
 11
-638.6298142821
 21
2231.6232041369
 31
0.0
  0
LINE
  5
356
  8
1
  6
CONTINUOUS
 62
     7
 10
-610.0094949919
 20
2204.3973975494
 30
0.0
 11
-610.2304499995
 21
2203.1477979804
 31
0.0
  0
LINE
  5
357
  8
1
  6
CONTINUOUS
 62
     7
 10
-617.729815277
 20
2247.6470053391
 30
0.0
 11
-619.529815277
 21
2247.6470032754
 31
0.0
  0
LINE
  5
358
  8
1
  6
CONTINUOUS
 62
     7
 10
-617.0304499995
 20
2203.1478000441
 30
0.0
 11
-619.529815277
 21
2247.6470032754
 31
0.0
  0
LINE
  5
359
  8
1
  6
CONTINUOUS
 62
     7
 10
-612.0304499995
 20
2203.1478000441
 30
0.0
 11
-614.529815277
 21
2247.6470032754
 31
0.0
  0
LINE
  5
35A
  8
1
  6
CONTINUOUS
 62
     7
 10
-620.0094949919
 20
2204.3973975494
 30
0.0
 11
-620.2304499995
 21
2203.1477979804
 31
0.0
  0
ARC
  5
35B
  8
1
  6
CONTINUOUS
 62
     7
 10
-583.6298142821
 20
2226.9125993837
 30
0.0
 40
0.4999999999999449
 50
0.0
 51
90.0
  0
LINE
  5
35C
  8
1
  6
CONTINUOUS
 62
     7
 10
-632.729815277
 20
2247.6470053391
 30
0.0
 11
-634.529815277
 21
2247.6470032754
 31
0.0
  0
LINE
  5
35D
  8
1
  6
CONTINUOUS
 62
     7
 10
-627.729815277
 20
2247.6470053391
 30
0.0
 11
-625.2304500221
 21
2203.1477979804
 31
0.0
  0
LINE
  5
35E
  8
1
  6
CONTINUOUS
 62
     7
 10
-627.729815277
 20
2247.6470053391
 30
0.0
 11
-629.529815277
 21
2247.6470032754
 31
0.0
  0
LINE
  5
35F
  8
1
  6
CONTINUOUS
 62
     7
 10
-629.7501839505
 20
2246.3973975494
 30
0.0
 11
-629.529815277
 21
2247.6470032754
 31
0.0
  0
LINE
  5
360
  8
1
  6
CONTINUOUS
 62
     7
 10
-632.0304499995
 20
2203.1478000441
 30
0.0
 11
-634.529815277
 21
2247.6470032754
 31
0.0
  0
LINE
  5
361
  8
1
  6
CONTINUOUS
 62
     7
 10
-669.1442758180001
 20
2204.1473975494
 30
0.0
 11
-667.6298142821001
 21
2204.1473975494
 31
0.0
  0
ARC
  5
362
  8
1
  6
CONTINUOUS
 62
     7
 10
-683.1298142821
 20
2372.3202470065
 30
0.0
 40
1.000000000000001
 50
90.0
 51
180.0
  0
LINE
  5
363
  8
1
  6
CONTINUOUS
 62
     7
 10
-622.0304499995
 20
2203.1478000441
 30
0.0
 11
-624.529815277
 21
2247.6470032754
 31
0.0
  0
LINE
  5
364
  8
1
  6
CONTINUOUS
 62
     7
 10
-630.0094935333001
 20
2204.3973975494
 30
0.0
 11
-627.1006355397
 21
2204.3973975494
 31
0.0
  0
LINE
  5
365
  8
1
  6
CONTINUOUS
 62
     7
 10
-634.7501839505
 20
2246.3973975494
 30
0.0
 11
-634.529815277
 21
2247.6470032754
 31
0.0
  0
LINE
  5
366
  8
1
  6
CONTINUOUS
 62
     7
 10
-624.7501839505
 20
2246.3973975494
 30
0.0
 11
-627.6596291664
 21
2246.3973975494
 31
0.0
  0
LINE
  5
367
  8
1
  6
CONTINUOUS
 62
     7
 10
-627.0304499995
 20
2203.1478000441
 30
0.0
 11
-625.2304499995
 21
2203.1477979804
 31
0.0
  0
LINE
  5
368
  8
1
  6
CONTINUOUS
 62
     7
 10
-635.0094935333001
 20
2204.3973975494
 30
0.0
 11
-632.1006355397
 21
2204.3973975494
 31
0.0
  0
ARC
  5
369
  8
1
  6
CONTINUOUS
 62
     7
 10
-586.1298142821
 20
2204.2650502951
 30
0.0
 40
3.000000000000003
 50
270.0
 51
0.0
  0
ARC
  5
36A
  8
1
  6
CONTINUOUS
 62
     7
 10
-586.1298142821
 20
2207.1961445241
 30
0.0
 40
3.000000000000003
 50
270.0
 51
0.0
  0
LINE
  5
36B
  8
1
  6
CONTINUOUS
 62
     7
 10
-627.0304499995
 20
2203.1478000441
 30
0.0
 11
-629.529815277
 21
2247.6470032754
 31
0.0
  0
LINE
  5
36C
  8
1
  6
CONTINUOUS
 62
     7
 10
-629.7501839505
 20
2246.3973975494
 30
0.0
 11
-632.6596291664
 21
2246.3973975494
 31
0.0
  0
ARC
  5
36D
  8
1
  6
CONTINUOUS
 62
     7
 10
-583.6298142821
 20
2223.8821957151
 30
0.0
 40
0.4999999999999449
 50
270.0
 51
0.0
  0
LINE
  5
36E
  8
1
  6
CONTINUOUS
 62
     7
 10
-667.1406637728002
 20
2260.3973975494
 30
0.0
 11
-669.6094406144001
 21
2191.0882228141
 31
0.0
  0
LINE
  5
36F
  8
1
  6
CONTINUOUS
 62
     7
 10
-622.729815277
 20
2247.6470053391
 30
0.0
 11
-620.2304500221
 21
2203.1477979804
 31
0.0
  0
LINE
  5
370
  8
1
  6
CONTINUOUS
 62
     7
 10
-667.6298142821001
 20
2204.8973975494
 30
0.0
 11
-664.6298142821001
 21
2204.8973975494
 31
0.0
  0
LINE
  5
371
  8
1
  6
CONTINUOUS
 62
     7
 10
-579.5298152770001
 20
2247.6470032754
 30
0.0
 11
-579.7501839505
 21
2246.3973975494
 31
0.0
  0
LINE
  5
372
  8
1
  6
CONTINUOUS
 62
     7
 10
-625.0094949919
 20
2204.3973975494
 30
0.0
 11
-625.2304499995
 21
2203.1477979804
 31
0.0
  0
LINE
  5
373
  8
1
  6
CONTINUOUS
 62
     7
 10
-667.6298142821001
 20
2204.1473975494
 30
0.0
 11
-667.6298142821001
 21
2246.6648407826
 31
0.0
  0
LINE
  5
374
  8
1
  6
CONTINUOUS
 62
     7
 10
-632.0304499995
 20
2203.1478000441
 30
0.0
 11
-630.2304499995
 21
2203.1477979804
 31
0.0
  0
LINE
  5
375
  8
1
  6
CONTINUOUS
 62
     7
 10
-625.0094935333
 20
2204.3973975494
 30
0.0
 11
-622.1006355397
 21
2204.3973975494
 31
0.0
  0
LINE
  5
376
  8
1
  6
CONTINUOUS
 62
     7
 10
-632.729815277
 20
2247.6470053391
 30
0.0
 11
-630.2304500221
 21
2203.1477979804
 31
0.0
  0
LINE
  5
377
  8
1
  6
CONTINUOUS
 62
     7
 10
-664.6298142821001
 20
2245.8973975494
 30
0.0
 11
-667.6298142821001
 21
2245.8973975494
 31
0.0
  0
LINE
  5
378
  8
1
  6
CONTINUOUS
 62
     7
 10
-630.0094949919
 20
2204.3973975494
 30
0.0
 11
-630.2304499995
 21
2203.1477979804
 31
0.0
  0
ARC
  5
379
  8
1
  6
CONTINUOUS
 62
     7
 10
-683.1298142821
 20
2256.882009291
 30
0.0
 40
1.000000000000001
 50
90.0
 51
180.0
  0
LINE
  5
37A
  8
1
  6
CENTER
 62
     5
 10
-405.4157525334
 20
2225.3973975494
 30
0.0
 11
-695.0
 21
2225.3973975494
 31
0.0
  0
ARC
  5
37B
  8
1
  6
CONTINUOUS
 62
     7
 10
-583.7290845963
 20
2342.3508370992
 30
0.0
 40
0.4999999999999449
 50
38.4715203446
 51
90.0
  0
ARC
  5
37C
  8
1
  6
CONTINUOUS
 62
     7
 10
-583.7290845963
 20
2339.3204334306
 30
0.0
 40
0.4999999999999449
 50
270.0
 51
321.5284796554
  0
LINE
  5
37D
  8
1
  6
CENTER
 62
     5
 10
-405.4157525334
 20
2340.8356352649
 30
0.0
 11
-695.0
 21
2340.8356352649
 31
0.0
  0
ENDSEC
  0
EOF
