  0
SECTION
  2
HEADER
  9
$ACADVER
  1
AC1006
  9
$DWGCODEPAGE
  3
ansi_932
  9
$INSBASE
 10
0.0
 20
0.0
 30
0.0
  9
$EXTMIN
 10
-794.229669324
 20
0.0
  9
$EXTMAX
 10
6.956136363636363
 20
2134.2126673659
  9
$LIMMIN
 10
0.0
 20
0.0
  9
$LIMMAX
 10
12.0
 20
9.0
  9
$ORTHOMODE
 70
     0
  9
$REGENMODE
 70
     1
  9
$FILLMODE
 70
     1
  9
$QTEXTMODE
 70
     0
  9
$MIRRTEXT
 70
     1
  9
$DRAGMODE
 70
     2
  9
$LTSCALE
 40
1.0
  9
$OSMODE
 70
    37
  9
$ATTMODE
 70
     1
  9
$TEXTSIZE
 40
0.2
  9
$TRACEWID
 40
0.05
  9
$TEXTSTYLE
  7
STANDARD
  9
$CLAYER
  8
0
  9
$CELTYPE
  6
BYLAYER
  9
$CECOLOR
 62
   256
  9
$DIMSCALE
 40
1.0
  9
$DIMASZ
 40
3.0
  9
$DIMEXO
 40
0.0625
  9
$DIMDLI
 40
0.38
  9
$DIMRND
 40
0.0
  9
$DIMDLE
 40
0.0
  9
$DIMEXE
 40
1.5
  9
$DIMTP
 40
0.0
  9
$DIMTM
 40
0.0
  9
$DIMTXT
 40
3.5
  9
$DIMCEN
 40
0.09
  9
$DIMTSZ
 40
0.0
  9
$DIMTOL
 70
     0
  9
$DIMLIM
 70
     0
  9
$DIMTIH
 70
     1
  9
$DIMTOH
 70
     1
  9
$DIMSE1
 70
     0
  9
$DIMSE2
 70
     0
  9
$DIMTAD
 70
     1
  9
$DIMZIN
 70
     0
  9
$DIMBLK
  1

  9
$DIMASO
 70
     1
  9
$DIMSHO
 70
     1
  9
$DIMPOST
  1

  9
$DIMAPOST
  1

  9
$DIMALT
 70
     0
  9
$DIMALTD
 70
     2
  9
$DIMALTF
 40
25.4
  9
$DIMLFAC
 40
1.0
  9
$DIMTOFL
 70
     0
  9
$DIMTVP
 40
0.0
  9
$DIMTIX
 70
     0
  9
$DIMSOXD
 70
     0
  9
$DIMSAH
 70
     0
  9
$DIMBLK1
  1

  9
$DIMBLK2
  1

  9
$LUNITS
 70
     2
  9
$LUPREC
 70
     4
  9
$SKETCHINC
 40
0.1
  9
$FILLETRAD
 40
0.5
  9
$AUNITS
 70
     0
  9
$AUPREC
 70
     0
  9
$MENU
  1
.
  9
$ELEVATION
 40
0.0
  9
$THICKNESS
 40
0.0
  9
$LIMCHECK
 70
     0
  9
$CHAMFERA
 40
0.0
  9
$CHAMFERB
 40
0.0
  9
$SKPOLY
 70
     0
  9
$TDCREATE
 40
2460497.480783588
  9
$TDUPDATE
 40
2460497.480784016
  9
$TDINDWG
 40
0.0000000116
  9
$TDUSRTIMER
 40
0.0000000116
  9
$USRTIMER
 70
     1
  9
$ANGBASE
 50
0.0
  9
$ANGDIR
 70
     0
  9
$PDMODE
 70
     0
  9
$PDSIZE
 40
0.0
  9
$PLINEWID
 40
0.0
  9
$COORDS
 70
     1
  9
$SPLFRAME
 70
     0
  9
$SPLINETYPE
 70
     6
  9
$SPLINESEGS
 70
     8
  9
$ATTDIA
 70
     0
  9
$ATTREQ
 70
     1
  9
$HANDLING
 70
     1
  9
$HANDSEED
  5
35A
  9
$SURFTAB1
 70
     6
  9
$SURFTAB2
 70
     6
  9
$SURFTYPE
 70
     6
  9
$SURFU
 70
     6
  9
$SURFV
 70
     6
  9
$UCSNAME
  2

  9
$UCSORG
 10
0.0
 20
0.0
 30
0.0
  9
$UCSXDIR
 10
1.0
 20
0.0
 30
0.0
  9
$UCSYDIR
 10
0.0
 20
1.0
 30
0.0
  9
$USERI1
 70
     0
  9
$USERI2
 70
     0
  9
$USERI3
 70
     0
  9
$USERI4
 70
     0
  9
$USERI5
 70
     0
  9
$USERR1
 40
0.0
  9
$USERR2
 40
0.0
  9
$USERR3
 40
0.0
  9
$USERR4
 40
0.0
  9
$USERR5
 40
0.0
  9
$WORLDVIEW
 70
     1
  0
ENDSEC
  0
SECTION
  2
TABLES
  0
TABLE
  2
VPORT
 70
     1
  0
VPORT
  2
*ACTIVE
 70
     0
 10
0.0
 20
0.0
 11
1.0
 21
1.0
 12
-393.6367664801818
 22
1067.10633368295
 13
0.0
 23
0.0
 14
0.5
 24
0.5
 15
0.5
 25
0.5
 16
0.0
 26
0.0
 36
1.0
 17
0.0
 27
0.0
 37
0.0
 40
2134.2126673659
 41
1.6
 42
50.0
 43
0.0
 44
0.0
 50
0.0
 51
0.0
 71
     0
 72
   100
 73
     1
 74
     3
 75
     0
 76
     0
 77
     0
 78
     0
  0
ENDTAB
  0
TABLE
  2
LTYPE
 70
     2
  0
LTYPE
  2
CONTINUOUS
 70
     0
  3
Solid line
 72
    65
 73
     0
 40
0.0
  0
LTYPE
  2
CENTER
 70
     0
  3

 72
    65
 73
     0
 40
0.0
  0
ENDTAB
  0
TABLE
  2
LAYER
 70
     2
  0
LAYER
  2
0
 70
     0
 62
     7
  6
CONTINUOUS
  0
LAYER
  2
1
 70
     0
 62
     7
  6
CONTINUOUS
  0
ENDTAB
  0
TABLE
  2
STYLE
 70
     2
  0
STYLE
  2
STANDARD
 70
     0
 40
0.0
 41
1.0
 50
0.0
 71
     0
 42
0.2
  3
txt
  4

  0
STYLE
  2
ＭＳ_ゴシック
 70
     0
 40
0.0
 41
1.0
 50
0.0
 71
     0
 42
0.2
  3
ＭＳ ゴシック.shx
  4

  0
ENDTAB
  0
TABLE
  2
VIEW
 70
     0
  0
ENDTAB
  0
TABLE
  2
UCS
 70
     0
  0
ENDTAB
  0
ENDSEC
  0
SECTION
  2
BLOCKS
  0
BLOCK
  8
0
  2
D_FRAME_DRAWING_21
 70
     0
 10
0.0
 20
0.0
 30
0.0
  0
LINE
  5
109
  8
0
  6
CONTINUOUS
 62
     7
 10
0.0
 20
0.0
 30
0.0
 11
420.0
 21
0.0
 31
0.0
  0
LINE
  5
10A
  8
0
  6
CONTINUOUS
 62
     7
 10
420.0
 20
0.0
 30
0.0
 11
420.0
 21
297.0
 31
0.0
  0
LINE
  5
10B
  8
0
  6
CONTINUOUS
 62
     7
 10
420.0
 20
297.0
 30
0.0
 11
0.0
 21
297.0
 31
0.0
  0
LINE
  5
10C
  8
0
  6
CONTINUOUS
 62
     7
 10
0.0
 20
297.0
 30
0.0
 11
0.0
 21
0.0
 31
0.0
  0
LINE
  5
10D
  8
0
  6
CONTINUOUS
 62
     7
 10
10.0
 20
10.0
 30
0.0
 11
409.9999999999999
 21
10.0
 31
0.0
  0
LINE
  5
10E
  8
0
  6
CONTINUOUS
 62
     7
 10
409.9999999999999
 20
10.0
 30
0.0
 11
409.9999999999999
 21
286.9999999999999
 31
0.0
  0
LINE
  5
10F
  8
0
  6
CONTINUOUS
 62
     7
 10
409.9999999999999
 20
286.9999999999999
 30
0.0
 11
10.00000000000006
 21
286.9999999999999
 31
0.0
  0
LINE
  5
110
  8
0
  6
CONTINUOUS
 62
     7
 10
10.0
 20
286.9999999999999
 30
0.0
 11
10.0
 21
10.00000000000001
 31
0.0
  0
LINE
  5
111
  8
0
  6
CONTINUOUS
 62
     7
 10
210.0
 20
0.0
 30
0.0
 11
210.0
 21
10.0
 31
0.0
  0
LINE
  5
112
  8
0
  6
CONTINUOUS
 62
     7
 10
420.0
 20
148.5
 30
0.0
 11
409.9999999999999
 21
148.5
 31
0.0
  0
LINE
  5
113
  8
0
  6
CONTINUOUS
 62
     7
 10
210.0
 20
297.0
 30
0.0
 11
210.0
 21
286.9999999999999
 31
0.0
  0
LINE
  5
114
  8
0
  6
CONTINUOUS
 62
     7
 10
0.0
 20
148.5
 30
0.0
 11
10.0
 21
148.5
 31
0.0
  0
POLYLINE
  5
115
  8
0
  6
CONTINUOUS
 62
     7
 66
     1
 10
0.0
 20
0.0
 30
0.0
 70
     1
  0
VERTEX
  5
32B
  8
0
  6
CONTINUOUS
 62
     7
 10
11.0
 20
152.5
 30
0.0
  0
VERTEX
  5
32C
  8
0
  6
CONTINUOUS
 62
     7
 10
0.0
 20
148.5
 30
0.0
  0
VERTEX
  5
32D
  8
0
  6
CONTINUOUS
 62
     7
 10
11.0
 20
144.5
 30
0.0
  0
VERTEX
  5
32E
  8
0
  6
CONTINUOUS
 62
     7
 10
11.0
 20
152.5
 30
0.0
  0
SEQEND
  5
358
  8
0
  6
CONTINUOUS
 62
     7
  0
INSERT
  5
116
  8
0
 62
     7
  2
*U2
 10
0.0
 20
0.0
 30
0.0
  0
POLYLINE
  5
117
  8
0
  6
CONTINUOUS
 62
     7
 66
     1
 10
0.0
 20
0.0
 30
0.0
 70
     1
  0
VERTEX
  5
331
  8
0
  6
CONTINUOUS
 62
     7
 10
206.0
 20
11.0
 30
0.0
  0
VERTEX
  5
332
  8
0
  6
CONTINUOUS
 62
     7
 10
210.0
 20
0.0
 30
0.0
  0
VERTEX
  5
333
  8
0
  6
CONTINUOUS
 62
     7
 10
214.0
 20
11.0
 30
0.0
  0
VERTEX
  5
334
  8
0
  6
CONTINUOUS
 62
     7
 10
206.0
 20
11.0
 30
0.0
  0
SEQEND
  5
359
  8
0
  6
CONTINUOUS
 62
     7
  0
INSERT
  5
118
  8
0
 62
     7
  2
*U3
 10
0.0
 20
0.0
 30
0.0
  0
LINE
  5
119
  8
0
  6
CONTINUOUS
 62
     7
 10
367.5
 20
286.9999999999999
 30
0.0
 11
367.5
 21
292.0
 31
0.0
  0
TEXT
  5
11A
  8
0
  6
CONTINUOUS
 62
     7
 10
391.6340909090909
 20
291.8324293485057
 30
0.0
 40
3.5
  1
A
 50
270.0
  0
LINE
  5
11B
  8
0
  6
CONTINUOUS
 62
     7
 10
367.5
 20
10.0
 30
0.0
 11
367.5
 21
5.0
 31
0.0
  0
TEXT
  5
11C
  8
0
  6
CONTINUOUS
 62
     7
 10
392.9868888333125
 20
4.602272727272727
 30
0.0
 40
3.5
  1
A
  0
LINE
  5
11D
  8
0
  6
CONTINUOUS
 62
     7
 10
315.0
 20
286.9999999999999
 30
0.0
 11
315.0
 21
292.0
 31
0.0
  0
TEXT
  5
11E
  8
0
  6
CONTINUOUS
 62
     7
 10
339.1340909090909
 20
291.9745607727899
 30
0.0
 40
3.5
  1
B
 50
270.0
  0
LINE
  5
11F
  8
0
  6
CONTINUOUS
 62
     7
 10
315.0
 20
10.0
 30
0.0
 11
315.0
 21
5.0
 31
0.0
  0
TEXT
  5
120
  8
0
  6
CONTINUOUS
 62
     7
 10
340.3447574090284
 20
4.602272727272727
 30
0.0
 40
3.5
  1
B
  0
LINE
  5
121
  8
0
  6
CONTINUOUS
 62
     7
 10
262.5
 20
286.9999999999999
 30
0.0
 11
262.5
 21
292.0
 31
0.0
  0
TEXT
  5
122
  8
0
  6
CONTINUOUS
 62
     7
 10
286.6327779167187
 20
291.9399305989747
 30
0.0
 40
3.5
  1
C
 50
270.0
  0
LINE
  5
123
  8
0
  6
CONTINUOUS
 62
     7
 10
262.5
 20
10.0
 30
0.0
 11
262.5
 21
5.0
 31
0.0
  0
TEXT
  5
124
  8
0
  6
CONTINUOUS
 62
     7
 10
287.8793875828435
 20
4.600959734900587
 30
0.0
 40
3.5
  1
C
  0
LINE
  5
125
  8
0
  6
CONTINUOUS
 62
     7
 10
210.0
 20
286.9999999999999
 30
0.0
 11
210.0
 21
292.0
 31
0.0
  0
TEXT
  5
126
  8
0
  6
CONTINUOUS
 62
     7
 10
234.1340909090909
 20
291.9745607727898
 30
0.0
 40
3.5
  1
D
 50
270.0
  0
LINE
  5
127
  8
0
  6
CONTINUOUS
 62
     7
 10
157.5
 20
286.9999999999999
 30
0.0
 11
157.5
 21
292.0
 31
0.0
  0
TEXT
  5
128
  8
0
  6
CONTINUOUS
 62
     7
 10
181.6327779167188
 20
292.027463423784
 30
0.0
 40
3.5
  1
E
 50
270.0
  0
LINE
  5
129
  8
0
  6
CONTINUOUS
 62
     7
 10
157.5
 20
10.0
 30
0.0
 11
157.5
 21
5.0
 31
0.0
  0
LINE
  5
12A
  8
0
  6
CONTINUOUS
 62
     7
 10
105.0
 20
286.9999999999999
 30
0.0
 11
105.0
 21
292.0
 31
0.0
  0
TEXT
  5
12B
  8
0
  6
CONTINUOUS
 62
     7
 10
129.1327779167188
 20
291.9924502938602
 30
0.0
 40
3.5
  1
F
 50
270.0
  0
LINE
  5
12C
  8
0
  6
CONTINUOUS
 62
     7
 10
105.0
 20
10.0
 30
0.0
 11
105.0
 21
5.0
 31
0.0
  0
TEXT
  5
12D
  8
0
  6
CONTINUOUS
 62
     7
 10
130.326867887958
 20
4.600959734900587
 30
0.0
 40
3.5
  1
F
  0
LINE
  5
12E
  8
0
  6
CONTINUOUS
 62
     7
 10
52.50000000000004
 20
286.9999999999999
 30
0.0
 11
52.50000000000004
 21
292.0
 31
0.0
  0
TEXT
  5
12F
  8
0
  6
CONTINUOUS
 62
     7
 10
76.6327779167188
 20
291.9399305989746
 30
0.0
 40
3.5
  1
G
 50
270.0
  0
LINE
  5
130
  8
0
  6
CONTINUOUS
 62
     7
 10
52.50000000000004
 20
10.0
 30
0.0
 11
52.50000000000004
 21
5.0
 31
0.0
  0
TEXT
  5
131
  8
0
  6
CONTINUOUS
 62
     7
 10
77.8793875828436
 20
4.600959734900587
 30
0.0
 40
3.5
  1
G
  0
TEXT
  5
132
  8
0
  6
CONTINUOUS
 62
     7
 10
24.13277791671879
 20
291.9749437288983
 30
0.0
 40
3.5
  1
H
 50
270.0
  0
TEXT
  5
133
  8
0
  6
CONTINUOUS
 62
     7
 10
25.34437445291988
 20
4.600959734900587
 30
0.0
 40
3.5
  1
H
  0
LINE
  5
134
  8
0
  6
CONTINUOUS
 62
     7
 10
409.9999999999999
 20
74.25
 30
0.0
 11
414.9999999999999
 21
74.25
 31
0.0
  0
TEXT
  5
135
  8
0
  6
CONTINUOUS
 62
     7
 10
412.9326059772414
 20
35.00777791671877
 30
0.0
 40
3.5
  1
1
  0
LINE
  5
136
  8
0
  6
CONTINUOUS
 62
     7
 10
10.0
 20
74.25
 30
0.0
 11
5.0
 21
74.25
 31
0.0
  0
TEXT
  5
137
  8
0
  6
CONTINUOUS
 62
     7
 10
4.600959734900584
 20
38.26171220457671
 30
0.0
 40
3.5
  1
1
 50
270.0
  0
LINE
  5
138
  8
0
  6
CONTINUOUS
 62
     7
 10
409.9999999999999
 20
148.5
 30
0.0
 11
414.9999999999999
 21
148.5
 31
0.0
  0
TEXT
  5
139
  8
0
  6
CONTINUOUS
 62
     7
 10
413.163692634738
 20
109.2577779167188
 30
0.0
 40
3.5
  1
2
  0
LINE
  5
13A
  8
0
  6
CONTINUOUS
 62
     7
 10
10.0
 20
148.5
 30
0.0
 11
5.0
 21
148.5
 31
0.0
  0
TEXT
  5
13B
  8
0
  6
CONTINUOUS
 62
     7
 10
4.600959734900599
 20
112.2806255470802
 30
0.0
 40
3.5
  1
2
 50
270.0
  0
LINE
  5
13C
  8
0
  6
CONTINUOUS
 62
     7
 10
409.9999999999999
 20
222.75
 30
0.0
 11
414.9999999999999
 21
222.75
 31
0.0
  0
TEXT
  5
13D
  8
0
  6
CONTINUOUS
 62
     7
 10
413.1811991996998
 20
183.5077779167188
 30
0.0
 40
3.5
  1
3
  0
LINE
  5
13E
  8
0
  6
CONTINUOUS
 62
     7
 10
10.0
 20
222.75
 30
0.0
 11
5.0
 21
222.75
 31
0.0
  0
TEXT
  5
13F
  8
0
  6
CONTINUOUS
 62
     7
 10
4.600959734900584
 20
186.5131189821183
 30
0.0
 40
3.5
  1
3
 50
270.0
  0
TEXT
  5
140
  8
0
  6
CONTINUOUS
 62
     7
 10
413.2351413029886
 20
257.7590909090909
 30
0.0
 40
3.5
  1
4
  0
TEXT
  5
141
  8
0
  6
CONTINUOUS
 62
     7
 10
4.60227272727272
 20
260.7091768788295
 30
0.0
 40
3.5
  1
4
 50
270.0
  0
LINE
  5
142
  8
0
  6
CONTINUOUS
 62
     7
 10
220.0
 20
10.0
 30
0.0
 11
220.0
 21
7.0
 31
0.0
  0
LINE
  5
143
  8
0
  6
CONTINUOUS
 62
     7
 10
200.0
 20
10.0
 30
0.0
 11
200.0
 21
7.0
 31
0.0
  0
LINE
  5
144
  8
0
  6
CONTINUOUS
 62
     7
 10
230.0
 20
10.0
 30
0.0
 11
230.0
 21
7.0
 31
0.0
  0
LINE
  5
145
  8
0
  6
CONTINUOUS
 62
     7
 10
190.0
 20
10.0
 30
0.0
 11
190.0
 21
7.0
 31
0.0
  0
LINE
  5
146
  8
0
  6
CONTINUOUS
 62
     7
 10
240.0
 20
10.0
 30
0.0
 11
240.0
 21
7.0
 31
0.0
  0
LINE
  5
147
  8
0
  6
CONTINUOUS
 62
     7
 10
180.0
 20
10.0
 30
0.0
 11
180.0
 21
7.0
 31
0.0
  0
LINE
  5
148
  8
0
  6
CONTINUOUS
 62
     7
 10
250.0
 20
10.0
 30
0.0
 11
250.0
 21
7.0
 31
0.0
  0
LINE
  5
149
  8
0
  6
CONTINUOUS
 62
     7
 10
170.0
 20
10.0
 30
0.0
 11
170.0
 21
7.0
 31
0.0
  0
LINE
  5
14A
  8
0
  6
CONTINUOUS
 62
     7
 10
260.0
 20
10.0
 30
0.0
 11
260.0
 21
5.0
 31
0.0
  0
LINE
  5
14B
  8
0
  6
CONTINUOUS
 62
     7
 10
160.0
 20
10.0
 30
0.0
 11
160.0
 21
5.0
 31
0.0
  0
LINE
  5
14C
  8
0
  6
CONTINUOUS
 62
     7
 10
260.0
 20
10.0
 30
0.0
 11
160.0
 21
10.0
 31
0.0
  0
LINE
  5
14D
  8
0
  6
CONTINUOUS
 62
     7
 10
260.0
 20
7.0
 30
0.0
 11
160.0
 21
7.0
 31
0.0
  0
INSERT
  5
14E
  8
0
 62
     7
  2
*U4
 10
0.0
 20
0.0
 30
0.0
  0
INSERT
  5
14F
  8
0
 62
     7
  2
*U5
 10
0.0
 20
0.0
 30
0.0
  0
INSERT
  5
150
  8
0
 62
     7
  2
*U6
 10
0.0
 20
0.0
 30
0.0
  0
INSERT
  5
151
  8
0
 62
     7
  2
*U7
 10
0.0
 20
0.0
 30
0.0
  0
ENDBLK
  8
0
  0
BLOCK
  8
0
  2
*U2
 70
     1
 10
0.0
 20
0.0
 30
0.0
  0
SOLID
  5
330
  8
0
  6
CONTINUOUS
 62
     7
 10
11.0
 20
144.5
 30
0.0
 11
6.999999999999999
 21
148.5
 31
0.0
 12
11.0
 22
152.5
 32
0.0
 13
11.0
 23
152.5
 33
0.0
  0
ENDBLK
  8
0
  0
BLOCK
  8
0
  2
*U3
 70
     1
 10
0.0
 20
0.0
 30
0.0
  0
SOLID
  5
336
  8
0
  6
CONTINUOUS
 62
     7
 10
210.0
 20
6.999999999999999
 30
0.0
 11
206.0
 21
11.0
 31
0.0
 12
210.0
 22
11.0
 32
0.0
 13
210.0
 23
11.0
 33
0.0
  0
SOLID
  5
337
  8
0
  6
CONTINUOUS
 62
     7
 10
210.0
 20
6.999999999999999
 30
0.0
 11
210.0
 21
11.0
 31
0.0
 12
214.0
 22
11.0
 32
0.0
 13
214.0
 23
11.0
 33
0.0
  0
ENDBLK
  8
0
  0
BLOCK
  8
0
  2
*U4
 70
     1
 10
0.0
 20
0.0
 30
0.0
  0
SOLID
  5
339
  8
0
  6
CONTINUOUS
 62
     7
 10
0.0
 20
0.0
 30
0.0
 11
0.0
 21
10.0
 31
0.0
 12
2.0
 22
0.0
 32
0.0
 13
2.0
 23
0.0
 33
0.0
  0
SOLID
  5
33A
  8
0
  6
CONTINUOUS
 62
     7
 10
2.0
 20
0.0
 30
0.0
 11
0.0
 21
10.0
 31
0.0
 12
2.0
 22
10.0
 32
0.0
 13
2.0
 23
10.0
 33
0.0
  0
SOLID
  5
33B
  8
0
  6
CONTINUOUS
 62
     7
 10
2.0
 20
0.0
 30
0.0
 11
2.0
 21
2.0
 31
0.0
 12
10.0
 22
0.0
 32
0.0
 13
10.0
 23
0.0
 33
0.0
  0
SOLID
  5
33C
  8
0
  6
CONTINUOUS
 62
     7
 10
10.0
 20
0.0
 30
0.0
 11
2.0
 21
2.0
 31
0.0
 12
10.0
 22
2.0
 32
0.0
 13
10.0
 23
2.0
 33
0.0
  0
ENDBLK
  8
0
  0
BLOCK
  8
0
  2
*U5
 70
     1
 10
0.0
 20
0.0
 30
0.0
  0
SOLID
  5
33E
  8
0
  6
CONTINUOUS
 62
     7
 10
409.9999999999999
 20
0.0
 30
0.0
 11
409.9999999999999
 21
2.0
 31
0.0
 12
418.0
 22
0.0
 32
0.0
 13
418.0
 23
0.0
 33
0.0
  0
SOLID
  5
33F
  8
0
  6
CONTINUOUS
 62
     7
 10
418.0
 20
0.0
 30
0.0
 11
409.9999999999999
 21
2.0
 31
0.0
 12
418.0
 22
2.0
 32
0.0
 13
418.0
 23
2.0
 33
0.0
  0
SOLID
  5
340
  8
0
  6
CONTINUOUS
 62
     7
 10
418.0
 20
0.0
 30
0.0
 11
418.0
 21
10.0
 31
0.0
 12
420.0
 22
0.0
 32
0.0
 13
420.0
 23
0.0
 33
0.0
  0
SOLID
  5
341
  8
0
  6
CONTINUOUS
 62
     7
 10
420.0
 20
0.0
 30
0.0
 11
418.0
 21
10.0
 31
0.0
 12
420.0
 22
10.0
 32
0.0
 13
420.0
 23
10.0
 33
0.0
  0
ENDBLK
  8
0
  0
BLOCK
  8
0
  2
*U6
 70
     1
 10
0.0
 20
0.0
 30
0.0
  0
SOLID
  5
343
  8
0
  6
CONTINUOUS
 62
     7
 10
409.9999999999999
 20
295.0
 30
0.0
 11
409.9999999999999
 21
297.0
 31
0.0
 12
418.0
 22
295.0
 32
0.0
 13
418.0
 23
295.0
 33
0.0
  0
SOLID
  5
344
  8
0
  6
CONTINUOUS
 62
     7
 10
418.0
 20
295.0
 30
0.0
 11
409.9999999999999
 21
297.0
 31
0.0
 12
418.0
 22
297.0
 32
0.0
 13
418.0
 23
297.0
 33
0.0
  0
SOLID
  5
345
  8
0
  6
CONTINUOUS
 62
     7
 10
418.0
 20
286.9999999999999
 30
0.0
 11
418.0
 21
297.0
 31
0.0
 12
420.0
 22
286.9999999999999
 32
0.0
 13
420.0
 23
286.9999999999999
 33
0.0
  0
SOLID
  5
346
  8
0
  6
CONTINUOUS
 62
     7
 10
420.0
 20
286.9999999999999
 30
0.0
 11
418.0
 21
297.0
 31
0.0
 12
420.0
 22
297.0
 32
0.0
 13
420.0
 23
297.0
 33
0.0
  0
ENDBLK
  8
0
  0
BLOCK
  8
0
  2
*U7
 70
     1
 10
0.0
 20
0.0
 30
0.0
  0
SOLID
  5
348
  8
0
  6
CONTINUOUS
 62
     7
 10
0.0
 20
286.9999999999999
 30
0.0
 11
0.0
 21
297.0
 31
0.0
 12
2.0
 22
286.9999999999999
 32
0.0
 13
2.0
 23
286.9999999999999
 33
0.0
  0
SOLID
  5
349
  8
0
  6
CONTINUOUS
 62
     7
 10
2.0
 20
286.9999999999999
 30
0.0
 11
0.0
 21
297.0
 31
0.0
 12
2.0
 22
297.0
 32
0.0
 13
2.0
 23
297.0
 33
0.0
  0
SOLID
  5
34A
  8
0
  6
CONTINUOUS
 62
     7
 10
2.0
 20
295.0
 30
0.0
 11
2.0
 21
297.0
 31
0.0
 12
10.0
 22
295.0
 32
0.0
 13
10.0
 23
295.0
 33
0.0
  0
SOLID
  5
34B
  8
0
  6
CONTINUOUS
 62
     7
 10
10.0
 20
295.0
 30
0.0
 11
2.0
 21
297.0
 31
0.0
 12
10.0
 22
297.0
 32
0.0
 13
10.0
 23
297.0
 33
0.0
  0
ENDBLK
  8
0
  0
ENDSEC
  0
SECTION
  2
ENTITIES
  0
ARC
  5
70
  8
1
  6
CONTINUOUS
 62
     7
 10
-403.7217842821
 20
1982.1643529412
 30
0.0
 40
1.0
 50
272.544804
 51
330.0
  0
ARC
  5
71
  8
1
  6
CONTINUOUS
 62
     7
 10
-401.6499592821
 20
1981.7528599412
 30
0.0
 40
1.0
 50
95.0
 51
150.0
  0
LINE
  5
72
  8
1
  6
CONTINUOUS
 62
     7
 10
-471.1298142821
 20
2037.6896749412
 30
0.0
 11
-471.1298142821
 21
1980.6896749412
 31
0.0
  0
LINE
  5
73
  8
1
  6
CONTINUOUS
 62
     7
 10
-438.5524642821
 20
2003.9903749412
 30
0.0
 11
-438.5524642821
 21
1982.3893529412
 31
0.0
  0
LINE
  5
74
  8
1
  6
CONTINUOUS
 62
     7
 10
-439.4184892821
 20
1981.4024669412
 30
0.0
 11
-438.5524642821
 21
1982.3893529412
 31
0.0
  0
LINE
  5
75
  8
1
  6
CONTINUOUS
 62
     7
 10
-439.4184892821
 20
2004.5214495546
 30
0.0
 11
-439.4184892821
 21
1981.4024669412
 31
0.0
  0
LINE
  5
76
  8
1
  6
CONTINUOUS
 62
     7
 10
-434.4251842821
 20
2005.8807819412
 30
0.0
 11
-439.4184892821
 21
2004.5214495546
 31
0.0
  0
ARC
  5
77
  8
1
  6
CONTINUOUS
 62
     7
 10
-420.3385292821
 20
2035.9525329412
 30
0.0
 40
2.0
 50
87.455196
 51
135.0
  0
LINE
  5
78
  8
1
  6
CONTINUOUS
 62
     7
 10
-442.1298142821
 20
1980.6896749412
 30
0.0
 11
-527.1298142821
 21
1980.6896749412
 31
0.0
  0
LINE
  5
79
  8
1
  6
CONTINUOUS
 62
     7
 10
-412.1614312821
 20
2037.5910809412
 30
0.0
 11
-420.2497282821
 21
2037.9505609412
 31
0.0
  0
ARC
  5
7A
  8
1
  6
CONTINUOUS
 62
     7
 10
-403.7217842821
 20
2036.2149979412
 30
0.0
 40
1.0
 50
30.0
 51
87.455196
  0
LINE
  5
7B
  8
1
  6
CONTINUOUS
 62
     7
 10
-434.4251842821
 20
2012.4985679412
 30
0.0
 11
-439.4184892821
 21
2013.8579003278
 31
0.0
  0
LINE
  5
7C
  8
1
  6
CONTINUOUS
 62
     7
 10
-434.4251842821
 20
2005.8807819412
 30
0.0
 11
-434.4251842821
 21
2012.4985679412
 31
0.0
  0
LINE
  5
7D
  8
1
  6
CONTINUOUS
 62
     7
 10
-439.1298142821
 20
2037.4896749412
 30
0.0
 11
-442.1298142821
 21
2037.4896749412
 31
0.0
  0
ARC
  5
7E
  8
1
  6
CONTINUOUS
 62
     7
 10
-407.7197432821
 20
2040.5968159412
 30
0.0
 40
6.201385
 50
220.785012
 51
305.978714
  0
ARC
  5
7F
  8
1
  6
CONTINUOUS
 62
     7
 10
-420.3385292821
 20
1982.4268179412
 30
0.0
 40
2.0
 50
225.0
 51
272.544804
  0
LINE
  5
80
  8
1
  6
CONTINUOUS
 62
     7
 10
-403.6892932821
 20
2036.3456289412
 30
0.0
 11
-403.9312152821
 21
2037.2484949412
 31
0.0
  0
LINE
  5
81
  8
1
  6
CONTINUOUS
 62
     7
 10
-442.1298142821
 20
2037.6896749412
 30
0.0
 11
-442.1298142821
 21
1980.6896749412
 31
0.0
  0
LINE
  5
82
  8
1
  6
CONTINUOUS
 62
     7
 10
-422.6298142821
 20
1981.8896749412
 30
0.0
 11
-421.7527432821
 21
1981.0126039412
 31
0.0
  0
LINE
  5
83
  8
1
  6
CONTINUOUS
 62
     7
 10
-471.1298142821
 20
2020.9947614688
 30
0.0
 11
-442.1298142821
 21
2020.9947614688
 31
0.0
  0
LINE
  5
84
  8
1
  6
CONTINUOUS
 62
     7
 10
-402.8557592821
 20
1981.6643529412
 30
0.0
 11
-402.5159842821
 21
1982.2528599412
 31
0.0
  0
ARC
  5
85
  8
1
  6
CONTINUOUS
 62
     7
 10
-404.8971412821
 20
2036.9896749412
 30
0.0
 40
1.0
 50
15.0
 51
90.0
  0
LINE
  5
86
  8
1
  6
CONTINUOUS
 62
     7
 10
-422.6298142821
 20
2036.4896749412
 30
0.0
 11
-434.4251842821
 21
2036.4896749412
 31
0.0
  0
LINE
  5
87
  8
1
  6
CONTINUOUS
 62
     7
 10
-471.1298142821
 20
1997.3845884136
 30
0.0
 11
-442.1298142821
 21
1997.3845884136
 31
0.0
  0
LINE
  5
88
  8
1
  6
CONTINUOUS
 62
     7
 10
-400.1298142821
 20
2035.4896749412
 30
0.0
 11
-401.7371142821
 21
2035.6302959412
 31
0.0
  0
LINE
  5
89
  8
1
  6
CONTINUOUS
 62
     7
 10
-434.4251842821
 20
2036.4896749412
 30
0.0
 11
-439.1298142821
 21
2037.4896749412
 31
0.0
  0
LINE
  5
8A
  8
1
  6
CONTINUOUS
 62
     7
 10
-400.1298142821
 20
1982.8896749412
 30
0.0
 11
-400.1298142821
 21
2035.4896749412
 31
0.0
  0
LINE
  5
8B
  8
1
  6
CONTINUOUS
 62
     7
 10
-404.8971412821
 20
2037.9896749412
 30
0.0
 11
-411.3624872821
 21
2037.9896749412
 31
0.0
  0
LINE
  5
8C
  8
1
  6
CONTINUOUS
 62
     7
 10
-421.7527432821
 20
2037.3667469412
 30
0.0
 11
-422.6298142821
 21
2036.4896749412
 31
0.0
  0
LINE
  5
8D
  8
1
  6
CONTINUOUS
 62
     7
 10
-401.7371142821
 20
1982.7490549412
 30
0.0
 11
-400.1298142821
 21
1982.8896749412
 31
0.0
  0
LINE
  5
8E
  8
1
  6
CONTINUOUS
 62
     7
 10
-436.3657982821
 20
2013.4490589412
 30
0.0
 11
-434.4251843251
 21
2012.4985679529
 31
0.0
  0
LINE
  5
8F
  8
1
  6
CONTINUOUS
 62
     7
 10
-527.1298142821
 20
1980.6896749412
 30
0.0
 11
-527.1298142821
 21
2037.6896749412
 31
0.0
  0
LINE
  5
90
  8
1
  6
CONTINUOUS
 62
     7
 10
-439.4184892821
 20
2036.9768829412
 30
0.0
 11
-438.5524642821
 21
2035.9899969412
 31
0.0
  0
LINE
  5
91
  8
1
  6
CONTINUOUS
 62
     7
 10
-438.5524642821
 20
2035.9899969412
 30
0.0
 11
-434.4251842821
 21
2036.4896749412
 31
0.0
  0
LINE
  5
92
  8
1
  6
CONTINUOUS
 62
     7
 10
-439.4184892821
 20
2004.1123252739
 30
0.0
 11
-436.3657982821
 21
2004.9302909412
 31
0.0
  0
ARC
  5
93
  8
1
  6
CONTINUOUS
 62
     7
 10
-438.0546502821
 20
2003.9624629412
 30
0.0
 40
0.498596
 50
101.647368
 51
176.79081
  0
LINE
  5
94
  8
1
  6
CONTINUOUS
 62
     7
 10
-422.6298142821
 20
1981.8896749412
 30
0.0
 11
-422.6298142821
 21
2036.4896749412
 31
0.0
  0
LINE
  5
95
  8
1
  6
CONTINUOUS
 62
     7
 10
-402.5159842821
 20
2036.1264909412
 30
0.0
 11
-402.8557592821
 21
2036.7149979412
 31
0.0
  0
ARC
  5
96
  8
1
  6
CONTINUOUS
 62
     7
 10
-401.6499592821
 20
2036.6264909412
 30
0.0
 40
1.0
 50
210.0
 51
265.0
  0
LINE
  5
97
  8
1
  6
CONTINUOUS
 62
     7
 10
-439.1298142821
 20
1980.8896749412
 30
0.0
 11
-442.1298142821
 21
1980.8896749412
 31
0.0
  0
LINE
  5
98
  8
1
  6
CONTINUOUS
 62
     7
 10
-527.1298142821
 20
2037.6896749412
 30
0.0
 11
-442.1298142821
 21
2037.6896749412
 31
0.0
  0
LINE
  5
99
  8
1
  6
CONTINUOUS
 62
     7
 10
-438.5524642821
 20
2014.3889749412
 30
0.0
 11
-438.5524642821
 21
2035.9899969412
 31
0.0
  0
LINE
  5
9A
  8
1
  6
CONTINUOUS
 62
     7
 10
-434.4251842821
 20
1981.8896749412
 30
0.0
 11
-439.1298142821
 21
1980.8896749412
 31
0.0
  0
LINE
  5
9B
  8
1
  6
CONTINUOUS
 62
     7
 10
-434.4251842821
 20
1981.8896749412
 30
0.0
 11
-422.6298142821
 21
1981.8896749412
 31
0.0
  0
LINE
  5
9C
  8
1
  6
CONTINUOUS
 62
     7
 10
-436.3657982821
 20
2004.9302909412
 30
0.0
 11
-434.4251843251
 21
2005.8807819295
 31
0.0
  0
ARC
  5
9D
  8
1
  6
CONTINUOUS
 62
     7
 10
-404.4304082821
 20
2036.2383769412
 30
0.0
 40
0.748835
 50
298.201813
 51
8.234532999999999
  0
ARC
  5
9E
  8
1
  6
CONTINUOUS
 62
     7
 10
-411.3624872821
 20
2036.9896749412
 30
0.0
 40
1.0
 50
90.0
 51
165.0
  0
LINE
  5
9F
  8
1
  6
CONTINUOUS
 62
     7
 10
-420.2497282821
 20
1980.4287899412
 30
0.0
 11
-403.6773842821
 21
1981.1653389412
 31
0.0
  0
LINE
  5
A0
  8
1
  6
CONTINUOUS
 62
     7
 10
-439.4184892821
 20
2013.8579003278
 30
0.0
 11
-439.4184892821
 21
2036.9768829412
 31
0.0
  0
LINE
  5
A1
  8
1
  6
CONTINUOUS
 62
     7
 10
-439.4184892821
 20
2014.2670246085
 30
0.0
 11
-436.3657982821
 21
2013.4490589412
 31
0.0
  0
ARC
  5
A2
  8
1
  6
CONTINUOUS
 62
     7
 10
-438.0546502821
 20
2014.4168869412
 30
0.0
 40
0.498596
 50
183.20919
 51
258.352632
  0
ARC
  5
A3
  8
1
  6
CONTINUOUS
 62
     7
 10
-408.1096842821
 20
2088.319665891
 30
0.0
 40
4.889136
 50
173.35319
 51
335.083221
  0
LINE
  5
A4
  8
1
  6
CONTINUOUS
 62
     7
 10
-403.6756252821
 20
2095.147496891
 30
0.0
 11
-403.6756252821
 21
2098.315858891
 31
0.0
  0
LINE
  5
A5
  8
1
  6
CONTINUOUS
 62
     7
 10
-403.6562122011
 20
2095.1484438461
 30
0.0
 11
-403.3501652821
 21
2088.877717891
 31
0.0
  0
ARC
  5
A6
  8
1
  6
CONTINUOUS
 62
     7
 10
-410.3426372821
 20
2088.417887891
 30
0.0
 40
7.007575
 50
342.06393
 51
3.762399000000016
  0
LINE
  5
A7
  8
1
  6
CONTINUOUS
 62
     7
 10
-411.5543202821
 20
2091.373339891
 30
0.0
 11
-408.7053082821
 21
2093.018218891
 31
0.0
  0
CIRCLE
  5
A8
  8
1
  6
CONTINUOUS
 62
     7
 10
-757.080713324
 20
2009.5307489412
 30
0.0
 40
37.148956
  0
LINE
  5
A9
  8
1
  6
CENTER
 62
     5
 10
-757.084390324
 20
1972.1896749412
 30
0.0
 11
-757.084390324
 21
2046.1896749412
 31
0.0
  0
ARC
  5
AB
  8
1
  6
CONTINUOUS
 62
     7
 10
-408.1298142821
 20
2088.731677891
 30
0.0
 40
4.325
 50
82.353426
 51
97.646574
  0
CIRCLE
  5
AC
  8
1
  6
CONTINUOUS
 62
     7
 10
-757.084390324
 20
2009.1896749412
 30
0.0
 40
19.360523
  0
LINE
  5
AD
  8
1
  6
CONTINUOUS
 62
     7
 10
-407.5543202821
 20
2093.018218891
 30
0.0
 11
-404.7053082821
 21
2091.373339891
 31
0.0
  0
ARC
  5
AE
  8
1
  6
CONTINUOUS
 62
     7
 10
-408.1298142821
 20
2088.731677891
 30
0.0
 40
4.325
 50
22.353426
 51
37.646574
  0
LINE
  5
AF
  8
1
  6
CONTINUOUS
 62
     7
 10
-404.1298142821
 20
2090.376555891
 30
0.0
 11
-404.1298142821
 21
2087.086799891
 31
0.0
  0
LINE
  5
B0
  8
1
  6
CONTINUOUS
 62
     7
 10
-412.1298142821
 20
2087.086799891
 30
0.0
 11
-412.1298142821
 21
2090.376555891
 31
0.0
  0
LINE
  5
B1
  8
1
  6
CENTER
 62
     5
 10
-794.084390324
 20
2009.1896749412
 30
0.0
 11
-720.084390324
 21
2009.1896749412
 31
0.0
  0
ARC
  5
B2
  8
1
  6
CONTINUOUS
 62
     7
 10
-408.1298142821
 20
2088.731677891
 30
0.0
 40
4.325
 50
142.353426
 51
157.646574
  0
LINE
  5
B3
  8
1
  6
CONTINUOUS
 62
     7
 10
-438.5524642821
 20
2069.931355891
 30
0.0
 11
-434.4251842821
 21
2069.431677891
 31
0.0
  0
ARC
  5
B4
  8
1
  6
CONTINUOUS
 62
     7
 10
-423.3007552821
 20
2096.731677891
 30
0.0
 40
11.334192
 50
341.2662200000001
 51
18.73378000000002
  0
LINE
  5
B5
  8
1
  6
CONTINUOUS
 62
     7
 10
-412.9659582821
 20
2088.885576891
 30
0.0
 11
-412.6411639287
 21
2093.0971768637
 31
0.0
  0
LINE
  5
B6
  8
1
  6
CONTINUOUS
 62
     7
 10
-439.4184892821
 20
2068.944469891
 30
0.0
 11
-438.5524642821
 21
2069.931355891
 31
0.0
  0
LINE
  5
B7
  8
1
  6
CONTINUOUS
 62
     7
 10
-436.3657982821
 20
2092.472293891
 30
0.0
 11
-434.4251843251
 21
2093.4227848793
 31
0.0
  0
LINE
  5
B8
  8
1
  6
CONTINUOUS
 62
     7
 10
-633.2666095091
 20
2033.1896749412
 30
0.0
 11
-632.6302767054001
 21
2035.1893339412
 31
0.0
  0
LINE
  5
B9
  8
1
  6
CONTINUOUS
 62
     7
 10
-623.7772682821
 20
1985.1896749412
 30
0.0
 11
-624.1304602821001
 21
1983.1900379412
 31
0.0
  0
LINE
  5
BA
  8
1
  6
CONTINUOUS
 62
     7
 10
-629.1302762821
 20
2035.1893419412
 30
0.0
 11
-624.1304602821001
 21
1983.1900379412
 31
0.0
  0
LINE
  5
BB
  8
1
  6
CONTINUOUS
 62
     7
 10
-637.6304602821
 20
1983.1900459412
 30
0.0
 11
-634.1304602821001
 21
1983.1900379412
 31
0.0
  0
LINE
  5
BC
  8
1
  6
CONTINUOUS
 62
     7
 10
-632.9824682821
 20
2033.1896749412
 30
0.0
 11
-638.9380051113
 21
2033.1896749412
 31
0.0
  0
LINE
  5
BD
  8
1
  6
CONTINUOUS
 62
     7
 10
-633.7772682821
 20
1985.1896749412
 30
0.0
 11
-627.8227278583
 21
1985.1896749412
 31
0.0
  0
LINE
  5
BE
  8
1
  6
CONTINUOUS
 62
     7
 10
-637.6304602821
 20
1983.1900459412
 30
0.0
 11
-642.6302762821
 21
2035.1893339412
 31
0.0
  0
LINE
  5
BF
  8
1
  6
CONTINUOUS
 62
     7
 10
-629.1302762821
 20
2035.1893419412
 30
0.0
 11
-632.6302762821
 21
2035.1893339412
 31
0.0
  0
LINE
  5
C0
  8
1
  6
CONTINUOUS
 62
     7
 10
-643.2666095091
 20
2033.1896749412
 30
0.0
 11
-642.6302767054
 21
2035.1893339412
 31
0.0
  0
LINE
  5
C1
  8
1
  6
CONTINUOUS
 62
     7
 10
-623.7772682821
 20
1985.1896749412
 30
0.0
 11
-617.8227278583
 21
1985.1896749412
 31
0.0
  0
LINE
  5
C2
  8
1
  6
CONTINUOUS
 62
     7
 10
-622.9824682821001
 20
2033.1896749412
 30
0.0
 11
-628.9380051113
 21
2033.1896749412
 31
0.0
  0
LINE
  5
C3
  8
1
  6
CONTINUOUS
 62
     7
 10
-558.6298262821
 20
2038.8372199412
 30
0.0
 11
-558.6327852821
 21
2038.8963859412
 31
0.0
  0
LINE
  5
C4
  8
1
  6
CONTINUOUS
 62
     7
 10
-627.6304602821
 20
1983.1900459412
 30
0.0
 11
-624.1304602821001
 21
1983.1900379412
 31
0.0
  0
LINE
  5
C5
  8
1
  6
CONTINUOUS
 62
     7
 10
-639.1302762821
 20
2035.1893419412
 30
0.0
 11
-642.6302762821
 21
2035.1893339412
 31
0.0
  0
LINE
  5
C6
  8
1
  6
CONTINUOUS
 62
     7
 10
-643.7772672821
 20
1985.1896749412
 30
0.0
 11
-637.8227278583
 21
1985.1896749412
 31
0.0
  0
ARC
  5
C7
  8
1
  6
CONTINUOUS
 62
     7
 10
-561.6298142821
 20
1977.1896749412
 30
0.0
 40
3.000000000000003
 50
270.0
 51
0.0
  0
LINE
  5
C8
  8
1
  6
CONTINUOUS
 62
     7
 10
-633.7772682821
 20
1985.1896749412
 30
0.0
 11
-634.1304602821001
 21
1983.1900379412
 31
0.0
  0
LINE
  5
C9
  8
1
  6
CONTINUOUS
 62
     7
 10
-639.1302762821
 20
2035.1893419412
 30
0.0
 11
-634.1304602821001
 21
1983.1900379412
 31
0.0
  0
ARC
  5
CA
  8
1
  6
CONTINUOUS
 62
     7
 10
-561.6298142821
 20
2041.1896749412
 30
0.0
 40
3.000000000000003
 50
0.0
 51
90.0
  0
LINE
  5
CB
  8
1
  6
CONTINUOUS
 62
     7
 10
-642.9824682821
 20
2033.1896749412
 30
0.0
 11
-647.1298142821
 21
2033.1896749412
 31
0.0
  0
LINE
  5
CC
  8
1
  6
CONTINUOUS
 62
     7
 10
-412.9659582821
 20
2104.577778891
 30
0.0
 11
-412.6411639287
 21
2100.3661789183
 31
0.0
  0
ARC
  5
CD
  8
1
  6
CONTINUOUS
 62
     7
 10
-408.1096842821
 20
2105.143689891
 30
0.0
 40
4.889136
 50
24.916779
 51
186.64681
  0
LINE
  5
CE
  8
1
  6
CONTINUOUS
 62
     7
 10
-403.6562122011
 20
2098.3149119359
 30
0.0
 11
-403.3501652821
 21
2104.585637891
 31
0.0
  0
ARC
  5
CF
  8
1
  6
CONTINUOUS
 62
     7
 10
-406.8298032821
 20
2106.031696891
 30
0.0
 40
0.800019
 50
208.955831
 51
269.999193
  0
ARC
  5
D0
  8
1
  6
CONTINUOUS
 62
     7
 10
-408.1298142821
 20
2104.731677891
 30
0.0
 40
2.163668
 50
346.6387999999999
 51
13.3612
  0
ARC
  5
D1
  8
1
  6
CONTINUOUS
 62
     7
 10
-406.8298142821
 20
2103.431677891
 30
0.0
 40
0.8
 50
151.044976
 51
180.0
  0
LINE
  5
D2
  8
1
  6
CONTINUOUS
 62
     7
 10
-409.4298142821
 20
2105.231677891
 30
0.0
 11
-410.2349172821
 21
2105.231677891
 31
0.0
  0
LINE
  5
D3
  8
1
  6
CONTINUOUS
 62
     7
 10
-404.1298142821
 20
2106.376555891
 30
0.0
 11
-404.1298142821
 21
2103.086799891
 31
0.0
  0
ARC
  5
D4
  8
1
  6
CONTINUOUS
 62
     7
 10
-409.4298242821
 20
2090.031694891
 30
0.0
 40
0.800017
 50
270.000699
 51
331.0442760000001
  0
LINE
  5
D5
  8
1
  6
CONTINUOUS
 62
     7
 10
-410.2349172821
 20
2088.231677891
 30
0.0
 11
-409.4298142821
 21
2088.231677891
 31
0.0
  0
LINE
  5
D6
  8
1
  6
CONTINUOUS
 62
     7
 10
-408.7298142821
 20
2085.379282891
 30
0.0
 11
-408.7298142821
 21
2087.818975891
 31
0.0
  0
ARC
  5
D7
  8
1
  6
CONTINUOUS
 62
     7
 10
-409.4298242821
 20
2106.031694891
 30
0.0
 40
0.800017
 50
270.000699
 51
331.0442760000001
  0
LINE
  5
D8
  8
1
  6
CONTINUOUS
 62
     7
 10
-406.0247112821
 20
2105.231677891
 30
0.0
 11
-406.8298142821
 21
2105.231677891
 31
0.0
  0
ARC
  5
D9
  8
1
  6
CONTINUOUS
 62
     7
 10
-409.4298142821
 20
2106.031677891
 30
0.0
 40
0.8
 50
331.044976
 51
0.0
  0
ARC
  5
DA
  8
1
  6
CONTINUOUS
 62
     7
 10
-408.1298142821
 20
2104.731677891
 30
0.0
 40
4.325
 50
142.353426
 51
157.646574
  0
ARC
  5
DB
  8
1
  6
CONTINUOUS
 62
     7
 10
-409.4298252821
 20
2087.431658891
 30
0.0
 40
0.800019
 50
28.955831
 51
89.999193
  0
LINE
  5
DC
  8
1
  6
CONTINUOUS
 62
     7
 10
-406.8298142821
 20
2088.231677891
 30
0.0
 11
-406.0247112821
 21
2088.231677891
 31
0.0
  0
LINE
  5
DD
  8
1
  6
CONTINUOUS
 62
     7
 10
-404.7053082821
 20
2102.090015891
 30
0.0
 11
-407.5543202821
 21
2100.445136891
 31
0.0
  0
LINE
  5
DE
  8
1
  6
CONTINUOUS
 62
     7
 10
-407.5543202821
 20
2109.018218891
 30
0.0
 11
-404.7053082821
 21
2107.373339891
 31
0.0
  0
ARC
  5
DF
  8
1
  6
CONTINUOUS
 62
     7
 10
-408.1298142821
 20
2088.731677891
 30
0.0
 40
2.163668
 50
346.6387999999999
 51
13.3612
  0
ARC
  5
E0
  8
1
  6
CONTINUOUS
 62
     7
 10
-406.8298032821
 20
2090.031696891
 30
0.0
 40
0.800019
 50
208.955831
 51
269.999193
  0
LINE
  5
E1
  8
1
  6
CONTINUOUS
 62
     7
 10
-410.2349172821
 20
2104.231677891
 30
0.0
 11
-409.4298142821
 21
2104.231677891
 31
0.0
  0
ARC
  5
E2
  8
1
  6
CONTINUOUS
 62
     7
 10
-406.8298042821
 20
2087.431660891
 30
0.0
 40
0.800017
 50
90.000699
 51
151.044276
  0
ARC
  5
E3
  8
1
  6
CONTINUOUS
 62
     7
 10
-408.1298142821
 20
2104.731677891
 30
0.0
 40
4.325
 50
322.353426
 51
337.646574
  0
CIRCLE
  5
E4
  8
1
  6
CONTINUOUS
 62
     7
 10
-408.1298142821
 20
2088.731677891
 30
0.0
 40
3.5
  0
ARC
  5
E5
  8
1
  6
CONTINUOUS
 62
     7
 10
-409.4298142821
 20
2090.031677891
 30
0.0
 40
0.8
 50
331.044976
 51
0.0
  0
ARC
  5
E6
  8
1
  6
CONTINUOUS
 62
     7
 10
-409.4298142821
 20
2087.431677891
 30
0.0
 40
0.8
 50
0.0
 51
28.955024
  0
ARC
  5
E7
  8
1
  6
CONTINUOUS
 62
     7
 10
-408.1298142821
 20
2088.731677891
 30
0.0
 40
4.325
 50
262.353426
 51
277.646574
  0
ARC
  5
E8
  8
1
  6
CONTINUOUS
 62
     7
 10
-408.1298142821
 20
2104.731677891
 30
0.0
 40
2.163668
 50
166.6388
 51
193.3612
  0
ARC
  5
E9
  8
1
  6
CONTINUOUS
 62
     7
 10
-408.1298142821
 20
2088.731677891
 30
0.0
 40
4.325
 50
322.353426
 51
337.646574
  0
ARC
  5
EA
  8
1
  6
CONTINUOUS
 62
     7
 10
-409.4298252821
 20
2103.431658891
 30
0.0
 40
0.800019
 50
28.955831
 51
89.999193
  0
LINE
  5
EB
  8
1
  6
CONTINUOUS
 62
     7
 10
-407.5298142821
 20
2087.818975891
 30
0.0
 11
-407.5298142821
 21
2085.379282891
 31
0.0
  0
LINE
  5
EC
  8
1
  6
CONTINUOUS
 62
     7
 10
-404.7053082821
 20
2086.090015891
 30
0.0
 11
-407.5543202821
 21
2084.445136891
 31
0.0
  0
LINE
  5
ED
  8
1
  6
CONTINUOUS
 62
     7
 10
-407.5298142821
 20
2108.084072891
 30
0.0
 11
-407.5298142821
 21
2105.644379891
 31
0.0
  0
ARC
  5
EE
  8
1
  6
CONTINUOUS
 62
     7
 10
-408.1298142821
 20
2104.731677891
 30
0.0
 40
4.325
 50
262.353426
 51
277.646574
  0
LINE
  5
EF
  8
1
  6
CONTINUOUS
 62
     7
 10
-408.7298142821
 20
2089.644379891
 30
0.0
 11
-408.7298142821
 21
2092.084072891
 31
0.0
  0
LINE
  5
F0
  8
1
  6
CONTINUOUS
 62
     7
 10
-407.5298142821
 20
2092.084072891
 30
0.0
 11
-407.5298142821
 21
2089.644379891
 31
0.0
  0
ARC
  5
F1
  8
1
  6
CONTINUOUS
 62
     7
 10
-406.8298142821
 20
2090.031677891
 30
0.0
 40
0.8
 50
180.0
 51
208.955024
  0
ARC
  5
F2
  8
1
  6
CONTINUOUS
 62
     7
 10
-406.8298142821
 20
2106.031677891
 30
0.0
 40
0.8
 50
180.0
 51
208.955024
  0
LINE
  5
F3
  8
1
  6
CONTINUOUS
 62
     7
 10
-408.7053082821
 20
2084.445136891
 30
0.0
 11
-411.5543202821
 21
2086.090015891
 31
0.0
  0
ARC
  5
F4
  8
1
  6
CONTINUOUS
 62
     7
 10
-408.1298142821
 20
2088.731677891
 30
0.0
 40
2.163668
 50
166.6388
 51
193.3612
  0
ARC
  5
F5
  8
1
  6
CONTINUOUS
 62
     7
 10
-408.1298142821
 20
2088.731677891
 30
0.0
 40
4.325
 50
202.353426
 51
217.646574
  0
LINE
  5
F6
  8
1
  6
CONTINUOUS
 62
     7
 10
-409.4298142821
 20
2089.231677891
 30
0.0
 11
-410.2349172821
 21
2089.231677891
 31
0.0
  0
ARC
  5
F7
  8
1
  6
CONTINUOUS
 62
     7
 10
-406.8298142821
 20
2087.431677891
 30
0.0
 40
0.8
 50
151.044976
 51
180.0
  0
LINE
  5
F8
  8
1
  6
CONTINUOUS
 62
     7
 10
-406.8298142821
 20
2104.231677891
 30
0.0
 11
-406.0247112821
 21
2104.231677891
 31
0.0
  0
ARC
  5
F9
  8
1
  6
CONTINUOUS
 62
     7
 10
-409.4298142821
 20
2103.431677891
 30
0.0
 40
0.8
 50
0.0
 51
28.955024
  0
LINE
  5
FA
  8
1
  6
CONTINUOUS
 62
     7
 10
-408.7298142821
 20
2101.379282891
 30
0.0
 11
-408.7298142821
 21
2103.818975891
 31
0.0
  0
LINE
  5
FB
  8
1
  6
CONTINUOUS
 62
     7
 10
-407.5298142821
 20
2103.818975891
 30
0.0
 11
-407.5298142821
 21
2101.379282891
 31
0.0
  0
ARC
  5
FC
  8
1
  6
CONTINUOUS
 62
     7
 10
-410.3426372821
 20
2105.045467891
 30
0.0
 40
7.007575
 50
356.237601
 51
17.93606999999997
  0
LINE
  5
FD
  8
1
  6
CONTINUOUS
 62
     7
 10
-406.0247112821
 20
2089.231677891
 30
0.0
 11
-406.8298142821
 21
2089.231677891
 31
0.0
  0
ARC
  5
FE
  8
1
  6
CONTINUOUS
 62
     7
 10
-406.8298042821
 20
2103.431660891
 30
0.0
 40
0.800017
 50
90.000699
 51
151.044276
  0
ARC
  5
FF
  8
1
  6
CONTINUOUS
 62
     7
 10
-408.1298142821
 20
2104.731677891
 30
0.0
 40
4.325
 50
202.353426
 51
217.646574
  0
LINE
  5
100
  8
1
  6
CONTINUOUS
 62
     7
 10
-408.7298142821
 20
2105.644379891
 30
0.0
 11
-408.7298142821
 21
2108.084072891
 31
0.0
  0
LINE
  5
101
  8
1
  6
CONTINUOUS
 62
     7
 10
-408.7053082821
 20
2100.445136891
 30
0.0
 11
-411.5543202821
 21
2102.090015891
 31
0.0
  0
LINE
  5
102
  8
1
  6
CONTINUOUS
 62
     7
 10
-412.1298142821
 20
2103.086799891
 30
0.0
 11
-412.1298142821
 21
2106.376555891
 31
0.0
  0
ARC
  5
103
  8
1
  6
CONTINUOUS
 62
     7
 10
-408.1298142821
 20
2104.731677891
 30
0.0
 40
4.325
 50
82.353426
 51
97.646574
  0
LINE
  5
104
  8
1
  6
CONTINUOUS
 62
     7
 10
-411.5543202821
 20
2107.373339891
 30
0.0
 11
-408.7053082821
 21
2109.018218891
 31
0.0
  0
CIRCLE
  5
105
  8
1
  6
CONTINUOUS
 62
     7
 10
-408.1298142821
 20
2104.731677891
 30
0.0
 40
3.5
  0
ARC
  5
106
  8
1
  6
CONTINUOUS
 62
     7
 10
-408.1298142821
 20
2104.731677891
 30
0.0
 40
4.325
 50
22.353426
 51
37.646574
  0
INSERT
  5
108
  8
0
 62
     7
  2
D_FRAME_DRAWING_21
 10
0.0
 20
0.0
 30
0.0
  0
LINE
  5
152
  8
1
  6
CENTER
 62
     5
 10
-375.4966024365
 20
2009.1896749412
 30
0.0
 11
-309.4593779215
 21
2009.1896749412
 31
0.0
  0
LINE
  5
153
  8
1
  6
CONTINUOUS
 62
     7
 10
-412.1298142821
 20
2043.6832359412
 30
0.0
 11
-412.1298142821
 21
2046.3456769412
 31
0.0
  0
LINE
  5
154
  8
1
  6
CONTINUOUS
 62
     7
 10
-343.3163659508
 20
2037.1688649412
 30
0.0
 11
-345.9733778977
 21
2036.9001264168
 31
0.0
  0
ARC
  5
155
  8
1
  6
CONTINUOUS
 62
     7
 10
-341.3829519508
 20
2012.0873189412
 30
0.0
 40
25.091941
 50
72.549626
 51
81.055717
  0
LINE
  5
156
  8
1
  6
CONTINUOUS
 62
     7
 10
-411.6298142821
 20
2043.5144569412
 30
0.0
 11
-404.6298142821
 21
2043.5144569412
 31
0.0
  0
ARC
  5
157
  8
1
  6
CONTINUOUS
 62
     7
 10
-341.7262799508
 20
2009.1896749412
 30
0.0
 40
28.024336
 50
111.614335
 51
68.38566500000002
  0
ARC
  5
158
  8
1
  6
CONTINUOUS
 62
     7
 10
-341.7262799508
 20
2067.6896749412
 30
0.0
 40
30.0
 50
262.978336
 51
277.021664
  0
LINE
  5
159
  8
1
  6
CONTINUOUS
 62
     7
 10
-411.6298142821
 20
2046.5144569412
 30
0.0
 11
-404.6298142821
 21
2046.5144569412
 31
0.0
  0
ARC
  5
15A
  8
1
  6
CONTINUOUS
 62
     7
 10
-342.2175519508
 20
2013.2048389412
 30
0.0
 40
24.328525
 50
99.052066
 51
107.977219
  0
ARC
  5
15B
  8
1
  6
CONTINUOUS
 62
     7
 10
-342.0270869508
 20
2011.9059929412
 30
0.0
 40
25.277677
 50
98.97559
 51
107.419067
  0
ARC
  5
15C
  8
1
  6
CONTINUOUS
 62
     7
 10
-341.2946299508
 20
2012.9567739412
 30
0.0
 40
24.58289
 50
72.069048
 51
80.901667
  0
LINE
  5
15D
  8
1
  6
CONTINUOUS
 62
     7
 10
-331.4553789508
 20
2035.5784369412
 30
0.0
 11
-328.7778199508
 21
2034.4404179412
 31
0.0
  0
LINE
  5
15E
  8
1
  6
CONTINUOUS
 62
     7
 10
-340.1361939508
 20
2037.1688649412
 30
0.0
 11
-343.3163659508
 21
2037.1688649412
 31
0.0
  0
ARC
  5
15F
  8
1
  6
CONTINUOUS
 62
     7
 10
-341.7262799508
 20
2009.1896749412
 30
0.0
 40
28.762857
 50
116.463446
 51
63.53655400000002
  0
LINE
  5
160
  8
1
  6
CONTINUOUS
 62
     7
 10
-405.3798142821
 20
2043.0144569412
 30
0.0
 11
-410.8798142821
 21
2043.0144569412
 31
0.0
  0
LINE
  5
161
  8
1
  6
CONTINUOUS
 62
     7
 10
-405.6298142821
 20
2038.0144569412
 30
0.0
 11
-410.6298142821
 21
2038.0144569412
 31
0.0
  0
ARC
  5
162
  8
1
  6
CONTINUOUS
 62
     7
 10
-341.7262799508
 20
2009.1896749412
 30
0.0
 40
28.760885
 50
116.466918
 51
63.53308199999998
  0
LINE
  5
163
  8
1
  6
CONTINUOUS
 62
     7
 10
-333.7262799508
 20
2036.3456289412
 30
0.0
 11
-331.4553789508
 21
2035.5784369412
 31
0.0
  0
LINE
  5
164
  8
1
  6
CONTINUOUS
 62
     7
 10
-404.1298142821
 20
2046.3456769412
 30
0.0
 11
-404.1298142821
 21
2043.6832359412
 31
0.0
  0
LINE
  5
165
  8
1
  6
CONTINUOUS
 62
     7
 10
-351.9971809508
 20
2035.5784369412
 30
0.0
 11
-349.7262799508
 21
2036.3456289412
 31
0.0
  0
LINE
  5
166
  8
1
  6
CONTINUOUS
 62
     7
 10
-349.5941699508
 20
2036.0244549412
 30
0.0
 11
-352.0492449508
 21
2035.2434629412
 31
0.0
  0
LINE
  5
167
  8
1
  6
CONTINUOUS
 62
     7
 10
-340.0917908367
 20
2037.4256405095
 30
0.0
 11
-337.4073539508
 21
2037.2303719412
 31
0.0
  0
LINE
  5
168
  8
1
  6
CONTINUOUS
 62
     7
 10
-328.7776109508
 20
2034.4491949412
 30
0.0
 11
-329.5276809508
 21
2037.2484949412
 31
0.0
  0
LINE
  5
169
  8
1
  6
CONTINUOUS
 62
     7
 10
-406.6298142821
 20
2041.7644569412
 30
0.0
 11
-409.6298142821
 21
2041.7644569412
 31
0.0
  0
LINE
  5
16A
  8
1
  6
CONTINUOUS
 62
     7
 10
-346.0452059508
 20
2037.2303719412
 30
0.0
 11
-343.3607690648
 21
2037.4256405095
 31
0.0
  0
LINE
  5
16B
  8
1
  6
CONTINUOUS
 62
     7
 10
-406.6298142821
 20
2041.2644569412
 30
0.0
 11
-409.6298142821
 21
2041.2644569412
 31
0.0
  0
LINE
  5
16C
  8
1
  6
CONTINUOUS
 62
     7
 10
-410.8408862821
 20
2040.0144569412
 30
0.0
 11
-410.3798142821
 21
2040.5144569412
 31
0.0
  0
LINE
  5
16D
  8
1
  6
CONTINUOUS
 62
     7
 10
-405.6412252821
 20
2038.0144569412
 30
0.0
 11
-405.4187422821
 21
2038.5144569412
 31
0.0
  0
ARC
  5
16E
  8
1
  6
CONTINUOUS
 62
     7
 10
-404.6298142821
 20
2044.3394569412
 30
0.0
 40
0.825
 50
270.0
 51
307.305183
  0
ARC
  5
16F
  8
1
  6
CONTINUOUS
 62
     7
 10
-411.6298142821
 20
2044.3394569412
 30
0.0
 40
0.825
 50
232.694817
 51
270.0
  0
ARC
  5
170
  8
1
  6
CONTINUOUS
 62
     7
 10
-411.6298142821
 20
2045.6894569412
 30
0.0
 40
0.825
 50
90.0
 51
127.305183
  0
ARC
  5
171
  8
1
  6
CONTINUOUS
 62
     7
 10
-404.6298142821
 20
2045.6894569412
 30
0.0
 40
0.825
 50
52.694817
 51
90.0
  0
LINE
  5
172
  8
1
  6
CONTINUOUS
 62
     7
 10
-343.3557239508
 20
2037.3562769412
 30
0.0
 11
-340.0968359508
 21
2037.3562769412
 31
0.0
  0
LINE
  5
173
  8
1
  6
CONTINUOUS
 62
     7
 10
-405.8798142821
 20
2040.5144569412
 30
0.0
 11
-405.4187422821
 21
2040.0144569412
 31
0.0
  0
LINE
  5
174
  8
1
  6
CONTINUOUS
 62
     7
 10
-405.3798142821
 20
2043.0144569412
 30
0.0
 11
-405.3798142821
 21
2043.5144569412
 31
0.0
  0
LINE
  5
175
  8
1
  6
CONTINUOUS
 62
     7
 10
-410.8798142821
 20
2043.5144569412
 30
0.0
 11
-410.8798142821
 21
2043.0144569412
 31
0.0
  0
LINE
  5
176
  8
1
  6
CONTINUOUS
 62
     7
 10
-354.6774139508
 20
2034.4486949412
 30
0.0
 11
-351.9971809508
 21
2035.5784369412
 31
0.0
  0
LINE
  5
177
  8
1
  6
CONTINUOUS
 62
     7
 10
-412.3284131084
 20
2037.2484939863
 30
0.0
 11
-412.4152208966
 21
2036.5459313601
 31
0.0
  0
LINE
  5
178
  8
1
  6
CONTINUOUS
 62
     7
 10
-337.4818099508
 20
2036.8741419412
 30
0.0
 11
-338.0197379508
 21
2036.9547999412
 31
0.0
  0
CIRCLE
  5
179
  8
1
  6
CONTINUOUS
 62
     7
 10
-341.7262799508
 20
2009.1896749412
 30
0.0
 40
20.0
  0
LINE
  5
17A
  8
1
  6
CONTINUOUS
 62
     7
 10
-410.8408862821
 20
2038.5144569412
 30
0.0
 11
-410.6184032821
 21
2038.0144569412
 31
0.0
  0
LINE
  5
17B
  8
1
  6
CONTINUOUS
 62
     7
 10
-405.4187422821
 20
2040.0144569412
 30
0.0
 11
-405.4187422821
 21
2038.5144569412
 31
0.0
  0
LINE
  5
17C
  8
1
  6
CONTINUOUS
 62
     7
 10
-410.8798142821
 20
2043.0144569412
 30
0.0
 11
-409.6298142821
 21
2041.7644569412
 31
0.0
  0
LINE
  5
17D
  8
1
  6
CONTINUOUS
 62
     7
 10
-406.6298142821
 20
2041.7644569412
 30
0.0
 11
-405.3798142821
 21
2043.0144569412
 31
0.0
  0
LINE
  5
17E
  8
1
  6
CONTINUOUS
 62
     7
 10
-405.8798142821
 20
2040.5144569412
 30
0.0
 11
-406.6298142821
 21
2041.2644569412
 31
0.0
  0
LINE
  5
17F
  8
1
  6
CONTINUOUS
 62
     7
 10
-409.6298142821
 20
2041.2644569412
 30
0.0
 11
-410.3798142821
 21
2040.5144569412
 31
0.0
  0
ARC
  5
180
  8
1
  6
CONTINUOUS
 62
     7
 10
-346.6160649508
 20
2027.9896749412
 30
0.0
 40
10.0
 50
82.978336
 51
90.0
  0
LINE
  5
181
  8
1
  6
CONTINUOUS
 62
     7
 10
-410.8408862821
 20
2038.5144569412
 30
0.0
 11
-410.8408862821
 21
2040.0144569412
 31
0.0
  0
LINE
  5
182
  8
1
  6
CONTINUOUS
 62
     7
 10
-405.6298142821
 20
2037.9896749412
 30
0.0
 11
-405.6298142821
 21
2038.0144569412
 31
0.0
  0
CIRCLE
  5
183
  8
1
  6
CONTINUOUS
 62
     7
 10
-341.7262799508
 20
2009.1896749412
 30
0.0
 40
26.3
  0
LINE
  5
184
  8
1
  6
CONTINUOUS
 62
     7
 10
-331.4033149508
 20
2035.2434629412
 30
0.0
 11
-333.8583899508
 21
2036.0244549412
 31
0.0
  0
ARC
  5
185
  8
1
  6
CONTINUOUS
 62
     7
 10
-336.8364949508
 20
2027.9896749412
 30
0.0
 40
10.0
 50
90.0
 51
97.021664
  0
LINE
  5
186
  8
1
  6
CONTINUOUS
 62
     7
 10
-346.6160649508
 20
2037.9896749412
 30
0.0
 11
-352.9589529508
 21
2037.9896749412
 31
0.0
  0
LINE
  5
187
  8
1
  6
CONTINUOUS
 62
     7
 10
-338.0197379508
 20
2036.9547999412
 30
0.0
 11
-340.1361939508
 21
2037.1688649412
 31
0.0
  0
ARC
  5
188
  8
1
  6
CONTINUOUS
 62
     7
 10
-352.9589529508
 20
2036.9896749412
 30
0.0
 40
1.0
 50
90.0
 51
165.0
  0
LINE
  5
189
  8
1
  6
CENTER
 62
     5
 10
-341.7262799508
 20
2052.438826284
 30
0.0
 11
-341.7262799508
 21
1976.8272271506
 31
0.0
  0
CIRCLE
  5
18A
  8
1
  6
CONTINUOUS
 62
     7
 10
-341.7262799508
 20
2009.1896749412
 30
0.0
 40
22.4
  0
CIRCLE
  5
18B
  8
1
  6
CONTINUOUS
 62
     7
 10
-757.084390324
 20
2009.1896749412
 30
0.0
 40
35.0
  0
LINE
  5
18C
  8
1
  6
CONTINUOUS
 62
     7
 10
-438.5524642821
 20
1982.3893529412
 30
0.0
 11
-434.4251842821
 21
1981.8896749412
 31
0.0
  0
CIRCLE
  5
18D
  8
1
  6
CONTINUOUS
 62
     7
 10
-341.7262799508
 20
2009.1896749412
 30
0.0
 40
24.294898
  0
LINE
  5
18E
  8
1
  6
CONTINUOUS
 62
     7
 10
-336.8364949508
 20
2037.9896749412
 30
0.0
 11
-330.4936069508
 21
2037.9896749412
 31
0.0
  0
LINE
  5
18F
  8
1
  6
CONTINUOUS
 62
     7
 10
-353.9248789508
 20
2037.2484949412
 30
0.0
 11
-354.6748659508
 21
2034.4495049412
 31
0.0
  0
ARC
  5
190
  8
1
  6
CONTINUOUS
 62
     7
 10
-330.4936069508
 20
2036.9896749412
 30
0.0
 40
1.0
 50
15.0
 51
90.0
  0
ARC
  5
191
  8
1
  6
CONTINUOUS
 62
     7
 10
-346.2262799508
 20
2045.6894569412
 30
0.0
 40
0.825
 50
52.694817
 51
90.0
  0
LINE
  5
192
  8
1
  6
CONTINUOUS
 62
     7
 10
-409.6298142821
 20
2041.7644569412
 30
0.0
 11
-409.6298142821
 21
2041.2644569412
 31
0.0
  0
LINE
  5
193
  8
1
  6
CONTINUOUS
 62
     7
 10
-337.7262799508
 20
2043.6832359412
 30
0.0
 11
-337.7262799508
 21
2046.3456769412
 31
0.0
  0
LINE
  5
194
  8
1
  6
CONTINUOUS
 62
     7
 10
-337.2262799508
 20
2046.5144569412
 30
0.0
 11
-330.2262799508
 21
2046.5144569412
 31
0.0
  0
LINE
  5
195
  8
1
  6
CONTINUOUS
 62
     7
 10
-332.2262799508
 20
2041.7644569412
 30
0.0
 11
-335.2262799508
 21
2041.7644569412
 31
0.0
  0
LINE
  5
196
  8
1
  6
CONTINUOUS
 62
     7
 10
-332.2262799508
 20
2041.2644569412
 30
0.0
 11
-335.2262799508
 21
2041.2644569412
 31
0.0
  0
LINE
  5
197
  8
1
  6
CONTINUOUS
 62
     7
 10
-337.2262799508
 20
2043.5144569412
 30
0.0
 11
-330.2262799508
 21
2043.5144569412
 31
0.0
  0
LINE
  5
198
  8
1
  6
CONTINUOUS
 62
     7
 10
-411.5354792821
 20
2047.5927129412
 30
0.0
 11
-411.6298142821
 21
2046.5144569412
 31
0.0
  0
ARC
  5
199
  8
1
  6
CONTINUOUS
 62
     7
 10
-405.7203442821
 20
2047.5055569412
 30
0.0
 40
1.0
 50
5.0
 51
80.9590607153
  0
LINE
  5
19A
  8
1
  6
CONTINUOUS
 62
     7
 10
-353.2262799508
 20
2043.5144569412
 30
0.0
 11
-346.2262799508
 21
2043.5144569412
 31
0.0
  0
LINE
  5
19B
  8
1
  6
CONTINUOUS
 62
     7
 10
-351.2262799508
 20
2041.2644569412
 30
0.0
 11
-351.9762799508
 21
2040.5144569412
 31
0.0
  0
LINE
  5
19C
  8
1
  6
CONTINUOUS
 62
     7
 10
-347.2262799508
 20
2037.9896749412
 30
0.0
 11
-347.2262799508
 21
2038.0144569412
 31
0.0
  0
LINE
  5
19D
  8
1
  6
CONTINUOUS
 62
     7
 10
-346.2262799508
 20
2046.5144569412
 30
0.0
 11
-346.3206149508
 21
2047.5927129412
 31
0.0
  0
LINE
  5
19E
  8
1
  6
CONTINUOUS
 62
     7
 10
-406.6298142821
 20
2041.2644569412
 30
0.0
 11
-406.6298142821
 21
2041.7644569412
 31
0.0
  0
ARC
  5
19F
  8
1
  6
CONTINUOUS
 62
     7
 10
-410.5392842821
 20
2047.5055569412
 30
0.0
 40
1.0
 50
99.04093928470003
 51
175.0
  0
ARC
  5
1A0
  8
1
  6
CONTINUOUS
 62
     7
 10
-347.3168099508
 20
2047.5055569412
 30
0.0
 40
1.0
 50
5.0
 51
80.9590607153
  0
ARC
  5
1A1
  8
1
  6
CONTINUOUS
 62
     7
 10
-352.1357499508
 20
2047.5055569412
 30
0.0
 40
1.0
 50
99.04093928470003
 51
175.0
  0
LINE
  5
1A2
  8
1
  6
CONTINUOUS
 62
     7
 10
-329.7262799508
 20
2046.3456769412
 30
0.0
 11
-329.7262799508
 21
2043.6832359412
 31
0.0
  0
LINE
  5
1A3
  8
1
  6
CONTINUOUS
 62
     7
 10
-347.0152079508
 20
2040.0144569412
 30
0.0
 11
-347.0152079508
 21
2038.5144569412
 31
0.0
  0
LINE
  5
1A4
  8
1
  6
CONTINUOUS
 62
     7
 10
-351.2262799508
 20
2041.7644569412
 30
0.0
 11
-351.2262799508
 21
2041.2644569412
 31
0.0
  0
LINE
  5
1A5
  8
1
  6
CONTINUOUS
 62
     7
 10
-352.4762799508
 20
2043.5144569412
 30
0.0
 11
-352.4762799508
 21
2043.0144569412
 31
0.0
  0
LINE
  5
1A6
  8
1
  6
CONTINUOUS
 62
     7
 10
-352.4373519508
 20
2040.0144569412
 30
0.0
 11
-351.9762799508
 21
2040.5144569412
 31
0.0
  0
LINE
  5
1A7
  8
1
  6
CONTINUOUS
 62
     7
 10
-348.2262799508
 20
2041.2644569412
 30
0.0
 11
-348.2262799508
 21
2041.7644569412
 31
0.0
  0
LINE
  5
1A8
  8
1
  6
CONTINUOUS
 62
     7
 10
-331.2262799508
 20
2038.0144569412
 30
0.0
 11
-336.2262799508
 21
2038.0144569412
 31
0.0
  0
LINE
  5
1A9
  8
1
  6
CONTINUOUS
 62
     7
 10
-348.2262799508
 20
2041.2644569412
 30
0.0
 11
-351.2262799508
 21
2041.2644569412
 31
0.0
  0
LINE
  5
1AA
  8
1
  6
CONTINUOUS
 62
     7
 10
-353.2262799508
 20
2046.5144569412
 30
0.0
 11
-346.2262799508
 21
2046.5144569412
 31
0.0
  0
LINE
  5
1AB
  8
1
  6
CONTINUOUS
 62
     7
 10
-330.9762799508
 20
2043.0144569412
 30
0.0
 11
-336.4762799508
 21
2043.0144569412
 31
0.0
  0
LINE
  5
1AC
  8
1
  6
CONTINUOUS
 62
     7
 10
-347.4762799508
 20
2040.5144569412
 30
0.0
 11
-347.0152079508
 21
2040.0144569412
 31
0.0
  0
ARC
  5
1AD
  8
1
  6
CONTINUOUS
 62
     7
 10
-408.1298142821
 20
2032.3627977818
 30
0.0
 40
16.3332547308
 50
80.9590607153
 51
99.04093928470003
  0
LINE
  5
1AE
  8
1
  6
CONTINUOUS
 62
     7
 10
-352.4373519508
 20
2038.5144569412
 30
0.0
 11
-352.2148689508
 21
2038.0144569412
 31
0.0
  0
LINE
  5
1AF
  8
1
  6
CONTINUOUS
 62
     7
 10
-346.9762799508
 20
2043.0144569412
 30
0.0
 11
-346.9762799508
 21
2043.5144569412
 31
0.0
  0
LINE
  5
1B0
  8
1
  6
CONTINUOUS
 62
     7
 10
-352.4373519508
 20
2038.5144569412
 30
0.0
 11
-352.4373519508
 21
2040.0144569412
 31
0.0
  0
LINE
  5
1B1
  8
1
  6
CONTINUOUS
 62
     7
 10
-347.2376909508
 20
2038.0144569412
 30
0.0
 11
-347.0152079508
 21
2038.5144569412
 31
0.0
  0
ARC
  5
1B2
  8
1
  6
CONTINUOUS
 62
     7
 10
-353.2262799508
 20
2044.3394569412
 30
0.0
 40
0.825
 50
232.694817
 51
270.0
  0
LINE
  5
1B3
  8
1
  6
CONTINUOUS
 62
     7
 10
-345.7262799508
 20
2046.3456769412
 30
0.0
 11
-345.7262799508
 21
2043.6832359412
 31
0.0
  0
LINE
  5
1B4
  8
1
  6
CONTINUOUS
 62
     7
 10
-352.4762799508
 20
2043.0144569412
 30
0.0
 11
-351.2262799508
 21
2041.7644569412
 31
0.0
  0
ARC
  5
1B5
  8
1
  6
CONTINUOUS
 62
     7
 10
-353.2262799508
 20
2045.6894569412
 30
0.0
 40
0.825
 50
90.0
 51
127.305183
  0
LINE
  5
1B6
  8
1
  6
CONTINUOUS
 62
     7
 10
-353.7262799508
 20
2043.6832359412
 30
0.0
 11
-353.7262799508
 21
2046.3456769412
 31
0.0
  0
LINE
  5
1B7
  8
1
  6
CONTINUOUS
 62
     7
 10
-347.4762799508
 20
2040.5144569412
 30
0.0
 11
-348.2262799508
 21
2041.2644569412
 31
0.0
  0
LINE
  5
1B8
  8
1
  6
CONTINUOUS
 62
     7
 10
-410.6298142821
 20
2038.0144569412
 30
0.0
 11
-410.6298142821
 21
2037.9896749412
 31
0.0
  0
LINE
  5
1B9
  8
1
  6
CONTINUOUS
 62
     7
 10
-346.9762799508
 20
2043.0144569412
 30
0.0
 11
-352.4762799508
 21
2043.0144569412
 31
0.0
  0
LINE
  5
1BA
  8
1
  6
CONTINUOUS
 62
     7
 10
-404.6298142821
 20
2046.5144569412
 30
0.0
 11
-404.7241492821
 21
2047.5927129412
 31
0.0
  0
LINE
  5
1BB
  8
1
  6
CONTINUOUS
 62
     7
 10
-347.2262799508
 20
2038.0144569412
 30
0.0
 11
-352.2262799508
 21
2038.0144569412
 31
0.0
  0
ARC
  5
1BC
  8
1
  6
CONTINUOUS
 62
     7
 10
-346.2262799508
 20
2044.3394569412
 30
0.0
 40
0.825
 50
270.0
 51
307.305183
  0
LINE
  5
1BD
  8
1
  6
CONTINUOUS
 62
     7
 10
-348.2262799508
 20
2041.7644569412
 30
0.0
 11
-346.9762799508
 21
2043.0144569412
 31
0.0
  0
LINE
  5
1BE
  8
1
  6
CONTINUOUS
 62
     7
 10
-352.2262799508
 20
2038.0144569412
 30
0.0
 11
-352.2262799508
 21
2037.9896749412
 31
0.0
  0
LINE
  5
1BF
  8
1
  6
CONTINUOUS
 62
     7
 10
-353.1319449508
 20
2047.5927129412
 30
0.0
 11
-353.2262799508
 21
2046.5144569412
 31
0.0
  0
LINE
  5
1C0
  8
1
  6
CONTINUOUS
 62
     7
 10
-348.2262799508
 20
2041.7644569412
 30
0.0
 11
-351.2262799508
 21
2041.7644569412
 31
0.0
  0
ARC
  5
1C1
  8
1
  6
CONTINUOUS
 62
     7
 10
-349.7262799508
 20
2032.3627977818
 30
0.0
 40
16.3332547308
 50
80.9590607153
 51
99.04093928470003
  0
TEXT
  5
1C2
  8
1
  6
CONTINUOUS
 62
     5
 10
-357.9679300916404
 20
1963.073624909091
 30
0.0
 40
3.5
  1
ＬＰＫＨ－４２Ｐ
 41
0.996045
 51
15.0
  0
ARC
  5
1C3
  8
1
  6
CONTINUOUS
 62
     7
 10
-652.6298142821
 20
2033.1896749412
 30
0.0
 40
0.4999999999999449
 50
270.0
 51
0.0
  0
LINE
  5
1C4
  8
1
  6
CONTINUOUS
 62
     7
 10
-561.6298142821
 20
2044.1896749412
 30
0.0
 11
-587.1298142821
 21
2044.1896749412
 31
0.0
  0
LINE
  5
1C5
  8
1
  6
CONTINUOUS
 62
     7
 10
-652.1298142821
 20
1983.1896749412
 30
0.0
 11
-652.1298142821
 21
2035.1896749412
 31
0.0
  0
LINE
  5
1C6
  8
1
  6
CONTINUOUS
 62
     7
 10
-561.6298142821
 20
2011.5972379412
 30
0.0
 11
-582.6298142821
 21
2011.5972379412
 31
0.0
  0
ARC
  5
1C7
  8
1
  6
CONTINUOUS
 62
     7
 10
-561.4199922821
 20
2032.5407179412
 30
0.0
 40
2.863371000000003
 50
14.528387
 51
94.20227600000001
  0
LINE
  5
1C8
  8
1
  6
CONTINUOUS
 62
     7
 10
-582.6298142821
 20
1982.9829579412
 30
0.0
 11
-561.6298142821
 21
1982.9829579412
 31
0.0
  0
LINE
  5
1C9
  8
1
  6
CONTINUOUS
 62
     7
 10
-587.1298142821
 20
1974.1896749412
 30
0.0
 11
-587.1298142821
 21
2044.1896749412
 31
0.0
  0
LINE
  5
1CA
  8
1
  6
CONTINUOUS
 62
     7
 10
-561.6298142821
 20
2035.3963909412
 30
0.0
 11
-582.6298142821
 21
2035.3963909412
 31
0.0
  0
LINE
  5
1CB
  8
1
  6
CONTINUOUS
 62
     7
 10
-652.1298142821
 20
1983.1896749412
 30
0.0
 11
-644.1305243981
 21
1983.1896749412
 31
0.0
  0
ARC
  5
1CC
  8
1
  6
CONTINUOUS
 62
     7
 10
-652.6298142821
 20
1985.1896749412
 30
0.0
 40
0.4999999999999449
 50
0.0
 51
90.0
  0
LINE
  5
1CD
  8
1
  6
CONTINUOUS
 62
     7
 10
-561.6298142821
 20
2011.5910789412
 30
0.0
 11
-561.6298142821
 21
2011.5972379412
 31
0.0
  0
LINE
  5
1CE
  8
1
  6
CONTINUOUS
 62
     7
 10
-654.6298142821
 20
1985.6896749412
 30
0.0
 11
-652.6298142821
 21
1985.6896749412
 31
0.0
  0
LINE
  5
1CF
  8
1
  6
CONTINUOUS
 62
     7
 10
-652.6298142821
 20
2032.6896749412
 30
0.0
 11
-654.6298142821
 21
2032.6896749412
 31
0.0
  0
LINE
  5
1D0
  8
1
  6
CONTINUOUS
 62
     7
 10
-647.1298142821
 20
2035.1896749412
 30
0.0
 11
-652.1298142821
 21
2035.1896749412
 31
0.0
  0
LINE
  5
1D1
  8
1
  6
CONTINUOUS
 62
     7
 10
-549.1297792821
 20
2035.1892269412
 30
0.0
 11
-552.6297792821
 21
2035.1892189412
 31
0.0
  0
LINE
  5
1D2
  8
1
  6
CONTINUOUS
 62
     7
 10
-582.6298142821
 20
2035.2689519412
 30
0.0
 11
-582.6298142821
 21
2044.1361329412
 31
0.0
  0
LINE
  5
1D3
  8
1
  6
CONTINUOUS
 62
     7
 10
-561.6298142821
 20
2006.7821109412
 30
0.0
 11
-561.6298142821
 21
2006.7882699412
 31
0.0
  0
ARC
  5
1D4
  8
1
  6
CONTINUOUS
 62
     7
 10
-561.2682492821001
 20
2021.1366969412
 30
0.0
 40
14.35298100000004
 50
268.556515
 51
279.2127750000001
  0
LINE
  5
1D5
  8
1
  6
CONTINUOUS
 62
     7
 10
-587.1298142821
 20
1974.1896749412
 30
0.0
 11
-561.6298142821
 21
1974.1896749412
 31
0.0
  0
LINE
  5
1D6
  8
1
  6
CONTINUOUS
 62
     7
 10
-582.6298142821
 20
2006.7821109412
 30
0.0
 11
-561.6298142821
 21
2006.7821109412
 31
0.0
  0
LINE
  5
1D7
  8
1
  6
CONTINUOUS
 62
     7
 10
-582.6298142821
 20
1974.2432159412
 30
0.0
 11
-582.6298142821
 21
1983.1103969412
 31
0.0
  0
LINE
  5
1D8
  8
1
  6
CONTINUOUS
 62
     7
 10
-552.9824572821001
 20
2033.1896749412
 30
0.0
 11
-558.9380051113
 21
2033.1896749412
 31
0.0
  0
ARC
  5
1D9
  8
1
  6
CONTINUOUS
 62
     7
 10
-561.4175992821
 20
1985.8352929412
 30
0.0
 40
2.860218000000025
 50
265.745013
 51
345.5243239999999
  0
ARC
  5
1DA
  8
1
  6
CONTINUOUS
 62
     7
 10
-561.3563122821
 20
1993.4284449412
 30
0.0
 40
18.16469300000001
 50
82.852972
 51
90.86272200000002
  0
LINE
  5
1DB
  8
1
  6
CONTINUOUS
 62
     7
 10
-582.6298142821
 20
2011.1248839412
 30
0.0
 11
-582.6298142821
 21
2032.5321529412
 31
0.0
  0
LINE
  5
1DC
  8
1
  6
CONTINUOUS
 62
     7
 10
-558.6298142821
 20
2041.1896749412
 30
0.0
 11
-558.6298142821
 21
1977.1896749412
 31
0.0
  0
LINE
  5
1DD
  8
1
  6
CONTINUOUS
 62
     7
 10
-582.6298142821
 20
1985.8471969412
 30
0.0
 11
-582.6298142821
 21
2007.2544649412
 31
0.0
  0
LINE
  5
1DE
  8
1
  6
CONTINUOUS
 62
     7
 10
-647.1298142821
 20
2014.3840499708
 30
0.0
 11
-647.1298142821
 21
2035.1896749412
 31
0.0
  0
LINE
  5
1DF
  8
1
  6
CONTINUOUS
 62
     7
 10
-549.1294422821
 20
2035.1894249412
 30
0.0
 11
-550.6298142821
 21
2035.1894209412
 31
0.0
  0
LINE
  5
1E0
  8
1
  6
CONTINUOUS
 62
     7
 10
-659.1298142821
 20
1984.1896749412
 30
0.0
 11
-659.1298142821
 21
2034.1896749412
 31
0.0
  0
ARC
  5
1E1
  8
1
  6
CONTINUOUS
 62
     7
 10
-661.6298142821001
 20
1985.1896749412
 30
0.0
 40
0.4999999999999449
 50
90.0
 51
180.0
  0
ARC
  5
1E2
  8
1
  6
CONTINUOUS
 62
     7
 10
-661.6298142821001
 20
2033.1896749412
 30
0.0
 40
0.4999999999999449
 50
180.0
 51
270.0
  0
ARC
  5
1E3
  8
1
  6
CONTINUOUS
 62
     7
 10
-659.6298142821001
 20
1985.1896749412
 30
0.0
 40
0.4999999999999449
 50
0.0
 51
90.0
  0
ARC
  5
1E4
  8
1
  6
CONTINUOUS
 62
     7
 10
-659.6298142821001
 20
2033.1896749412
 30
0.0
 40
0.4999999999999449
 50
270.0
 51
0.0
  0
LINE
  5
1E5
  8
1
  6
CONTINUOUS
 62
     7
 10
-661.6298142821001
 20
1985.6896749412
 30
0.0
 11
-659.6298142821001
 21
1985.6896749412
 31
0.0
  0
LINE
  5
1E6
  8
1
  6
CONTINUOUS
 62
     7
 10
-659.6298142821001
 20
2032.6896749412
 30
0.0
 11
-661.6298142821001
 21
2032.6896749412
 31
0.0
  0
ARC
  5
1E7
  8
1
  6
CONTINUOUS
 62
     7
 10
-654.6298142821
 20
1985.1896749412
 30
0.0
 40
0.4999999999999449
 50
90.0
 51
180.0
  0
LINE
  5
1E8
  8
1
  6
CONTINUOUS
 62
     7
 10
-687.1298142821
 20
1974.2039639412
 30
0.0
 11
-680.3898142821001
 21
1972.3972811045
 31
0.0
  0
LINE
  5
1E9
  8
1
  6
CONTINUOUS
 62
     7
 10
-655.1298142821
 20
1984.1896749412
 30
0.0
 11
-655.1298142821
 21
2034.1896749412
 31
0.0
  0
ARC
  5
1EA
  8
1
  6
CONTINUOUS
 62
     7
 10
-654.6298142821
 20
2033.1896749412
 30
0.0
 40
0.4999999999999449
 50
180.0
 51
270.0
  0
LINE
  5
1EB
  8
1
  6
CONTINUOUS
 62
     7
 10
-662.1298142821
 20
1984.1896749412
 30
0.0
 11
-662.1298142821
 21
2034.1896749412
 31
0.0
  0
LINE
  5
1EC
  8
1
  6
CONTINUOUS
 62
     7
 10
-659.1298142821
 20
1984.1896749412
 30
0.0
 11
-655.1298142821
 21
1984.1896749412
 31
0.0
  0
LINE
  5
1ED
  8
1
  6
CONTINUOUS
 62
     7
 10
-655.1298142821
 20
2034.1896749412
 30
0.0
 11
-659.1298142821
 21
2034.1896749412
 31
0.0
  0
LINE
  5
1EE
  8
1
  6
CONTINUOUS
 62
     7
 10
-543.2666095091
 20
2033.1896749412
 30
0.0
 11
-542.6302767054
 21
2035.1893339412
 31
0.0
  0
LINE
  5
1EF
  8
1
  6
CONTINUOUS
 62
     7
 10
-547.6304602821
 20
1983.1900459412
 30
0.0
 11
-544.1304602821
 21
1983.1900379412
 31
0.0
  0
LINE
  5
1F0
  8
1
  6
CONTINUOUS
 62
     7
 10
-533.7772682821
 20
1985.1896749412
 30
0.0
 11
-534.1304602821
 21
1983.1900379412
 31
0.0
  0
LINE
  5
1F1
  8
1
  6
CONTINUOUS
 62
     7
 10
-542.9824572821
 20
2120.731677891
 30
0.0
 11
-548.9380051113
 21
2120.731677891
 31
0.0
  0
LINE
  5
1F2
  8
1
  6
CONTINUOUS
 62
     7
 10
-529.1297792821
 20
2122.731229891
 30
0.0
 11
-532.6297792821
 21
2122.731221891
 31
0.0
  0
LINE
  5
1F3
  8
1
  6
CONTINUOUS
 62
     7
 10
-532.9824572821
 20
2120.731677891
 30
0.0
 11
-538.9380051113
 21
2120.731677891
 31
0.0
  0
LINE
  5
1F4
  8
1
  6
CONTINUOUS
 62
     7
 10
-537.6304602821
 20
1983.1900459412
 30
0.0
 11
-534.1304602821
 21
1983.1900379412
 31
0.0
  0
LINE
  5
1F5
  8
1
  6
CONTINUOUS
 62
     7
 10
-537.6304602820968
 20
1983.1900459412
 30
0.0
 11
-542.6302762821
 21
2035.1893339412
 31
0.0
  0
LINE
  5
1F6
  8
1
  6
CONTINUOUS
 62
     7
 10
-543.2666095091
 20
2120.731677891
 30
0.0
 11
-542.6302767054
 21
2122.731336891
 31
0.0
  0
LINE
  5
1F7
  8
1
  6
CONTINUOUS
 62
     7
 10
-539.1297792821
 20
2122.731229891
 30
0.0
 11
-542.6297792821
 21
2122.731221891
 31
0.0
  0
LINE
  5
1F8
  8
1
  6
CONTINUOUS
 62
     7
 10
-539.1297792821
 20
2035.1892269412
 30
0.0
 11
-542.6297792821
 21
2035.1892189412
 31
0.0
  0
LINE
  5
1F9
  8
1
  6
CONTINUOUS
 62
     7
 10
-543.7772682821
 20
1985.1896749412
 30
0.0
 11
-544.1304602821
 21
1983.1900379412
 31
0.0
  0
LINE
  5
1FA
  8
1
  6
CONTINUOUS
 62
     7
 10
-543.7772682821
 20
1985.1896749412
 30
0.0
 11
-537.8227278583
 21
1985.1896749412
 31
0.0
  0
LINE
  5
1FB
  8
1
  6
CONTINUOUS
 62
     7
 10
-539.1302762821
 20
2122.731344891
 30
0.0
 11
-534.1304602820657
 21
2070.732040891
 31
0.0
  0
LINE
  5
1FC
  8
1
  6
CONTINUOUS
 62
     7
 10
-543.7772682821
 20
2072.731677891
 30
0.0
 11
-544.1304602821
 21
2070.732040891
 31
0.0
  0
LINE
  5
1FD
  8
1
  6
CONTINUOUS
 62
     7
 10
-533.2666095091
 20
2033.1896749412
 30
0.0
 11
-532.6302767054
 21
2035.1893339412
 31
0.0
  0
LINE
  5
1FE
  8
1
  6
CONTINUOUS
 62
     7
 10
-532.9824572821
 20
2033.1896749412
 30
0.0
 11
-538.9380051113
 21
2033.1896749412
 31
0.0
  0
LINE
  5
1FF
  8
1
  6
CONTINUOUS
 62
     7
 10
-542.9824572821
 20
2033.1896749412
 30
0.0
 11
-548.9380051113
 21
2033.1896749412
 31
0.0
  0
LINE
  5
200
  8
1
  6
CONTINUOUS
 62
     7
 10
-547.6304602821
 20
2070.732048891
 30
0.0
 11
-544.1304602821
 21
2070.732040891
 31
0.0
  0
LINE
  5
201
  8
1
  6
CONTINUOUS
 62
     7
 10
-539.1294422821
 20
2035.1894249412
 30
0.0
 11
-540.6298142821
 21
2035.1894209412
 31
0.0
  0
LINE
  5
202
  8
1
  6
CONTINUOUS
 62
     7
 10
-539.1302762821
 20
2035.1893419412
 30
0.0
 11
-534.1304602820657
 21
1983.1900379412
 31
0.0
  0
LINE
  5
203
  8
1
  6
CONTINUOUS
 62
     7
 10
-537.6304602821
 20
2070.732048891
 30
0.0
 11
-534.1304602821
 21
2070.732040891
 31
0.0
  0
LINE
  5
204
  8
1
  6
CONTINUOUS
 62
     7
 10
-533.7772682821
 20
2072.731677891
 30
0.0
 11
-534.1304602821
 21
2070.732040891
 31
0.0
  0
LINE
  5
205
  8
1
  6
CONTINUOUS
 62
     7
 10
-533.2666095091
 20
2120.731677891
 30
0.0
 11
-532.6302767054
 21
2122.731336891
 31
0.0
  0
LINE
  5
206
  8
1
  6
CONTINUOUS
 62
     7
 10
-331.0152079508
 20
2040.0144569412
 30
0.0
 11
-331.0152079508
 21
2038.5144569412
 31
0.0
  0
LINE
  5
207
  8
1
  6
CONTINUOUS
 62
     7
 10
-332.2262799508
 20
2041.2644569412
 30
0.0
 11
-332.2262799508
 21
2041.7644569412
 31
0.0
  0
LINE
  5
208
  8
1
  6
CONTINUOUS
 62
     7
 10
-336.4373519508
 20
2040.0144569412
 30
0.0
 11
-335.9762799508
 21
2040.5144569412
 31
0.0
  0
ARC
  5
209
  8
1
  6
CONTINUOUS
 62
     7
 10
-337.2262799508
 20
2045.6894569412
 30
0.0
 40
0.825
 50
90.0
 51
127.305183
  0
LINE
  5
20A
  8
1
  6
CONTINUOUS
 62
     7
 10
-336.4373519508
 20
2038.5144569412
 30
0.0
 11
-336.2148689508
 21
2038.0144569412
 31
0.0
  0
LINE
  5
20B
  8
1
  6
CONTINUOUS
 62
     7
 10
-336.4762799508
 20
2043.0144569412
 30
0.0
 11
-335.2262799508
 21
2041.7644569412
 31
0.0
  0
LINE
  5
20C
  8
1
  6
CONTINUOUS
 62
     7
 10
-336.2262799508
 20
2038.0144569412
 30
0.0
 11
-336.2262799508
 21
2037.9896749412
 31
0.0
  0
LINE
  5
20D
  8
1
  6
CONTINUOUS
 62
     7
 10
-337.1319449508
 20
2047.5927129412
 30
0.0
 11
-337.2262799508
 21
2046.5144569412
 31
0.0
  0
LINE
  5
20E
  8
1
  6
CONTINUOUS
 62
     7
 10
-330.2262799508
 20
2046.5144569412
 30
0.0
 11
-330.3206149508
 21
2047.5927129412
 31
0.0
  0
ARC
  5
20F
  8
1
  6
CONTINUOUS
 62
     7
 10
-333.7262799508
 20
2032.3627977818
 30
0.0
 40
16.3332547308
 50
80.9590607153
 51
99.04093928470003
  0
LINE
  5
210
  8
1
  6
CONTINUOUS
 62
     7
 10
-332.2262799508
 20
2041.7644569412
 30
0.0
 11
-330.9762799508
 21
2043.0144569412
 31
0.0
  0
ARC
  5
211
  8
1
  6
CONTINUOUS
 62
     7
 10
-331.3168099508
 20
2047.5055569412
 30
0.0
 40
1.0
 50
5.0
 51
80.9590607153
  0
LINE
  5
212
  8
1
  6
CONTINUOUS
 62
     7
 10
-331.4762799508
 20
2040.5144569412
 30
0.0
 11
-331.0152079508
 21
2040.0144569412
 31
0.0
  0
LINE
  5
213
  8
1
  6
CONTINUOUS
 62
     7
 10
-336.4373519508
 20
2038.5144569412
 30
0.0
 11
-336.4373519508
 21
2040.0144569412
 31
0.0
  0
LINE
  5
214
  8
1
  6
CONTINUOUS
 62
     7
 10
-335.2262799508
 20
2041.2644569412
 30
0.0
 11
-335.9762799508
 21
2040.5144569412
 31
0.0
  0
LINE
  5
215
  8
1
  6
CONTINUOUS
 62
     7
 10
-331.2376909508
 20
2038.0144569412
 30
0.0
 11
-331.0152079508
 21
2038.5144569412
 31
0.0
  0
ARC
  5
216
  8
1
  6
CONTINUOUS
 62
     7
 10
-330.2262799508
 20
2044.3394569412
 30
0.0
 40
0.825
 50
270.0
 51
307.305183
  0
LINE
  5
217
  8
1
  6
CONTINUOUS
 62
     7
 10
-331.2262799508
 20
2037.9896749412
 30
0.0
 11
-331.2262799508
 21
2038.0144569412
 31
0.0
  0
LINE
  5
218
  8
1
  6
CONTINUOUS
 62
     7
 10
-331.4762799508
 20
2040.5144569412
 30
0.0
 11
-332.2262799508
 21
2041.2644569412
 31
0.0
  0
LINE
  5
219
  8
1
  6
CONTINUOUS
 62
     7
 10
-336.4762799508
 20
2043.5144569412
 30
0.0
 11
-336.4762799508
 21
2043.0144569412
 31
0.0
  0
ARC
  5
21A
  8
1
  6
CONTINUOUS
 62
     7
 10
-336.1357499508
 20
2047.5055569412
 30
0.0
 40
1.0
 50
99.04093928470003
 51
175.0
  0
LINE
  5
21B
  8
1
  6
CONTINUOUS
 62
     7
 10
-335.2262799508
 20
2041.7644569412
 30
0.0
 11
-335.2262799508
 21
2041.2644569412
 31
0.0
  0
ARC
  5
21C
  8
1
  6
CONTINUOUS
 62
     7
 10
-330.2262799508
 20
2045.6894569412
 30
0.0
 40
0.825
 50
52.694817
 51
90.0
  0
ARC
  5
21D
  8
1
  6
CONTINUOUS
 62
     7
 10
-337.2262799508
 20
2044.3394569412
 30
0.0
 40
0.825
 50
232.694817
 51
270.0
  0
LINE
  5
21E
  8
1
  6
CONTINUOUS
 62
     7
 10
-330.9762799508
 20
2043.0144569412
 30
0.0
 11
-330.9762799508
 21
2043.5144569412
 31
0.0
  0
ARC
  5
21F
  8
1
  6
CONTINUOUS
 62
     7
 10
-401.6499592821
 20
2124.168492891
 30
0.0
 40
1.0
 50
210.0
 51
265.0
  0
LINE
  5
220
  8
1
  6
CONTINUOUS
 62
     7
 10
-434.4251842821
 20
2124.031677891
 30
0.0
 11
-439.1298142821
 21
2125.031677891
 31
0.0
  0
LINE
  5
221
  8
1
  6
CONTINUOUS
 62
     7
 10
-439.4184892821
 20
2124.518885891
 30
0.0
 11
-438.5524642821
 21
2123.531999891
 31
0.0
  0
LINE
  5
222
  8
1
  6
CONTINUOUS
 62
     7
 10
-438.5524642821
 20
2123.531999891
 30
0.0
 11
-434.4251842821
 21
2124.031677891
 31
0.0
  0
LINE
  5
223
  8
1
  6
CONTINUOUS
 62
     7
 10
-436.3657982821
 20
2100.991061891
 30
0.0
 11
-434.4251843251
 21
2100.0405709027
 31
0.0
  0
LINE
  5
224
  8
1
  6
CONTINUOUS
 62
     7
 10
-434.4251842821
 20
2093.422784891
 30
0.0
 11
-439.4184892821
 21
2092.0634525044
 31
0.0
  0
LINE
  5
225
  8
1
  6
CONTINUOUS
 62
     7
 10
-401.7371142821
 20
2070.291056891
 30
0.0
 11
-400.1298142821
 21
2070.431677891
 31
0.0
  0
LINE
  5
226
  8
1
  6
CONTINUOUS
 62
     7
 10
-400.1298142821
 20
2123.031677891
 30
0.0
 11
-401.7371142821
 21
2123.172298891
 31
0.0
  0
ARC
  5
227
  8
1
  6
CONTINUOUS
 62
     7
 10
-401.6499592821
 20
2069.294862891
 30
0.0
 40
1.0
 50
95.0
 51
150.0
  0
LINE
  5
228
  8
1
  6
CONTINUOUS
 62
     7
 10
-602.9824682821
 20
2120.731677891
 30
0.0
 11
-608.9380051113001
 21
2120.731677891
 31
0.0
  0
LINE
  5
229
  8
1
  6
CONTINUOUS
 62
     7
 10
-623.7772682821
 20
2072.731677891
 30
0.0
 11
-617.8227278583
 21
2072.731677891
 31
0.0
  0
LINE
  5
22A
  8
1
  6
CONTINUOUS
 62
     7
 10
-619.1302762821
 20
2122.731344891
 30
0.0
 11
-622.6302762821
 21
2122.731336891
 31
0.0
  0
LINE
  5
22B
  8
1
  6
CONTINUOUS
 62
     7
 10
-637.6304602821
 20
2070.732048891
 30
0.0
 11
-642.6302762821
 21
2122.731336891
 31
0.0
  0
LINE
  5
22C
  8
1
  6
CONTINUOUS
 62
     7
 10
-617.6304602821
 20
2070.732048891
 30
0.0
 11
-622.6302762821
 21
2122.731336891
 31
0.0
  0
LINE
  5
22D
  8
1
  6
CONTINUOUS
 62
     7
 10
-609.1302762821
 20
2122.731344891
 30
0.0
 11
-612.6302762821
 21
2122.731336891
 31
0.0
  0
LINE
  5
22E
  8
1
  6
CONTINUOUS
 62
     7
 10
-613.2666095091
 20
2120.731677891
 30
0.0
 11
-612.6302767054
 21
2122.731336891
 31
0.0
  0
LINE
  5
22F
  8
1
  6
CONTINUOUS
 62
     7
 10
-603.7772682821
 20
2072.731677891
 30
0.0
 11
-604.1304602821
 21
2070.732040891
 31
0.0
  0
LINE
  5
230
  8
1
  6
CONTINUOUS
 62
     7
 10
-609.1302762821
 20
2122.731344891
 30
0.0
 11
-604.1304602821
 21
2070.732040891
 31
0.0
  0
LINE
  5
231
  8
1
  6
CONTINUOUS
 62
     7
 10
-627.6304602821
 20
2070.732048891
 30
0.0
 11
-632.6302762821
 21
2122.731336891
 31
0.0
  0
LINE
  5
232
  8
1
  6
CONTINUOUS
 62
     7
 10
-597.6304602821
 20
2070.732048891
 30
0.0
 11
-594.1304602821
 21
2070.732040891
 31
0.0
  0
LINE
  5
233
  8
1
  6
CONTINUOUS
 62
     7
 10
-599.1302762821
 20
2122.731344891
 30
0.0
 11
-602.6302762821
 21
2122.731336891
 31
0.0
  0
LINE
  5
234
  8
1
  6
CONTINUOUS
 62
     7
 10
-613.7772682821
 20
2072.731677891
 30
0.0
 11
-614.1304602821
 21
2070.732040891
 31
0.0
  0
LINE
  5
235
  8
1
  6
CONTINUOUS
 62
     7
 10
-593.7772682821
 20
2072.731677891
 30
0.0
 11
-587.8227278583
 21
2072.731677891
 31
0.0
  0
LINE
  5
236
  8
1
  6
CONTINUOUS
 62
     7
 10
-633.2666095091
 20
2120.731677891
 30
0.0
 11
-632.6302767054001
 21
2122.731336891
 31
0.0
  0
LINE
  5
237
  8
1
  6
CONTINUOUS
 62
     7
 10
-643.7772682821
 20
2072.731677891
 30
0.0
 11
-644.1304602821
 21
2070.732040891
 31
0.0
  0
LINE
  5
238
  8
1
  6
CONTINUOUS
 62
     7
 10
-622.9824682821001
 20
2120.731677891
 30
0.0
 11
-628.9380051113
 21
2120.731677891
 31
0.0
  0
LINE
  5
239
  8
1
  6
CONTINUOUS
 62
     7
 10
-627.6304602821
 20
2070.732048891
 30
0.0
 11
-624.1304602821001
 21
2070.732040891
 31
0.0
  0
LINE
  5
23A
  8
1
  6
CONTINUOUS
 62
     7
 10
-647.1298142821
 20
2101.9260529206
 30
0.0
 11
-644.1304602821
 21
2070.732040891
 31
0.0
  0
LINE
  5
23B
  8
1
  6
CONTINUOUS
 62
     7
 10
-603.7772682821
 20
2072.731677891
 30
0.0
 11
-597.8227278583
 21
2072.731677891
 31
0.0
  0
LINE
  5
23C
  8
1
  6
CONTINUOUS
 62
     7
 10
-629.1302762821
 20
2122.731344891
 30
0.0
 11
-624.1304602821001
 21
2070.732040891
 31
0.0
  0
LINE
  5
23D
  8
1
  6
CONTINUOUS
 62
     7
 10
-623.2666095091
 20
2120.731677891
 30
0.0
 11
-622.6302767054001
 21
2122.731336891
 31
0.0
  0
LINE
  5
23E
  8
1
  6
CONTINUOUS
 62
     7
 10
-629.1302762821
 20
2122.731344891
 30
0.0
 11
-632.6302762821
 21
2122.731336891
 31
0.0
  0
LINE
  5
23F
  8
1
  6
CONTINUOUS
 62
     7
 10
-607.6304602821
 20
2070.732048891
 30
0.0
 11
-612.6302762821
 21
2122.731336891
 31
0.0
  0
LINE
  5
240
  8
1
  6
CONTINUOUS
 62
     7
 10
-639.1302762821
 20
2122.731344891
 30
0.0
 11
-634.1304602821001
 21
2070.732040891
 31
0.0
  0
LINE
  5
241
  8
1
  6
CONTINUOUS
 62
     7
 10
-623.7772682821
 20
2072.731677891
 30
0.0
 11
-624.1304602821001
 21
2070.732040891
 31
0.0
  0
LINE
  5
242
  8
1
  6
CONTINUOUS
 62
     7
 10
-612.9824682821
 20
2120.731677891
 30
0.0
 11
-618.9380051113001
 21
2120.731677891
 31
0.0
  0
LINE
  5
243
  8
1
  6
CONTINUOUS
 62
     7
 10
-619.1302762821
 20
2122.731344891
 30
0.0
 11
-614.1304602821
 21
2070.732040891
 31
0.0
  0
LINE
  5
244
  8
1
  6
CONTINUOUS
 62
     7
 10
-613.7772682821
 20
2072.731677891
 30
0.0
 11
-607.8227278583
 21
2072.731677891
 31
0.0
  0
LINE
  5
245
  8
1
  6
CONTINUOUS
 62
     7
 10
-607.6304602821
 20
2070.732048891
 30
0.0
 11
-604.1304602821
 21
2070.732040891
 31
0.0
  0
LINE
  5
246
  8
1
  6
CONTINUOUS
 62
     7
 10
-617.6304602821
 20
2070.732048891
 30
0.0
 11
-614.1304602821
 21
2070.732040891
 31
0.0
  0
LINE
  5
247
  8
1
  6
CONTINUOUS
 62
     7
 10
-643.7772672821
 20
2072.731677891
 30
0.0
 11
-637.8227278583
 21
2072.731677891
 31
0.0
  0
LINE
  5
248
  8
1
  6
CONTINUOUS
 62
     7
 10
-561.6298142821
 20
2122.938393891
 30
0.0
 11
-582.6298142821
 21
2122.938393891
 31
0.0
  0
LINE
  5
249
  8
1
  6
CONTINUOUS
 62
     7
 10
-642.9824682821
 20
2120.731677891
 30
0.0
 11
-647.1298142821
 21
2120.731677891
 31
0.0
  0
LINE
  5
24A
  8
1
  6
CONTINUOUS
 62
     7
 10
-633.7772682821
 20
2072.731677891
 30
0.0
 11
-627.8227278583
 21
2072.731677891
 31
0.0
  0
LINE
  5
24B
  8
1
  6
CONTINUOUS
 62
     7
 10
-632.9824682821
 20
2120.731677891
 30
0.0
 11
-638.9380051113
 21
2120.731677891
 31
0.0
  0
LINE
  5
24C
  8
1
  6
CONTINUOUS
 62
     7
 10
-643.2666095091
 20
2120.731677891
 30
0.0
 11
-642.6302767054
 21
2122.731336891
 31
0.0
  0
ARC
  5
24D
  8
1
  6
CONTINUOUS
 62
     7
 10
-561.6298142821
 20
2128.731677891
 30
0.0
 40
3.000000000000003
 50
0.0
 51
90.0
  0
LINE
  5
24E
  8
1
  6
CONTINUOUS
 62
     7
 10
-558.6298262821
 20
2126.379222891
 30
0.0
 11
-558.6327852821
 21
2126.438388891
 31
0.0
  0
LINE
  5
24F
  8
1
  6
CONTINUOUS
 62
     7
 10
-633.7772682821
 20
2072.731677891
 30
0.0
 11
-634.1304602821001
 21
2070.732040891
 31
0.0
  0
LINE
  5
250
  8
1
  6
CONTINUOUS
 62
     7
 10
-637.6304602821
 20
2070.732048891
 30
0.0
 11
-634.1304602821001
 21
2070.732040891
 31
0.0
  0
LINE
  5
251
  8
1
  6
CONTINUOUS
 62
     7
 10
-582.6298142821
 20
2070.524960891
 30
0.0
 11
-561.6298142821
 21
2070.524960891
 31
0.0
  0
ARC
  5
252
  8
1
  6
CONTINUOUS
 62
     7
 10
-561.6298142821
 20
2064.731677891
 30
0.0
 40
3.000000000000003
 50
270.0
 51
0.0
  0
ARC
  5
253
  8
1
  6
CONTINUOUS
 62
     7
 10
-561.4199922821
 20
2120.082720891
 30
0.0
 40
2.863371000000003
 50
14.528387
 51
94.20227600000001
  0
LINE
  5
254
  8
1
  6
CONTINUOUS
 62
     7
 10
-639.1302762821
 20
2122.731344891
 30
0.0
 11
-642.6302762821
 21
2122.731336891
 31
0.0
  0
LINE
  5
255
  8
1
  6
CONTINUOUS
 62
     7
 10
-527.1298142821
 20
2120.731677891
 30
0.0
 11
-528.9380051113
 21
2120.731677891
 31
0.0
  0
LINE
  5
256
  8
1
  6
CONTINUOUS
 62
     7
 10
-533.7772882821
 20
2072.731677891
 30
0.0
 11
-527.1298142821
 21
2072.731677891
 31
0.0
  0
LINE
  5
257
  8
1
  6
CONTINUOUS
 62
     7
 10
-607.6304602821
 20
1983.1900459412
 30
0.0
 11
-612.6302762821
 21
2035.1893339412
 31
0.0
  0
LINE
  5
258
  8
1
  6
CONTINUOUS
 62
     7
 10
-592.9824682821
 20
2033.1896749412
 30
0.0
 11
-598.9380051113
 21
2033.1896749412
 31
0.0
  0
LINE
  5
259
  8
1
  6
CONTINUOUS
 62
     7
 10
-593.7772682821
 20
1985.1896749412
 30
0.0
 11
-594.1304602821
 21
1983.1900379412
 31
0.0
  0
LINE
  5
25A
  8
1
  6
CONTINUOUS
 62
     7
 10
-599.1302762821
 20
2035.1893419412
 30
0.0
 11
-594.1304602821
 21
1983.1900379412
 31
0.0
  0
LINE
  5
25B
  8
1
  6
CONTINUOUS
 62
     7
 10
-597.6304602821
 20
1983.1900459412
 30
0.0
 11
-602.6302762821
 21
2035.1893339412
 31
0.0
  0
LINE
  5
25C
  8
1
  6
CONTINUOUS
 62
     7
 10
-603.7772682821
 20
1985.1896749412
 30
0.0
 11
-597.8227278583
 21
1985.1896749412
 31
0.0
  0
LINE
  5
25D
  8
1
  6
CONTINUOUS
 62
     7
 10
-609.1302762821
 20
2035.1893419412
 30
0.0
 11
-604.1304602821
 21
1983.1900379412
 31
0.0
  0
LINE
  5
25E
  8
1
  6
CONTINUOUS
 62
     7
 10
-587.6304602821
 20
1983.1900459412
 30
0.0
 11
-587.1298142821
 21
1983.1900447969
 31
0.0
  0
LINE
  5
25F
  8
1
  6
CONTINUOUS
 62
     7
 10
-589.1302762821
 20
2035.1893419412
 30
0.0
 11
-592.6302762821001
 21
2035.1893339412
 31
0.0
  0
LINE
  5
260
  8
1
  6
CONTINUOUS
 62
     7
 10
-607.6304602821
 20
1983.1900459412
 30
0.0
 11
-604.1304602821
 21
1983.1900379412
 31
0.0
  0
LINE
  5
261
  8
1
  6
CONTINUOUS
 62
     7
 10
-587.1298142821
 20
2033.1896749412
 30
0.0
 11
-588.9380051113
 21
2033.1896749412
 31
0.0
  0
LINE
  5
262
  8
1
  6
CONTINUOUS
 62
     7
 10
-593.2666095091
 20
2033.1896749412
 30
0.0
 11
-592.6302767054
 21
2035.1893339412
 31
0.0
  0
LINE
  5
263
  8
1
  6
CONTINUOUS
 62
     7
 10
-603.2666095091
 20
2033.1896749412
 30
0.0
 11
-602.6302767054
 21
2035.1893339412
 31
0.0
  0
LINE
  5
264
  8
1
  6
CONTINUOUS
 62
     7
 10
-627.6304602821
 20
1983.1900459412
 30
0.0
 11
-632.6302762821
 21
2035.1893339412
 31
0.0
  0
LINE
  5
265
  8
1
  6
CONTINUOUS
 62
     7
 10
-599.1302762821
 20
2035.1893419412
 30
0.0
 11
-602.6302762821
 21
2035.1893339412
 31
0.0
  0
LINE
  5
266
  8
1
  6
CONTINUOUS
 62
     7
 10
-593.7772682821
 20
1985.1896749412
 30
0.0
 11
-587.8227278583
 21
1985.1896749412
 31
0.0
  0
LINE
  5
267
  8
1
  6
CONTINUOUS
 62
     7
 10
-647.1298142821
 20
2014.3840499708
 30
0.0
 11
-644.1304602821
 21
1983.1900379412
 31
0.0
  0
LINE
  5
268
  8
1
  6
CONTINUOUS
 62
     7
 10
-589.1302762821
 20
2035.1893419412
 30
0.0
 11
-587.1298142821
 21
2014.3840499708
 31
0.0
  0
LINE
  5
269
  8
1
  6
CONTINUOUS
 62
     7
 10
-613.2666095091
 20
2033.1896749412
 30
0.0
 11
-612.6302767054
 21
2035.1893339412
 31
0.0
  0
LINE
  5
26A
  8
1
  6
CONTINUOUS
 62
     7
 10
-612.9824682821
 20
2033.1896749412
 30
0.0
 11
-618.9380051113001
 21
2033.1896749412
 31
0.0
  0
LINE
  5
26B
  8
1
  6
CONTINUOUS
 62
     7
 10
-597.6304602821
 20
1983.1900459412
 30
0.0
 11
-594.1304602821
 21
1983.1900379412
 31
0.0
  0
LINE
  5
26C
  8
1
  6
CONTINUOUS
 62
     7
 10
-609.1302762821
 20
2035.1893419412
 30
0.0
 11
-612.6302762821
 21
2035.1893339412
 31
0.0
  0
LINE
  5
26D
  8
1
  6
CONTINUOUS
 62
     7
 10
-617.6304602821
 20
1983.1900459412
 30
0.0
 11
-622.6302762821
 21
2035.1893339412
 31
0.0
  0
LINE
  5
26E
  8
1
  6
CONTINUOUS
 62
     7
 10
-602.9824682821
 20
2033.1896749412
 30
0.0
 11
-608.9380051113001
 21
2033.1896749412
 31
0.0
  0
LINE
  5
26F
  8
1
  6
CONTINUOUS
 62
     7
 10
-603.7772682821
 20
1985.1896749412
 30
0.0
 11
-604.1304602821
 21
1983.1900379412
 31
0.0
  0
LINE
  5
270
  8
1
  6
CONTINUOUS
 62
     7
 10
-613.7772682821
 20
1985.1896749412
 30
0.0
 11
-614.1304602821
 21
1983.1900379412
 31
0.0
  0
LINE
  5
271
  8
1
  6
CONTINUOUS
 62
     7
 10
-613.7772682821
 20
1985.1896749412
 30
0.0
 11
-607.8227278583
 21
1985.1896749412
 31
0.0
  0
LINE
  5
272
  8
1
  6
CONTINUOUS
 62
     7
 10
-643.7772682821
 20
1985.1896749412
 30
0.0
 11
-644.1304602821
 21
1983.1900379412
 31
0.0
  0
LINE
  5
273
  8
1
  6
CONTINUOUS
 62
     7
 10
-619.1302762821
 20
2035.1893419412
 30
0.0
 11
-622.6302762821
 21
2035.1893339412
 31
0.0
  0
LINE
  5
274
  8
1
  6
CONTINUOUS
 62
     7
 10
-619.1302762821
 20
2035.1893419412
 30
0.0
 11
-614.1304602821
 21
1983.1900379412
 31
0.0
  0
LINE
  5
275
  8
1
  6
CONTINUOUS
 62
     7
 10
-617.6304602821
 20
1983.1900459412
 30
0.0
 11
-614.1304602821
 21
1983.1900379412
 31
0.0
  0
LINE
  5
276
  8
1
  6
CONTINUOUS
 62
     7
 10
-623.2666095091
 20
2033.1896749412
 30
0.0
 11
-622.6302767054001
 21
2035.1893339412
 31
0.0
  0
LINE
  5
277
  8
1
  6
CONTINUOUS
 62
     7
 10
-553.2666095091
 20
2033.1896749412
 30
0.0
 11
-552.6302767054
 21
2035.1893339412
 31
0.0
  0
LINE
  5
278
  8
1
  6
CONTINUOUS
 62
     7
 10
-529.1302762821
 20
2035.1893419412
 30
0.0
 11
-528.1298142821
 21
2024.7842934998
 31
0.0
  0
LINE
  5
279
  8
1
  6
CONTINUOUS
 62
     7
 10
-553.7772682821
 20
2072.731677891
 30
0.0
 11
-547.8227278583
 21
2072.731677891
 31
0.0
  0
LINE
  5
27A
  8
1
  6
CONTINUOUS
 62
     7
 10
-557.6304602821001
 20
1983.1900459412
 30
0.0
 11
-558.6298142821
 21
1993.5835677148
 31
0.0
  0
LINE
  5
27B
  8
1
  6
CONTINUOUS
 62
     7
 10
-553.7772682821
 20
1985.1896749412
 30
0.0
 11
-547.8227278583
 21
1985.1896749412
 31
0.0
  0
LINE
  5
27C
  8
1
  6
CONTINUOUS
 62
     7
 10
-537.6304602820968
 20
2070.732048891
 30
0.0
 11
-542.6302762821
 21
2122.731336891
 31
0.0
  0
LINE
  5
27D
  8
1
  6
CONTINUOUS
 62
     7
 10
-549.1302762821
 20
2035.1893419412
 30
0.0
 11
-544.1304602820657
 21
1983.1900379412
 31
0.0
  0
LINE
  5
27E
  8
1
  6
CONTINUOUS
 62
     7
 10
-529.1294422821
 20
2035.1894249412
 30
0.0
 11
-532.6302841344894
 21
2035.189415607936
 31
0.0
  0
LINE
  5
27F
  8
1
  6
CONTINUOUS
 62
     7
 10
-553.7772682821
 20
1985.1896749412
 30
0.0
 11
-554.1304602821
 21
1983.1900379412
 31
0.0
  0
LINE
  5
280
  8
1
  6
CONTINUOUS
 62
     7
 10
-558.6298142821
 20
2029.9844152642
 30
0.0
 11
-554.1304602821
 21
1983.1900379412
 31
0.0
  0
LINE
  5
281
  8
1
  6
CENTER
 62
     5
 10
-396.8792047514
 20
2096.731677891
 30
0.0
 11
-700.0
 21
2096.731677891
 31
0.0
  0
LINE
  5
282
  8
1
  6
CONTINUOUS
 62
     7
 10
-543.7772682821
 20
2072.731677891
 30
0.0
 11
-537.8227278583
 21
2072.731677891
 31
0.0
  0
LINE
  5
283
  8
1
  6
CONTINUOUS
 62
     7
 10
-558.6298142821
 20
1985.1896749412
 30
0.0
 11
-557.8227278583
 21
1985.1896749412
 31
0.0
  0
LINE
  5
284
  8
1
  6
CONTINUOUS
 62
     7
 10
-528.1298142821
 20
1988.3834475504
 30
0.0
 11
-532.6302762821
 21
2035.1893339412
 31
0.0
  0
LINE
  5
285
  8
1
  6
CONTINUOUS
 62
     7
 10
-528.1298142821
 20
2075.9254505002
 30
0.0
 11
-532.6302762821
 21
2122.731336891
 31
0.0
  0
LINE
  5
286
  8
1
  6
CONTINUOUS
 62
     7
 10
-528.1298142821
 20
2024.7842934998
 30
0.0
 11
-528.1298142821
 21
1988.3834475504
 31
0.0
  0
LINE
  5
287
  8
1
  6
CONTINUOUS
 62
     7
 10
-587.6304602821
 20
1983.1900459412
 30
0.0
 11
-592.6302762821001
 21
2035.1893339412
 31
0.0
  0
LINE
  5
288
  8
1
  6
CONTINUOUS
 62
     7
 10
-557.6304602821001
 20
1983.1900459412
 30
0.0
 11
-554.1304602821
 21
1983.1900379412
 31
0.0
  0
LINE
  5
289
  8
1
  6
CONTINUOUS
 62
     7
 10
-677.820943583
 20
2046.6706644161
 30
0.0
 11
-680.3898142821001
 21
1972.3972811045
 31
0.0
  0
LINE
  5
28A
  8
1
  6
CONTINUOUS
 62
     7
 10
-529.1302762821
 20
2122.731344891
 30
0.0
 11
-528.1298142821
 21
2112.3262964496
 31
0.0
  0
LINE
  5
28B
  8
1
  6
CONTINUOUS
 62
     7
 10
-547.6304602820968
 20
1983.1900459412
 30
0.0
 11
-552.6302762821
 21
2035.1893339412
 31
0.0
  0
LINE
  5
28C
  8
1
  6
CONTINUOUS
 62
     7
 10
-549.1302762821
 20
2035.1893419412
 30
0.0
 11
-552.6302762821
 21
2035.1893339412
 31
0.0
  0
LINE
  5
28D
  8
1
  6
CENTER
 62
     5
 10
-396.8792047514
 20
2009.1896749412
 30
0.0
 11
-700.0
 21
2009.1896749412
 31
0.0
  0
LINE
  5
28E
  8
1
  6
CONTINUOUS
 62
     7
 10
-442.1298142821
 20
2125.231677891
 30
0.0
 11
-442.1298142821
 21
2068.231677891
 31
0.0
  0
LINE
  5
28F
  8
1
  6
CONTINUOUS
 62
     7
 10
-442.1298142821
 20
2068.231677891
 30
0.0
 11
-527.1298142821
 21
2068.231677891
 31
0.0
  0
LINE
  5
290
  8
1
  6
CONTINUOUS
 62
     7
 10
-471.1298142821
 20
2125.231677891
 30
0.0
 11
-471.1298142821
 21
2068.231677891
 31
0.0
  0
LINE
  5
291
  8
1
  6
CONTINUOUS
 62
     7
 10
-527.1298142821
 20
2125.231677891
 30
0.0
 11
-442.1298142821
 21
2125.231677891
 31
0.0
  0
LINE
  5
292
  8
1
  6
CONTINUOUS
 62
     7
 10
-471.1298142821
 20
2108.5367644186
 30
0.0
 11
-442.1298142821
 21
2108.5367644186
 31
0.0
  0
LINE
  5
293
  8
1
  6
CONTINUOUS
 62
     7
 10
-434.4251842821
 20
2100.040570891
 30
0.0
 11
-439.4184892821
 21
2101.3999032776
 31
0.0
  0
LINE
  5
294
  8
1
  6
CONTINUOUS
 62
     7
 10
-422.6298142821
 20
2069.431677891
 30
0.0
 11
-422.6298142821
 21
2124.031677891
 31
0.0
  0
LINE
  5
295
  8
1
  6
CONTINUOUS
 62
     7
 10
-439.4184892821
 20
2101.8090275583
 30
0.0
 11
-436.3657982821
 21
2100.991061891
 31
0.0
  0
ARC
  5
296
  8
1
  6
CONTINUOUS
 62
     7
 10
-438.0546502821
 20
2101.958889891
 30
0.0
 40
0.498596
 50
183.20919
 51
258.352632
  0
LINE
  5
297
  8
1
  6
CONTINUOUS
 62
     7
 10
-438.5524642821
 20
2101.930977891
 30
0.0
 11
-438.5524642821
 21
2123.531999891
 31
0.0
  0
LINE
  5
298
  8
1
  6
CONTINUOUS
 62
     7
 10
-400.1298142821
 20
2070.431677891
 30
0.0
 11
-400.1298142821
 21
2123.031677891
 31
0.0
  0
LINE
  5
299
  8
1
  6
CONTINUOUS
 62
     7
 10
-420.2497282821
 20
2067.970792891
 30
0.0
 11
-403.6773842821
 21
2068.707341891
 31
0.0
  0
ARC
  5
29A
  8
1
  6
CONTINUOUS
 62
     7
 10
-420.3385292821
 20
2123.494534891
 30
0.0
 40
2.0
 50
87.455196
 51
135.0
  0
LINE
  5
29B
  8
1
  6
CONTINUOUS
 62
     7
 10
-527.1298142821
 20
2068.231677891
 30
0.0
 11
-527.1298142821
 21
2125.231677891
 31
0.0
  0
LINE
  5
29C
  8
1
  6
CONTINUOUS
 62
     7
 10
-471.1298142821
 20
2084.9265913634
 30
0.0
 11
-442.1298142821
 21
2084.9265913634
 31
0.0
  0
LINE
  5
29D
  8
1
  6
CONTINUOUS
 62
     7
 10
-434.4251842821
 20
2093.422784891
 30
0.0
 11
-434.4251842821
 21
2100.040570891
 31
0.0
  0
LINE
  5
29E
  8
1
  6
CONTINUOUS
 62
     7
 10
-439.4184892821
 20
2101.3999032776
 30
0.0
 11
-439.4184892821
 21
2124.518885891
 31
0.0
  0
LINE
  5
29F
  8
1
  6
CONTINUOUS
 62
     7
 10
-403.6773842821
 20
2124.756013891
 30
0.0
 11
-420.2497282821
 21
2125.492562891
 31
0.0
  0
LINE
  5
2A0
  8
1
  6
CONTINUOUS
 62
     7
 10
-533.7772882821
 20
1985.1896749412
 30
0.0
 11
-527.1298142821
 21
1985.1896749412
 31
0.0
  0
LINE
  5
2A1
  8
1
  6
CONTINUOUS
 62
     7
 10
-527.1298142821
 20
2033.1896749412
 30
0.0
 11
-528.9380051113
 21
2033.1896749412
 31
0.0
  0
LINE
  5
2A2
  8
1
  6
CONTINUOUS
 62
     7
 10
-402.5159842821
 20
2123.668492891
 30
0.0
 11
-402.8557592821
 21
2124.257000891
 31
0.0
  0
LINE
  5
2A3
  8
1
  6
CONTINUOUS
 62
     7
 10
-402.8557592821
 20
2069.206354891
 30
0.0
 11
-402.5159842821
 21
2069.794862891
 31
0.0
  0
LINE
  5
2A4
  8
1
  6
CONTINUOUS
 62
     7
 10
-434.4251842821
 20
2069.431677891
 30
0.0
 11
-422.6298142821
 21
2069.431677891
 31
0.0
  0
LINE
  5
2A5
  8
1
  6
CONTINUOUS
 62
     7
 10
-421.7527432821
 20
2124.908748891
 30
0.0
 11
-422.6298142821
 21
2124.031677891
 31
0.0
  0
LINE
  5
2A6
  8
1
  6
CONTINUOUS
 62
     7
 10
-422.6298142821
 20
2124.031677891
 30
0.0
 11
-434.4251842821
 21
2124.031677891
 31
0.0
  0
LINE
  5
2A7
  8
1
  6
CONTINUOUS
 62
     7
 10
-439.1298142821
 20
2125.031677891
 30
0.0
 11
-442.1298142821
 21
2125.031677891
 31
0.0
  0
ARC
  5
2A8
  8
1
  6
CONTINUOUS
 62
     7
 10
-420.3385292821
 20
2069.968820891
 30
0.0
 40
2.0
 50
225.0
 51
272.544804
  0
ARC
  5
2A9
  8
1
  6
CONTINUOUS
 62
     7
 10
-403.7217842821
 20
2123.757000891
 30
0.0
 40
1.0
 50
30.0
 51
87.455196
  0
ARC
  5
2AA
  8
1
  6
CONTINUOUS
 62
     7
 10
-403.7217842821
 20
2069.706354891
 30
0.0
 40
1.0
 50
272.544804
 51
330.0
  0
LINE
  5
2AB
  8
1
  6
CONTINUOUS
 62
     7
 10
-422.6298142821
 20
2069.431677891
 30
0.0
 11
-421.7527432821
 21
2068.554606891
 31
0.0
  0
LINE
  5
2AC
  8
1
  6
CONTINUOUS
 62
     7
 10
-558.6298142821
 20
2117.526418214
 30
0.0
 11
-554.1304602821
 21
2070.732040891
 31
0.0
  0
LINE
  5
2AD
  8
1
  6
CONTINUOUS
 62
     7
 10
-558.6298142821
 20
2072.731677891
 30
0.0
 11
-557.8227278583
 21
2072.731677891
 31
0.0
  0
LINE
  5
2AE
  8
1
  6
CONTINUOUS
 62
     7
 10
-547.6304602820968
 20
2070.732048891
 30
0.0
 11
-552.6302762821
 21
2122.731336891
 31
0.0
  0
LINE
  5
2AF
  8
1
  6
CONTINUOUS
 62
     7
 10
-666.1298142821
 20
1984.1896749412
 30
0.0
 11
-666.1298142821
 21
2034.1896749412
 31
0.0
  0
LINE
  5
2B0
  8
1
  6
CONTINUOUS
 62
     7
 10
-666.1298142821
 20
1984.1896749412
 30
0.0
 11
-662.1298142821
 21
1984.1896749412
 31
0.0
  0
LINE
  5
2B1
  8
1
  6
CONTINUOUS
 62
     7
 10
-662.1298142821
 20
2034.1896749412
 30
0.0
 11
-666.1298142821
 21
2034.1896749412
 31
0.0
  0
LINE
  5
2B2
  8
1
  6
CONTINUOUS
 62
     7
 10
-593.2666095091
 20
2120.731677891
 30
0.0
 11
-592.6302767054
 21
2122.731336891
 31
0.0
  0
ARC
  5
2B3
  8
1
  6
CONTINUOUS
 62
     7
 10
-666.6298142821001
 20
2033.1896749412
 30
0.0
 40
0.4999999999999449
 50
270.0
 51
0.0
  0
ARC
  5
2B4
  8
1
  6
CONTINUOUS
 62
     7
 10
-668.6298142821001
 20
2033.1896749412
 30
0.0
 40
0.4999999999999449
 50
180.0
 51
270.0
  0
LINE
  5
2B5
  8
1
  6
CONTINUOUS
 62
     7
 10
-597.6304602821
 20
2070.732048891
 30
0.0
 11
-602.6302762821
 21
2122.731336891
 31
0.0
  0
LINE
  5
2B6
  8
1
  6
CONTINUOUS
 62
     7
 10
-557.6304602821001
 20
2070.732048891
 30
0.0
 11
-558.6298142821
 21
2081.1255706646
 31
0.0
  0
LINE
  5
2B7
  8
1
  6
CONTINUOUS
 62
     7
 10
-669.1298142821
 20
2034.1896749412
 30
0.0
 11
-673.1298142821
 21
2034.1896749412
 31
0.0
  0
ARC
  5
2B8
  8
1
  6
CONTINUOUS
 62
     7
 10
-666.6298142821001
 20
1985.1896749412
 30
0.0
 40
0.4999999999999449
 50
0.0
 51
90.0
  0
LINE
  5
2B9
  8
1
  6
CONTINUOUS
 62
     7
 10
-673.1298142821
 20
1984.1896749412
 30
0.0
 11
-669.1298142821
 21
1984.1896749412
 31
0.0
  0
LINE
  5
2BA
  8
1
  6
CONTINUOUS
 62
     7
 10
-669.1298142821
 20
1984.1896749412
 30
0.0
 11
-669.1298142821
 21
2034.1896749412
 31
0.0
  0
ARC
  5
2BB
  8
1
  6
CONTINUOUS
 62
     7
 10
-668.6298142821001
 20
1985.1896749412
 30
0.0
 40
0.4999999999999449
 50
90.0
 51
180.0
  0
LINE
  5
2BC
  8
1
  6
CONTINUOUS
 62
     7
 10
-668.6298142821001
 20
1985.6896749412
 30
0.0
 11
-666.6298142821001
 21
1985.6896749412
 31
0.0
  0
LINE
  5
2BD
  8
1
  6
CONTINUOUS
 62
     7
 10
-587.6304602821
 20
2070.732048891
 30
0.0
 11
-592.6302762821001
 21
2122.731336891
 31
0.0
  0
LINE
  5
2BE
  8
1
  6
CONTINUOUS
 62
     7
 10
-592.9824682821
 20
2120.731677891
 30
0.0
 11
-598.9380051113
 21
2120.731677891
 31
0.0
  0
LINE
  5
2BF
  8
1
  6
CONTINUOUS
 62
     7
 10
-599.1302762821
 20
2122.731344891
 30
0.0
 11
-594.1304602821
 21
2070.732040891
 31
0.0
  0
LINE
  5
2C0
  8
1
  6
CONTINUOUS
 62
     7
 10
-603.2666095091
 20
2120.731677891
 30
0.0
 11
-602.6302767054
 21
2122.731336891
 31
0.0
  0
LINE
  5
2C1
  8
1
  6
CONTINUOUS
 62
     7
 10
-589.1302762821
 20
2122.731344891
 30
0.0
 11
-592.6302762821001
 21
2122.731336891
 31
0.0
  0
LINE
  5
2C2
  8
1
  6
CONTINUOUS
 62
     7
 10
-553.7772682821
 20
2072.731677891
 30
0.0
 11
-554.1304602821
 21
2070.732040891
 31
0.0
  0
LINE
  5
2C3
  8
1
  6
CONTINUOUS
 62
     7
 10
-549.1302762821
 20
2122.731344891
 30
0.0
 11
-544.1304602820657
 21
2070.732040891
 31
0.0
  0
LINE
  5
2C4
  8
1
  6
CONTINUOUS
 62
     7
 10
-587.6304602821
 20
2070.732048891
 30
0.0
 11
-587.1298142821
 21
2070.7320477467
 31
0.0
  0
LINE
  5
2C5
  8
1
  6
CONTINUOUS
 62
     7
 10
-587.1298142821
 20
2120.731677891
 30
0.0
 11
-588.9380051113
 21
2120.731677891
 31
0.0
  0
LINE
  5
2C6
  8
1
  6
CONTINUOUS
 62
     7
 10
-593.7772682821
 20
2072.731677891
 30
0.0
 11
-594.1304602821
 21
2070.732040891
 31
0.0
  0
LINE
  5
2C7
  8
1
  6
CONTINUOUS
 62
     7
 10
-549.1302762821
 20
2122.731344891
 30
0.0
 11
-552.6302762821
 21
2122.731336891
 31
0.0
  0
LINE
  5
2C8
  8
1
  6
CONTINUOUS
 62
     7
 10
-589.1302762821
 20
2122.731344891
 30
0.0
 11
-587.1298142821
 21
2101.9260529206
 31
0.0
  0
LINE
  5
2C9
  8
1
  6
CONTINUOUS
 62
     7
 10
-553.2666095091
 20
2120.731677891
 30
0.0
 11
-552.6302767054
 21
2122.731336891
 31
0.0
  0
LINE
  5
2CA
  8
1
  6
CONTINUOUS
 62
     7
 10
-557.6304602821001
 20
2070.732048891
 30
0.0
 11
-554.1304602821
 21
2070.732040891
 31
0.0
  0
LINE
  5
2CB
  8
1
  6
CONTINUOUS
 62
     7
 10
-680.0165410709001
 20
1983.1896749412
 30
0.0
 11
-673.6298142821001
 21
1983.1896749412
 31
0.0
  0
LINE
  5
2CC
  8
1
  6
CONTINUOUS
 62
     7
 10
-666.6298142821001
 20
2032.6896749412
 30
0.0
 11
-668.6298142821001
 21
2032.6896749412
 31
0.0
  0
LINE
  5
2CD
  8
1
  6
CONTINUOUS
 62
     7
 10
-673.6298142821001
 20
2035.1896749412
 30
0.0
 11
-678.2180330402
 21
2035.1896749412
 31
0.0
  0
ARC
  5
2CE
  8
1
  6
CONTINUOUS
 62
     7
 10
-692.1298142821
 20
2043.6896749412
 30
0.0
 40
0.4999999999999449
 50
90.0
 51
180.0
  0
LINE
  5
2CF
  8
1
  6
CONTINUOUS
 62
     7
 10
-673.6298142821001
 20
1983.1896749412
 30
0.0
 11
-673.6298142821001
 21
2035.1896749412
 31
0.0
  0
LINE
  5
2D0
  8
1
  6
CONTINUOUS
 62
     7
 10
-673.6298142821001
 20
1983.1896749412
 30
0.0
 11
-672.6298142821001
 21
1984.1896749412
 31
0.0
  0
LINE
  5
2D1
  8
1
  6
CONTINUOUS
 62
     7
 10
-687.1298142821
 20
1974.1896749412
 30
0.0
 11
-687.1298142821
 21
2044.1753859412
 31
0.0
  0
LINE
  5
2D2
  8
1
  6
CONTINUOUS
 62
     7
 10
-692.1298142821
 20
2044.1896749412
 30
0.0
 11
-687.1298142821
 21
2044.1896749412
 31
0.0
  0
ARC
  5
2D3
  8
1
  6
CONTINUOUS
 62
     7
 10
-692.1298142821
 20
1974.6896749412
 30
0.0
 40
0.4999999999999449
 50
180.0
 51
270.0
  0
LINE
  5
2D4
  8
1
  6
CONTINUOUS
 62
     7
 10
-687.1298142821
 20
2044.1753859412
 30
0.0
 11
-677.820943583
 21
2046.6706644161
 31
0.0
  0
LINE
  5
2D5
  8
1
  6
CONTINUOUS
 62
     7
 10
-672.6298142821001
 20
2034.1896749412
 30
0.0
 11
-672.6298142821001
 21
1984.1896749412
 31
0.0
  0
LINE
  5
2D6
  8
1
  6
CONTINUOUS
 62
     7
 10
-692.1298142821
 20
1974.1896749412
 30
0.0
 11
-687.1298142821
 21
1974.1896749412
 31
0.0
  0
LINE
  5
2D7
  8
1
  6
CONTINUOUS
 62
     7
 10
-692.6298142821
 20
1974.6896749412
 30
0.0
 11
-692.6298142821
 21
2043.6751789412
 31
0.0
  0
LINE
  5
2D8
  8
1
  6
CONTINUOUS
 62
     7
 10
-672.6298142821001
 20
2034.1896749412
 30
0.0
 11
-673.6298142821001
 21
2035.1896749412
 31
0.0
  0
ARC
  5
2D9
  8
1
  6
CONTINUOUS
 62
     7
 10
-438.0546502821
 20
2091.504465891
 30
0.0
 40
0.498596
 50
101.647368
 51
176.7908099999
  0
LINE
  5
2DA
  8
1
  6
CONTINUOUS
 62
     7
 10
-439.4184892821
 20
2092.0634525044
 30
0.0
 11
-439.4184892821
 21
2068.944469891
 31
0.0
  0
LINE
  5
2DB
  8
1
  6
CONTINUOUS
 62
     7
 10
-438.5524642821
 20
2091.532377891
 30
0.0
 11
-438.5524642821
 21
2069.931355891
 31
0.0
  0
LINE
  5
2DC
  8
1
  6
CONTINUOUS
 62
     7
 10
-439.4184892821
 20
2091.6543282237
 30
0.0
 11
-436.3657982821
 21
2092.472293891
 31
0.0
  0
LINE
  5
2DD
  8
1
  6
CONTINUOUS
 62
     7
 10
-439.1298142821
 20
2068.431677891
 30
0.0
 11
-442.1298142821
 21
2068.431677891
 31
0.0
  0
LINE
  5
2DE
  8
1
  6
CONTINUOUS
 62
     7
 10
-434.4251842821
 20
2069.431677891
 30
0.0
 11
-439.1298142821
 21
2068.431677891
 31
0.0
  0
ARC
  5
2DF
  8
1
  6
CONTINUOUS
 62
     7
 10
-666.6298142821001
 20
2120.731677891
 30
0.0
 40
0.4999999999999449
 50
270.0
 51
0.0
  0
ARC
  5
2E0
  8
1
  6
CONTINUOUS
 62
     7
 10
-692.1298142821
 20
2062.231677891
 30
0.0
 40
0.4999999999999449
 50
180.0
 51
270.0
  0
LINE
  5
2E1
  8
1
  6
CONTINUOUS
 62
     7
 10
-687.1298142821
 20
2061.745966891
 30
0.0
 11
-677.820943583
 21
2059.2506884161
 31
0.0
  0
LINE
  5
2E2
  8
1
  6
CONTINUOUS
 62
     7
 10
-687.1298142821
 20
2061.731677891
 30
0.0
 11
-687.1298142821
 21
2131.717388891
 31
0.0
  0
LINE
  5
2E3
  8
1
  6
CONTINUOUS
 62
     7
 10
-659.1298142821
 20
2071.731677891
 30
0.0
 11
-659.1298142821
 21
2121.731677891
 31
0.0
  0
LINE
  5
2E4
  8
1
  6
CONTINUOUS
 62
     7
 10
-655.1298142821
 20
2071.731677891
 30
0.0
 11
-655.1298142821
 21
2121.731677891
 31
0.0
  0
LINE
  5
2E5
  8
1
  6
CONTINUOUS
 62
     7
 10
-687.1298142821
 20
2131.717388891
 30
0.0
 11
-677.820943583
 21
2134.2126673659
 31
0.0
  0
LINE
  5
2E6
  8
1
  6
CONTINUOUS
 62
     7
 10
-666.6298142821001
 20
2120.231677891
 30
0.0
 11
-668.6298142821001
 21
2120.231677891
 31
0.0
  0
LINE
  5
2E7
  8
1
  6
CONTINUOUS
 62
     7
 10
-655.1298142821
 20
2121.731677891
 30
0.0
 11
-659.1298142821
 21
2121.731677891
 31
0.0
  0
ARC
  5
2E8
  8
1
  6
CONTINUOUS
 62
     7
 10
-654.6298142821
 20
2072.731677891
 30
0.0
 40
0.4999999999999449
 50
90.0
 51
180.0
  0
LINE
  5
2E9
  8
1
  6
CONTINUOUS
 62
     7
 10
-673.6298142821001
 20
2070.731677891
 30
0.0
 11
-672.6298142821001
 21
2071.731677891
 31
0.0
  0
LINE
  5
2EA
  8
1
  6
CONTINUOUS
 62
     7
 10
-662.1298142821
 20
2071.731677891
 30
0.0
 11
-662.1298142821
 21
2121.731677891
 31
0.0
  0
ARC
  5
2EB
  8
1
  6
CONTINUOUS
 62
     7
 10
-661.6298142821001
 20
2120.731677891
 30
0.0
 40
0.4999999999999449
 50
180.0
 51
270.0
  0
LINE
  5
2EC
  8
1
  6
CONTINUOUS
 62
     7
 10
-669.1298142821
 20
2121.731677891
 30
0.0
 11
-673.1298142821
 21
2121.731677891
 31
0.0
  0
LINE
  5
2ED
  8
1
  6
CONTINUOUS
 62
     7
 10
-668.6298142821001
 20
2073.231677891
 30
0.0
 11
-666.6298142821001
 21
2073.231677891
 31
0.0
  0
ARC
  5
2EE
  8
1
  6
CONTINUOUS
 62
     7
 10
-668.6298142821001
 20
2072.731677891
 30
0.0
 40
0.4999999999999449
 50
90.0
 51
180.0
  0
LINE
  5
2EF
  8
1
  6
CONTINUOUS
 62
     7
 10
-659.1298142821
 20
2071.731677891
 30
0.0
 11
-655.1298142821
 21
2071.731677891
 31
0.0
  0
LINE
  5
2F0
  8
1
  6
CONTINUOUS
 62
     7
 10
-673.6298142821001
 20
2122.731677891
 30
0.0
 11
-677.820943583
 21
2122.731677891
 31
0.0
  0
ARC
  5
2F1
  8
1
  6
CONTINUOUS
 62
     7
 10
-668.6298142821001
 20
2120.731677891
 30
0.0
 40
0.4999999999999449
 50
180.0
 51
270.0
  0
LINE
  5
2F2
  8
1
  6
CONTINUOUS
 62
     7
 10
-692.1298142821
 20
2131.731677891
 30
0.0
 11
-687.1298142821
 21
2131.731677891
 31
0.0
  0
ARC
  5
2F3
  8
1
  6
CONTINUOUS
 62
     7
 10
-654.6298142821
 20
2120.731677891
 30
0.0
 40
0.4999999999999449
 50
180.0
 51
270.0
  0
LINE
  5
2F4
  8
1
  6
CONTINUOUS
 62
     7
 10
-692.1298142821
 20
2061.731677891
 30
0.0
 11
-687.1298142821
 21
2061.731677891
 31
0.0
  0
ARC
  5
2F5
  8
1
  6
CONTINUOUS
 62
     7
 10
-692.1298142821
 20
2131.231677891
 30
0.0
 40
0.4999999999999449
 50
90.0
 51
180.0
  0
LINE
  5
2F6
  8
1
  6
CONTINUOUS
 62
     7
 10
-673.6298142821001
 20
2070.731677891
 30
0.0
 11
-673.6298142821001
 21
2122.731677891
 31
0.0
  0
LINE
  5
2F7
  8
1
  6
CONTINUOUS
 62
     7
 10
-672.6298142821001
 20
2121.731677891
 30
0.0
 11
-672.6298142821001
 21
2071.731677891
 31
0.0
  0
LINE
  5
2F8
  8
1
  6
CONTINUOUS
 62
     7
 10
-677.820943583
 20
2059.2506884161
 30
0.0
 11
-677.820943583
 21
2134.2126673659
 31
0.0
  0
LINE
  5
2F9
  8
1
  6
CONTINUOUS
 62
     7
 10
-672.6298142821001
 20
2121.731677891
 30
0.0
 11
-673.6298142821001
 21
2122.731677891
 31
0.0
  0
LINE
  5
2FA
  8
1
  6
CONTINUOUS
 62
     7
 10
-677.820943583
 20
2070.731677891
 30
0.0
 11
-673.6298142821001
 21
2070.731677891
 31
0.0
  0
ARC
  5
2FB
  8
1
  6
CONTINUOUS
 62
     7
 10
-666.6298142821001
 20
2072.731677891
 30
0.0
 40
0.4999999999999449
 50
0.0
 51
90.0
  0
LINE
  5
2FC
  8
1
  6
CONTINUOUS
 62
     7
 10
-692.6298142821
 20
2062.231677891
 30
0.0
 11
-692.6298142821
 21
2131.217181891
 31
0.0
  0
LINE
  5
2FD
  8
1
  6
CONTINUOUS
 62
     7
 10
-582.6298142821
 20
2098.666886891
 30
0.0
 11
-582.6298142821
 21
2120.074155891
 31
0.0
  0
ARC
  5
2FE
  8
1
  6
CONTINUOUS
 62
     7
 10
-652.6298142821
 20
2120.731677891
 30
0.0
 40
0.4999999999999449
 50
270.0
 51
0.0
  0
LINE
  5
2FF
  8
1
  6
CONTINUOUS
 62
     7
 10
-652.6298142821
 20
2120.231677891
 30
0.0
 11
-654.6298142821
 21
2120.231677891
 31
0.0
  0
LINE
  5
300
  8
1
  6
CONTINUOUS
 62
     7
 10
-561.6298142821
 20
2094.324113891
 30
0.0
 11
-561.6298142821
 21
2094.330272891
 31
0.0
  0
LINE
  5
301
  8
1
  6
CONTINUOUS
 62
     7
 10
-647.1298142821
 20
2101.9260529206
 30
0.0
 11
-647.1298142821
 21
2122.731677891
 31
0.0
  0
ARC
  5
302
  8
1
  6
CONTINUOUS
 62
     7
 10
-561.2682492821001
 20
2108.678699891
 30
0.0
 40
14.35298100000004
 50
268.556515
 51
279.2127750000001
  0
ARC
  5
303
  8
1
  6
CONTINUOUS
 62
     7
 10
-659.6298142821001
 20
2120.731677891
 30
0.0
 40
0.4999999999999449
 50
270.0
 51
0.0
  0
ARC
  5
304
  8
1
  6
CONTINUOUS
 62
     7
 10
-561.3563122821
 20
2080.970447891
 30
0.0
 40
18.16469300000001
 50
82.852972
 51
90.86272200000002
  0
LINE
  5
305
  8
1
  6
CONTINUOUS
 62
     7
 10
-587.1298142821
 20
2061.731677891
 30
0.0
 11
-561.6298142821
 21
2061.731677891
 31
0.0
  0
LINE
  5
306
  8
1
  6
CONTINUOUS
 62
     7
 10
-561.6298142821
 20
2131.731677891
 30
0.0
 11
-587.1298142821
 21
2131.731677891
 31
0.0
  0
LINE
  5
307
  8
1
  6
CONTINUOUS
 62
     7
 10
-582.6298142821
 20
2094.324113891
 30
0.0
 11
-561.6298142821
 21
2094.324113891
 31
0.0
  0
LINE
  5
308
  8
1
  6
CONTINUOUS
 62
     7
 10
-558.6298142821
 20
2128.731677891
 30
0.0
 11
-558.6298142821
 21
2064.731677891
 31
0.0
  0
LINE
  5
309
  8
1
  6
CONTINUOUS
 62
     7
 10
-561.6298142821
 20
2099.139240891
 30
0.0
 11
-582.6298142821
 21
2099.139240891
 31
0.0
  0
ARC
  5
30A
  8
1
  6
CONTINUOUS
 62
     7
 10
-561.4175992821
 20
2073.377295891
 30
0.0
 40
2.860218000000025
 50
265.745013
 51
345.5243239999999
  0
LINE
  5
30B
  8
1
  6
CONTINUOUS
 62
     7
 10
-528.1298142821
 20
2112.3262964496
 30
0.0
 11
-528.1298142821
 21
2075.9254505002
 31
0.0
  0
LINE
  5
30C
  8
1
  6
CONTINUOUS
 62
     7
 10
-549.1294422821
 20
2122.731427891
 30
0.0
 11
-550.6298142821
 21
2122.731423891
 31
0.0
  0
LINE
  5
30D
  8
1
  6
CONTINUOUS
 62
     7
 10
-552.9824572821001
 20
2120.731677891
 30
0.0
 11
-558.9380051113
 21
2120.731677891
 31
0.0
  0
LINE
  5
30E
  8
1
  6
CONTINUOUS
 62
     7
 10
-561.6298142821
 20
2099.133081891
 30
0.0
 11
-561.6298142821
 21
2099.139240891
 31
0.0
  0
LINE
  5
30F
  8
1
  6
CONTINUOUS
 62
     7
 10
-582.6298142821
 20
2122.810954891
 30
0.0
 11
-582.6298142821
 21
2131.678135891
 31
0.0
  0
ARC
  5
310
  8
1
  6
CONTINUOUS
 62
     7
 10
-659.6298142821001
 20
2072.731677891
 30
0.0
 40
0.4999999999999449
 50
0.0
 51
90.0
  0
LINE
  5
311
  8
1
  6
CONTINUOUS
 62
     7
 10
-647.1298142821
 20
2122.731677891
 30
0.0
 11
-652.1298142821
 21
2122.731677891
 31
0.0
  0
LINE
  5
312
  8
1
  6
CONTINUOUS
 62
     7
 10
-659.6298142821001
 20
2120.231677891
 30
0.0
 11
-661.6298142821001
 21
2120.231677891
 31
0.0
  0
LINE
  5
313
  8
1
  6
CONTINUOUS
 62
     7
 10
-582.6298142821
 20
2073.389199891
 30
0.0
 11
-582.6298142821
 21
2094.796467891
 31
0.0
  0
LINE
  5
314
  8
1
  6
CONTINUOUS
 62
     7
 10
-652.1298142821
 20
2070.731677891
 30
0.0
 11
-652.1298142821
 21
2122.731677891
 31
0.0
  0
LINE
  5
315
  8
1
  6
CONTINUOUS
 62
     7
 10
-661.6298142821001
 20
2073.231677891
 30
0.0
 11
-659.6298142821001
 21
2073.231677891
 31
0.0
  0
ARC
  5
316
  8
1
  6
CONTINUOUS
 62
     7
 10
-652.6298142821
 20
2072.731677891
 30
0.0
 40
0.4999999999999449
 50
0.0
 51
90.0
  0
LINE
  5
317
  8
1
  6
CONTINUOUS
 62
     7
 10
-654.6298142821
 20
2073.231677891
 30
0.0
 11
-652.6298142821
 21
2073.231677891
 31
0.0
  0
LINE
  5
318
  8
1
  6
CONTINUOUS
 62
     7
 10
-652.1298142821
 20
2070.731677891
 30
0.0
 11
-644.1305243981
 21
2070.731677891
 31
0.0
  0
LINE
  5
319
  8
1
  6
CONTINUOUS
 62
     7
 10
-549.1297792821
 20
2122.731229891
 30
0.0
 11
-552.6297792821
 21
2122.731221891
 31
0.0
  0
LINE
  5
31A
  8
1
  6
CONTINUOUS
 62
     7
 10
-582.6298142821
 20
2061.785218891
 30
0.0
 11
-582.6298142821
 21
2070.652399891
 31
0.0
  0
ARC
  5
31B
  8
1
  6
CONTINUOUS
 62
     7
 10
-661.6298142821001
 20
2072.731677891
 30
0.0
 40
0.4999999999999449
 50
90.0
 51
180.0
  0
LINE
  5
31C
  8
1
  6
CONTINUOUS
 62
     7
 10
-587.1298142821
 20
2061.731677891
 30
0.0
 11
-587.1298142821
 21
2131.731677891
 31
0.0
  0
LINE
  5
31D
  8
1
  6
CONTINUOUS
 62
     7
 10
-662.1298142821
 20
2121.731677891
 30
0.0
 11
-666.1298142821
 21
2121.731677891
 31
0.0
  0
LINE
  5
31E
  8
1
  6
CONTINUOUS
 62
     7
 10
-666.1298142821
 20
2071.731677891
 30
0.0
 11
-666.1298142821
 21
2121.731677891
 31
0.0
  0
LINE
  5
31F
  8
1
  6
CONTINUOUS
 62
     7
 10
-666.1298142821
 20
2071.731677891
 30
0.0
 11
-662.1298142821
 21
2071.731677891
 31
0.0
  0
LINE
  5
320
  8
1
  6
CONTINUOUS
 62
     7
 10
-673.1298142821
 20
2071.731677891
 30
0.0
 11
-669.1298142821
 21
2071.731677891
 31
0.0
  0
LINE
  5
321
  8
1
  6
CONTINUOUS
 62
     7
 10
-669.1298142821
 20
2071.731677891
 30
0.0
 11
-669.1298142821
 21
2121.731677891
 31
0.0
  0
ENDSEC
  0
EOF
