  0
SECTION
  2
HEADER
  9
$ACADVER
  1
AC1006
  9
$DWGCODEPAGE
  3
ansi_932
  9
$INSBASE
 10
0.0
 20
0.0
 30
0.0
  9
$EXTMIN
 10
-823.8097478499
 20
0.0
  9
$EXTMAX
 10
6.956136363636363
 20
1901.0208980603
  9
$LIMMIN
 10
0.0
 20
0.0
  9
$LIMMAX
 10
12.0
 20
9.0
  9
$ORTHOMODE
 70
     0
  9
$REGENMODE
 70
     1
  9
$FILLMODE
 70
     1
  9
$QTEXTMODE
 70
     0
  9
$MIRRTEXT
 70
     1
  9
$DRAGMODE
 70
     2
  9
$LTSCALE
 40
1.0
  9
$OSMODE
 70
    37
  9
$ATTMODE
 70
     1
  9
$TEXTSIZE
 40
0.2
  9
$TRACEWID
 40
0.05
  9
$TEXTSTYLE
  7
STANDARD
  9
$CLAYER
  8
0
  9
$CELTYPE
  6
BYLAYER
  9
$CECOLOR
 62
   256
  9
$DIMSCALE
 40
1.0
  9
$DIMASZ
 40
3.0
  9
$DIMEXO
 40
0.0625
  9
$DIMDLI
 40
0.38
  9
$DIMRND
 40
0.0
  9
$DIMDLE
 40
0.0
  9
$DIMEXE
 40
1.5
  9
$DIMTP
 40
0.0
  9
$DIMTM
 40
0.0
  9
$DIMTXT
 40
3.5
  9
$DIMCEN
 40
0.09
  9
$DIMTSZ
 40
0.0
  9
$DIMTOL
 70
     0
  9
$DIMLIM
 70
     0
  9
$DIMTIH
 70
     1
  9
$DIMTOH
 70
     1
  9
$DIMSE1
 70
     0
  9
$DIMSE2
 70
     0
  9
$DIMTAD
 70
     1
  9
$DIMZIN
 70
     0
  9
$DIMBLK
  1

  9
$DIMASO
 70
     1
  9
$DIMSHO
 70
     1
  9
$DIMPOST
  1

  9
$DIMAPOST
  1

  9
$DIMALT
 70
     0
  9
$DIMALTD
 70
     2
  9
$DIMALTF
 40
25.4
  9
$DIMLFAC
 40
1.0
  9
$DIMTOFL
 70
     0
  9
$DIMTVP
 40
0.0
  9
$DIMTIX
 70
     0
  9
$DIMSOXD
 70
     0
  9
$DIMSAH
 70
     0
  9
$DIMBLK1
  1

  9
$DIMBLK2
  1

  9
$LUNITS
 70
     2
  9
$LUPREC
 70
     4
  9
$SKETCHINC
 40
0.1
  9
$FILLETRAD
 40
0.5
  9
$AUNITS
 70
     0
  9
$AUPREC
 70
     0
  9
$MENU
  1
.
  9
$ELEVATION
 40
0.0
  9
$THICKNESS
 40
0.0
  9
$LIMCHECK
 70
     0
  9
$CHAMFERA
 40
0.0
  9
$CHAMFERB
 40
0.0
  9
$SKPOLY
 70
     0
  9
$TDCREATE
 40
2460497.484213113
  9
$TDUPDATE
 40
2460497.484213542
  9
$TDINDWG
 40
0.0000000116
  9
$TDUSRTIMER
 40
0.0000000116
  9
$USRTIMER
 70
     1
  9
$ANGBASE
 50
0.0
  9
$ANGDIR
 70
     0
  9
$PDMODE
 70
     0
  9
$PDSIZE
 40
0.0
  9
$PLINEWID
 40
0.0
  9
$COORDS
 70
     1
  9
$SPLFRAME
 70
     0
  9
$SPLINETYPE
 70
     6
  9
$SPLINESEGS
 70
     8
  9
$ATTDIA
 70
     0
  9
$ATTREQ
 70
     1
  9
$HANDLING
 70
     1
  9
$HANDSEED
  5
358
  9
$SURFTAB1
 70
     6
  9
$SURFTAB2
 70
     6
  9
$SURFTYPE
 70
     6
  9
$SURFU
 70
     6
  9
$SURFV
 70
     6
  9
$UCSNAME
  2

  9
$UCSORG
 10
0.0
 20
0.0
 30
0.0
  9
$UCSXDIR
 10
1.0
 20
0.0
 30
0.0
  9
$UCSYDIR
 10
0.0
 20
1.0
 30
0.0
  9
$USERI1
 70
     0
  9
$USERI2
 70
     0
  9
$USERI3
 70
     0
  9
$USERI4
 70
     0
  9
$USERI5
 70
     0
  9
$USERR1
 40
0.0
  9
$USERR2
 40
0.0
  9
$USERR3
 40
0.0
  9
$USERR4
 40
0.0
  9
$USERR5
 40
0.0
  9
$WORLDVIEW
 70
     1
  0
ENDSEC
  0
SECTION
  2
TABLES
  0
TABLE
  2
VPORT
 70
     1
  0
VPORT
  2
*ACTIVE
 70
     0
 10
0.0
 20
0.0
 11
1.0
 21
1.0
 12
-408.4268057431318
 22
950.51044903015
 13
0.0
 23
0.0
 14
0.5
 24
0.5
 15
0.5
 25
0.5
 16
0.0
 26
0.0
 36
1.0
 17
0.0
 27
0.0
 37
0.0
 40
1901.0208980603
 41
1.6
 42
50.0
 43
0.0
 44
0.0
 50
0.0
 51
0.0
 71
     0
 72
   100
 73
     1
 74
     3
 75
     0
 76
     0
 77
     0
 78
     0
  0
ENDTAB
  0
TABLE
  2
LTYPE
 70
     2
  0
LTYPE
  2
CONTINUOUS
 70
     0
  3
Solid line
 72
    65
 73
     0
 40
0.0
  0
LTYPE
  2
CENTER
 70
     0
  3

 72
    65
 73
     0
 40
0.0
  0
ENDTAB
  0
TABLE
  2
LAYER
 70
     2
  0
LAYER
  2
0
 70
     0
 62
     7
  6
CONTINUOUS
  0
LAYER
  2
1
 70
     0
 62
     7
  6
CONTINUOUS
  0
ENDTAB
  0
TABLE
  2
STYLE
 70
     2
  0
STYLE
  2
STANDARD
 70
     0
 40
0.0
 41
1.0
 50
0.0
 71
     0
 42
0.2
  3
txt
  4

  0
STYLE
  2
ＭＳ_ゴシック
 70
     0
 40
0.0
 41
1.0
 50
0.0
 71
     0
 42
0.2
  3
ＭＳ ゴシック.shx
  4

  0
ENDTAB
  0
TABLE
  2
VIEW
 70
     0
  0
ENDTAB
  0
TABLE
  2
UCS
 70
     0
  0
ENDTAB
  0
ENDSEC
  0
SECTION
  2
BLOCKS
  0
BLOCK
  8
0
  2
D_FRAME_DRAWING_21
 70
     0
 10
0.0
 20
0.0
 30
0.0
  0
LINE
  5
FF
  8
0
  6
CONTINUOUS
 62
     7
 10
0.0
 20
0.0
 30
0.0
 11
420.0
 21
0.0
 31
0.0
  0
LINE
  5
100
  8
0
  6
CONTINUOUS
 62
     7
 10
420.0
 20
0.0
 30
0.0
 11
420.0
 21
297.0
 31
0.0
  0
LINE
  5
101
  8
0
  6
CONTINUOUS
 62
     7
 10
420.0
 20
297.0
 30
0.0
 11
0.0
 21
297.0
 31
0.0
  0
LINE
  5
102
  8
0
  6
CONTINUOUS
 62
     7
 10
0.0
 20
297.0
 30
0.0
 11
0.0
 21
0.0
 31
0.0
  0
LINE
  5
103
  8
0
  6
CONTINUOUS
 62
     7
 10
10.0
 20
10.0
 30
0.0
 11
409.9999999999999
 21
10.0
 31
0.0
  0
LINE
  5
104
  8
0
  6
CONTINUOUS
 62
     7
 10
409.9999999999999
 20
10.0
 30
0.0
 11
409.9999999999999
 21
286.9999999999999
 31
0.0
  0
LINE
  5
105
  8
0
  6
CONTINUOUS
 62
     7
 10
409.9999999999999
 20
286.9999999999999
 30
0.0
 11
10.00000000000006
 21
286.9999999999999
 31
0.0
  0
LINE
  5
106
  8
0
  6
CONTINUOUS
 62
     7
 10
10.0
 20
286.9999999999999
 30
0.0
 11
10.0
 21
10.00000000000001
 31
0.0
  0
LINE
  5
107
  8
0
  6
CONTINUOUS
 62
     7
 10
210.0
 20
0.0
 30
0.0
 11
210.0
 21
10.0
 31
0.0
  0
LINE
  5
108
  8
0
  6
CONTINUOUS
 62
     7
 10
420.0
 20
148.5
 30
0.0
 11
409.9999999999999
 21
148.5
 31
0.0
  0
LINE
  5
109
  8
0
  6
CONTINUOUS
 62
     7
 10
210.0
 20
297.0
 30
0.0
 11
210.0
 21
286.9999999999999
 31
0.0
  0
LINE
  5
10A
  8
0
  6
CONTINUOUS
 62
     7
 10
0.0
 20
148.5
 30
0.0
 11
10.0
 21
148.5
 31
0.0
  0
POLYLINE
  5
10B
  8
0
  6
CONTINUOUS
 62
     7
 66
     1
 10
0.0
 20
0.0
 30
0.0
 70
     1
  0
VERTEX
  5
329
  8
0
  6
CONTINUOUS
 62
     7
 10
11.0
 20
152.5
 30
0.0
  0
VERTEX
  5
32A
  8
0
  6
CONTINUOUS
 62
     7
 10
0.0
 20
148.5
 30
0.0
  0
VERTEX
  5
32B
  8
0
  6
CONTINUOUS
 62
     7
 10
11.0
 20
144.5
 30
0.0
  0
VERTEX
  5
32C
  8
0
  6
CONTINUOUS
 62
     7
 10
11.0
 20
152.5
 30
0.0
  0
SEQEND
  5
356
  8
0
  6
CONTINUOUS
 62
     7
  0
INSERT
  5
10C
  8
0
 62
     7
  2
*U2
 10
0.0
 20
0.0
 30
0.0
  0
POLYLINE
  5
10D
  8
0
  6
CONTINUOUS
 62
     7
 66
     1
 10
0.0
 20
0.0
 30
0.0
 70
     1
  0
VERTEX
  5
32F
  8
0
  6
CONTINUOUS
 62
     7
 10
206.0
 20
11.0
 30
0.0
  0
VERTEX
  5
330
  8
0
  6
CONTINUOUS
 62
     7
 10
210.0
 20
0.0
 30
0.0
  0
VERTEX
  5
331
  8
0
  6
CONTINUOUS
 62
     7
 10
214.0
 20
11.0
 30
0.0
  0
VERTEX
  5
332
  8
0
  6
CONTINUOUS
 62
     7
 10
206.0
 20
11.0
 30
0.0
  0
SEQEND
  5
357
  8
0
  6
CONTINUOUS
 62
     7
  0
INSERT
  5
10E
  8
0
 62
     7
  2
*U3
 10
0.0
 20
0.0
 30
0.0
  0
LINE
  5
10F
  8
0
  6
CONTINUOUS
 62
     7
 10
367.5
 20
286.9999999999999
 30
0.0
 11
367.5
 21
292.0
 31
0.0
  0
TEXT
  5
110
  8
0
  6
CONTINUOUS
 62
     7
 10
391.6340909090909
 20
291.8324293485057
 30
0.0
 40
3.5
  1
A
 50
270.0
  0
LINE
  5
111
  8
0
  6
CONTINUOUS
 62
     7
 10
367.5
 20
10.0
 30
0.0
 11
367.5
 21
5.0
 31
0.0
  0
TEXT
  5
112
  8
0
  6
CONTINUOUS
 62
     7
 10
392.9868888333125
 20
4.602272727272727
 30
0.0
 40
3.5
  1
A
  0
LINE
  5
113
  8
0
  6
CONTINUOUS
 62
     7
 10
315.0
 20
286.9999999999999
 30
0.0
 11
315.0
 21
292.0
 31
0.0
  0
TEXT
  5
114
  8
0
  6
CONTINUOUS
 62
     7
 10
339.1340909090909
 20
291.9745607727899
 30
0.0
 40
3.5
  1
B
 50
270.0
  0
LINE
  5
115
  8
0
  6
CONTINUOUS
 62
     7
 10
315.0
 20
10.0
 30
0.0
 11
315.0
 21
5.0
 31
0.0
  0
TEXT
  5
116
  8
0
  6
CONTINUOUS
 62
     7
 10
340.3447574090284
 20
4.602272727272727
 30
0.0
 40
3.5
  1
B
  0
LINE
  5
117
  8
0
  6
CONTINUOUS
 62
     7
 10
262.5
 20
286.9999999999999
 30
0.0
 11
262.5
 21
292.0
 31
0.0
  0
TEXT
  5
118
  8
0
  6
CONTINUOUS
 62
     7
 10
286.6327779167187
 20
291.9399305989747
 30
0.0
 40
3.5
  1
C
 50
270.0
  0
LINE
  5
119
  8
0
  6
CONTINUOUS
 62
     7
 10
262.5
 20
10.0
 30
0.0
 11
262.5
 21
5.0
 31
0.0
  0
TEXT
  5
11A
  8
0
  6
CONTINUOUS
 62
     7
 10
287.8793875828435
 20
4.600959734900587
 30
0.0
 40
3.5
  1
C
  0
LINE
  5
11B
  8
0
  6
CONTINUOUS
 62
     7
 10
210.0
 20
286.9999999999999
 30
0.0
 11
210.0
 21
292.0
 31
0.0
  0
TEXT
  5
11C
  8
0
  6
CONTINUOUS
 62
     7
 10
234.1340909090909
 20
291.9745607727898
 30
0.0
 40
3.5
  1
D
 50
270.0
  0
LINE
  5
11D
  8
0
  6
CONTINUOUS
 62
     7
 10
157.5
 20
286.9999999999999
 30
0.0
 11
157.5
 21
292.0
 31
0.0
  0
TEXT
  5
11E
  8
0
  6
CONTINUOUS
 62
     7
 10
181.6327779167188
 20
292.027463423784
 30
0.0
 40
3.5
  1
E
 50
270.0
  0
LINE
  5
11F
  8
0
  6
CONTINUOUS
 62
     7
 10
157.5
 20
10.0
 30
0.0
 11
157.5
 21
5.0
 31
0.0
  0
LINE
  5
120
  8
0
  6
CONTINUOUS
 62
     7
 10
105.0
 20
286.9999999999999
 30
0.0
 11
105.0
 21
292.0
 31
0.0
  0
TEXT
  5
121
  8
0
  6
CONTINUOUS
 62
     7
 10
129.1327779167188
 20
291.9924502938602
 30
0.0
 40
3.5
  1
F
 50
270.0
  0
LINE
  5
122
  8
0
  6
CONTINUOUS
 62
     7
 10
105.0
 20
10.0
 30
0.0
 11
105.0
 21
5.0
 31
0.0
  0
TEXT
  5
123
  8
0
  6
CONTINUOUS
 62
     7
 10
130.326867887958
 20
4.600959734900587
 30
0.0
 40
3.5
  1
F
  0
LINE
  5
124
  8
0
  6
CONTINUOUS
 62
     7
 10
52.50000000000004
 20
286.9999999999999
 30
0.0
 11
52.50000000000004
 21
292.0
 31
0.0
  0
TEXT
  5
125
  8
0
  6
CONTINUOUS
 62
     7
 10
76.6327779167188
 20
291.9399305989746
 30
0.0
 40
3.5
  1
G
 50
270.0
  0
LINE
  5
126
  8
0
  6
CONTINUOUS
 62
     7
 10
52.50000000000004
 20
10.0
 30
0.0
 11
52.50000000000004
 21
5.0
 31
0.0
  0
TEXT
  5
127
  8
0
  6
CONTINUOUS
 62
     7
 10
77.8793875828436
 20
4.600959734900587
 30
0.0
 40
3.5
  1
G
  0
TEXT
  5
128
  8
0
  6
CONTINUOUS
 62
     7
 10
24.13277791671879
 20
291.9749437288983
 30
0.0
 40
3.5
  1
H
 50
270.0
  0
TEXT
  5
129
  8
0
  6
CONTINUOUS
 62
     7
 10
25.34437445291988
 20
4.600959734900587
 30
0.0
 40
3.5
  1
H
  0
LINE
  5
12A
  8
0
  6
CONTINUOUS
 62
     7
 10
409.9999999999999
 20
74.25
 30
0.0
 11
414.9999999999999
 21
74.25
 31
0.0
  0
TEXT
  5
12B
  8
0
  6
CONTINUOUS
 62
     7
 10
412.9326059772414
 20
35.00777791671877
 30
0.0
 40
3.5
  1
1
  0
LINE
  5
12C
  8
0
  6
CONTINUOUS
 62
     7
 10
10.0
 20
74.25
 30
0.0
 11
5.0
 21
74.25
 31
0.0
  0
TEXT
  5
12D
  8
0
  6
CONTINUOUS
 62
     7
 10
4.600959734900584
 20
38.26171220457671
 30
0.0
 40
3.5
  1
1
 50
270.0
  0
LINE
  5
12E
  8
0
  6
CONTINUOUS
 62
     7
 10
409.9999999999999
 20
148.5
 30
0.0
 11
414.9999999999999
 21
148.5
 31
0.0
  0
TEXT
  5
12F
  8
0
  6
CONTINUOUS
 62
     7
 10
413.163692634738
 20
109.2577779167188
 30
0.0
 40
3.5
  1
2
  0
LINE
  5
130
  8
0
  6
CONTINUOUS
 62
     7
 10
10.0
 20
148.5
 30
0.0
 11
5.0
 21
148.5
 31
0.0
  0
TEXT
  5
131
  8
0
  6
CONTINUOUS
 62
     7
 10
4.600959734900599
 20
112.2806255470802
 30
0.0
 40
3.5
  1
2
 50
270.0
  0
LINE
  5
132
  8
0
  6
CONTINUOUS
 62
     7
 10
409.9999999999999
 20
222.75
 30
0.0
 11
414.9999999999999
 21
222.75
 31
0.0
  0
TEXT
  5
133
  8
0
  6
CONTINUOUS
 62
     7
 10
413.1811991996998
 20
183.5077779167188
 30
0.0
 40
3.5
  1
3
  0
LINE
  5
134
  8
0
  6
CONTINUOUS
 62
     7
 10
10.0
 20
222.75
 30
0.0
 11
5.0
 21
222.75
 31
0.0
  0
TEXT
  5
135
  8
0
  6
CONTINUOUS
 62
     7
 10
4.600959734900584
 20
186.5131189821183
 30
0.0
 40
3.5
  1
3
 50
270.0
  0
TEXT
  5
136
  8
0
  6
CONTINUOUS
 62
     7
 10
413.2351413029886
 20
257.7590909090909
 30
0.0
 40
3.5
  1
4
  0
TEXT
  5
137
  8
0
  6
CONTINUOUS
 62
     7
 10
4.60227272727272
 20
260.7091768788295
 30
0.0
 40
3.5
  1
4
 50
270.0
  0
LINE
  5
138
  8
0
  6
CONTINUOUS
 62
     7
 10
220.0
 20
10.0
 30
0.0
 11
220.0
 21
7.0
 31
0.0
  0
LINE
  5
139
  8
0
  6
CONTINUOUS
 62
     7
 10
200.0
 20
10.0
 30
0.0
 11
200.0
 21
7.0
 31
0.0
  0
LINE
  5
13A
  8
0
  6
CONTINUOUS
 62
     7
 10
230.0
 20
10.0
 30
0.0
 11
230.0
 21
7.0
 31
0.0
  0
LINE
  5
13B
  8
0
  6
CONTINUOUS
 62
     7
 10
190.0
 20
10.0
 30
0.0
 11
190.0
 21
7.0
 31
0.0
  0
LINE
  5
13C
  8
0
  6
CONTINUOUS
 62
     7
 10
240.0
 20
10.0
 30
0.0
 11
240.0
 21
7.0
 31
0.0
  0
LINE
  5
13D
  8
0
  6
CONTINUOUS
 62
     7
 10
180.0
 20
10.0
 30
0.0
 11
180.0
 21
7.0
 31
0.0
  0
LINE
  5
13E
  8
0
  6
CONTINUOUS
 62
     7
 10
250.0
 20
10.0
 30
0.0
 11
250.0
 21
7.0
 31
0.0
  0
LINE
  5
13F
  8
0
  6
CONTINUOUS
 62
     7
 10
170.0
 20
10.0
 30
0.0
 11
170.0
 21
7.0
 31
0.0
  0
LINE
  5
140
  8
0
  6
CONTINUOUS
 62
     7
 10
260.0
 20
10.0
 30
0.0
 11
260.0
 21
5.0
 31
0.0
  0
LINE
  5
141
  8
0
  6
CONTINUOUS
 62
     7
 10
160.0
 20
10.0
 30
0.0
 11
160.0
 21
5.0
 31
0.0
  0
LINE
  5
142
  8
0
  6
CONTINUOUS
 62
     7
 10
260.0
 20
10.0
 30
0.0
 11
160.0
 21
10.0
 31
0.0
  0
LINE
  5
143
  8
0
  6
CONTINUOUS
 62
     7
 10
260.0
 20
7.0
 30
0.0
 11
160.0
 21
7.0
 31
0.0
  0
INSERT
  5
144
  8
0
 62
     7
  2
*U4
 10
0.0
 20
0.0
 30
0.0
  0
INSERT
  5
145
  8
0
 62
     7
  2
*U5
 10
0.0
 20
0.0
 30
0.0
  0
INSERT
  5
146
  8
0
 62
     7
  2
*U6
 10
0.0
 20
0.0
 30
0.0
  0
INSERT
  5
147
  8
0
 62
     7
  2
*U7
 10
0.0
 20
0.0
 30
0.0
  0
ENDBLK
  8
0
  0
BLOCK
  8
0
  2
*U2
 70
     1
 10
0.0
 20
0.0
 30
0.0
  0
SOLID
  5
32E
  8
0
  6
CONTINUOUS
 62
     7
 10
11.0
 20
144.5
 30
0.0
 11
6.999999999999999
 21
148.5
 31
0.0
 12
11.0
 22
152.5
 32
0.0
 13
11.0
 23
152.5
 33
0.0
  0
ENDBLK
  8
0
  0
BLOCK
  8
0
  2
*U3
 70
     1
 10
0.0
 20
0.0
 30
0.0
  0
SOLID
  5
334
  8
0
  6
CONTINUOUS
 62
     7
 10
210.0
 20
6.999999999999999
 30
0.0
 11
206.0
 21
11.0
 31
0.0
 12
210.0
 22
11.0
 32
0.0
 13
210.0
 23
11.0
 33
0.0
  0
SOLID
  5
335
  8
0
  6
CONTINUOUS
 62
     7
 10
210.0
 20
6.999999999999999
 30
0.0
 11
210.0
 21
11.0
 31
0.0
 12
214.0
 22
11.0
 32
0.0
 13
214.0
 23
11.0
 33
0.0
  0
ENDBLK
  8
0
  0
BLOCK
  8
0
  2
*U4
 70
     1
 10
0.0
 20
0.0
 30
0.0
  0
SOLID
  5
337
  8
0
  6
CONTINUOUS
 62
     7
 10
0.0
 20
0.0
 30
0.0
 11
0.0
 21
10.0
 31
0.0
 12
2.0
 22
0.0
 32
0.0
 13
2.0
 23
0.0
 33
0.0
  0
SOLID
  5
338
  8
0
  6
CONTINUOUS
 62
     7
 10
2.0
 20
0.0
 30
0.0
 11
0.0
 21
10.0
 31
0.0
 12
2.0
 22
10.0
 32
0.0
 13
2.0
 23
10.0
 33
0.0
  0
SOLID
  5
339
  8
0
  6
CONTINUOUS
 62
     7
 10
2.0
 20
0.0
 30
0.0
 11
2.0
 21
2.0
 31
0.0
 12
10.0
 22
0.0
 32
0.0
 13
10.0
 23
0.0
 33
0.0
  0
SOLID
  5
33A
  8
0
  6
CONTINUOUS
 62
     7
 10
10.0
 20
0.0
 30
0.0
 11
2.0
 21
2.0
 31
0.0
 12
10.0
 22
2.0
 32
0.0
 13
10.0
 23
2.0
 33
0.0
  0
ENDBLK
  8
0
  0
BLOCK
  8
0
  2
*U5
 70
     1
 10
0.0
 20
0.0
 30
0.0
  0
SOLID
  5
33C
  8
0
  6
CONTINUOUS
 62
     7
 10
409.9999999999999
 20
0.0
 30
0.0
 11
409.9999999999999
 21
2.0
 31
0.0
 12
418.0
 22
0.0
 32
0.0
 13
418.0
 23
0.0
 33
0.0
  0
SOLID
  5
33D
  8
0
  6
CONTINUOUS
 62
     7
 10
418.0
 20
0.0
 30
0.0
 11
409.9999999999999
 21
2.0
 31
0.0
 12
418.0
 22
2.0
 32
0.0
 13
418.0
 23
2.0
 33
0.0
  0
SOLID
  5
33E
  8
0
  6
CONTINUOUS
 62
     7
 10
418.0
 20
0.0
 30
0.0
 11
418.0
 21
10.0
 31
0.0
 12
420.0
 22
0.0
 32
0.0
 13
420.0
 23
0.0
 33
0.0
  0
SOLID
  5
33F
  8
0
  6
CONTINUOUS
 62
     7
 10
420.0
 20
0.0
 30
0.0
 11
418.0
 21
10.0
 31
0.0
 12
420.0
 22
10.0
 32
0.0
 13
420.0
 23
10.0
 33
0.0
  0
ENDBLK
  8
0
  0
BLOCK
  8
0
  2
*U6
 70
     1
 10
0.0
 20
0.0
 30
0.0
  0
SOLID
  5
341
  8
0
  6
CONTINUOUS
 62
     7
 10
409.9999999999999
 20
295.0
 30
0.0
 11
409.9999999999999
 21
297.0
 31
0.0
 12
418.0
 22
295.0
 32
0.0
 13
418.0
 23
295.0
 33
0.0
  0
SOLID
  5
342
  8
0
  6
CONTINUOUS
 62
     7
 10
418.0
 20
295.0
 30
0.0
 11
409.9999999999999
 21
297.0
 31
0.0
 12
418.0
 22
297.0
 32
0.0
 13
418.0
 23
297.0
 33
0.0
  0
SOLID
  5
343
  8
0
  6
CONTINUOUS
 62
     7
 10
418.0
 20
286.9999999999999
 30
0.0
 11
418.0
 21
297.0
 31
0.0
 12
420.0
 22
286.9999999999999
 32
0.0
 13
420.0
 23
286.9999999999999
 33
0.0
  0
SOLID
  5
344
  8
0
  6
CONTINUOUS
 62
     7
 10
420.0
 20
286.9999999999999
 30
0.0
 11
418.0
 21
297.0
 31
0.0
 12
420.0
 22
297.0
 32
0.0
 13
420.0
 23
297.0
 33
0.0
  0
ENDBLK
  8
0
  0
BLOCK
  8
0
  2
*U7
 70
     1
 10
0.0
 20
0.0
 30
0.0
  0
SOLID
  5
346
  8
0
  6
CONTINUOUS
 62
     7
 10
0.0
 20
286.9999999999999
 30
0.0
 11
0.0
 21
297.0
 31
0.0
 12
2.0
 22
286.9999999999999
 32
0.0
 13
2.0
 23
286.9999999999999
 33
0.0
  0
SOLID
  5
347
  8
0
  6
CONTINUOUS
 62
     7
 10
2.0
 20
286.9999999999999
 30
0.0
 11
0.0
 21
297.0
 31
0.0
 12
2.0
 22
297.0
 32
0.0
 13
2.0
 23
297.0
 33
0.0
  0
SOLID
  5
348
  8
0
  6
CONTINUOUS
 62
     7
 10
2.0
 20
295.0
 30
0.0
 11
2.0
 21
297.0
 31
0.0
 12
10.0
 22
295.0
 32
0.0
 13
10.0
 23
295.0
 33
0.0
  0
SOLID
  5
349
  8
0
  6
CONTINUOUS
 62
     7
 10
10.0
 20
295.0
 30
0.0
 11
2.0
 21
297.0
 31
0.0
 12
10.0
 22
297.0
 32
0.0
 13
10.0
 23
297.0
 33
0.0
  0
ENDBLK
  8
0
  0
ENDSEC
  0
SECTION
  2
ENTITIES
  0
LINE
  5
70
  8
1
  6
CONTINUOUS
 62
     7
 10
-396.7053082821
 20
1864.3746370603
 30
0.0
 11
-399.5543202821
 21
1862.7297580603
 31
0.0
  0
LINE
  5
71
  8
1
  6
CONTINUOUS
 62
     7
 10
-400.7053082821
 20
1862.7297580603
 30
0.0
 11
-403.5543202821
 21
1864.3746370603
 31
0.0
  0
ARC
  5
72
  8
1
  6
CONTINUOUS
 62
     7
 10
-400.1298142821
 20
1867.0162990603
 30
0.0
 40
4.325
 50
202.353426
 51
217.646574
  0
LINE
  5
73
  8
1
  6
CONTINUOUS
 62
     7
 10
-404.1298142821
 20
1865.3714210603
 30
0.0
 11
-404.1298142821
 21
1868.6611770603
 31
0.0
  0
ARC
  5
74
  8
1
  6
CONTINUOUS
 62
     7
 10
-400.1298142821
 20
1867.0162990603
 30
0.0
 40
4.325
 50
322.353426
 51
337.646574
  0
LINE
  5
75
  8
1
  6
CONTINUOUS
 62
     7
 10
-435.5524642821
 20
1891.8241240603
 30
0.0
 11
-430.9852602821
 21
1892.3162990603
 31
0.0
  0
LINE
  5
76
  8
1
  6
CONTINUOUS
 62
     7
 10
-404.9659582821
 20
1851.1701980603
 30
0.0
 11
-404.6411639287
 21
1855.381798033
 31
0.0
  0
ARC
  5
77
  8
1
  6
CONTINUOUS
 62
     7
 10
-400.1096842821
 20
1850.6042870603
 30
0.0
 40
4.889136
 50
173.35319
 51
335.083221
  0
LINE
  5
78
  8
1
  6
CONTINUOUS
 62
     7
 10
-433.1433002821
 20
1863.7160650603
 30
0.0
 11
-430.9852602821
 21
1862.7000410603
 31
0.0
  0
LINE
  5
79
  8
1
  6
CONTINUOUS
 62
     7
 10
-395.6756252821
 20
1857.4321180603
 30
0.0
 11
-395.6756252821
 21
1860.6004800603
 31
0.0
  0
ARC
  5
7A
  8
1
  6
CONTINUOUS
 62
     7
 10
-402.3426372821
 20
1850.7025090603
 30
0.0
 40
7.007575
 50
342.06393
 51
3.762399000000016
  0
LINE
  5
7B
  8
1
  6
CONTINUOUS
 62
     7
 10
-404.9659582821
 20
1866.8624000603
 30
0.0
 11
-404.6411639287
 21
1862.6508000876
 31
0.0
  0
LINE
  5
7C
  8
1
  6
CONTINUOUS
 62
     7
 10
-430.9852602821
 20
1825.7162990603
 30
0.0
 11
-417.1298142821
 21
1825.7162990603
 31
0.0
  0
LINE
  5
7D
  8
1
  6
CONTINUOUS
 62
     7
 10
-391.1298142821
 20
1891.8162990603
 30
0.0
 11
-393.6687002821
 21
1892.0384230603
 31
0.0
  0
LINE
  5
7E
  8
1
  6
CONTINUOUS
 62
     7
 10
-430.9852602821
 20
1892.3162990603
 30
0.0
 11
-436.1298142821
 21
1893.3162990603
 31
0.0
  0
LINE
  5
7F
  8
1
  6
CONTINUOUS
 62
     7
 10
-436.4184892821
 20
1892.8115050603
 30
0.0
 11
-435.5524642821
 21
1891.8241240603
 31
0.0
  0
ARC
  5
80
  8
1
  6
CONTINUOUS
 62
     7
 10
-415.3007552821
 20
1859.0162990603
 30
0.0
 40
11.334192
 50
341.2662200000001
 51
18.73378000000002
  0
LINE
  5
81
  8
1
  6
CONTINUOUS
 62
     7
 10
-395.6562122011
 20
1857.4330650154
 30
0.0
 11
-395.3501652821
 21
1851.1623390603
 31
0.0
  0
LINE
  5
82
  8
1
  6
CONTINUOUS
 62
     7
 10
-393.6687002821
 20
1825.9941750603
 30
0.0
 11
-391.1298142821
 21
1826.2162990603
 31
0.0
  0
ARC
  5
83
  8
1
  6
CONTINUOUS
 62
     7
 10
-400.1096842821
 20
1867.4283110603
 30
0.0
 40
4.889136
 50
24.916779
 51
186.64681
  0
LINE
  5
84
  8
1
  6
CONTINUOUS
 62
     7
 10
-395.6562122011
 20
1860.5995331052
 30
0.0
 11
-395.3501652821
 21
1866.8702590603
 31
0.0
  0
LINE
  5
85
  8
1
  6
CONTINUOUS
 62
     7
 10
-417.1298142821
 20
1892.3162990603
 30
0.0
 11
-430.9852602821
 21
1892.3162990603
 31
0.0
  0
LINE
  5
86
  8
1
  6
CONTINUOUS
 62
     7
 10
-399.5298142821
 20
1870.3686940603
 30
0.0
 11
-399.5298142821
 21
1867.9290010603
 31
0.0
  0
ARC
  5
87
  8
1
  6
CONTINUOUS
 62
     7
 10
-398.8298032821
 20
1868.3163180603
 30
0.0
 40
0.800019
 50
208.955831
 51
269.999193
  0
ARC
  5
88
  8
1
  6
CONTINUOUS
 62
     7
 10
-398.8298042821
 20
1865.7162820603
 30
0.0
 40
0.800017
 50
90.000699
 51
151.044276
  0
ARC
  5
89
  8
1
  6
CONTINUOUS
 62
     7
 10
-400.1298142821
 20
1867.0162990603
 30
0.0
 40
2.163668
 50
346.6387999999999
 51
13.3612
  0
ARC
  5
8A
  8
1
  6
CONTINUOUS
 62
     7
 10
-401.4298242821
 20
1868.3163160603
 30
0.0
 40
0.800017
 50
270.000699
 51
331.0442760000001
  0
LINE
  5
8B
  8
1
  6
CONTINUOUS
 62
     7
 10
-401.4298142821
 20
1867.5162990603
 30
0.0
 11
-402.2349172821
 21
1867.5162990603
 31
0.0
  0
ARC
  5
8C
  8
1
  6
CONTINUOUS
 62
     7
 10
-400.1298142821
 20
1867.0162990603
 30
0.0
 40
2.163668
 50
166.6388
 51
193.3612
  0
LINE
  5
8D
  8
1
  6
CONTINUOUS
 62
     7
 10
-402.2349172821
 20
1866.5162990603
 30
0.0
 11
-401.4298142821
 21
1866.5162990603
 31
0.0
  0
LINE
  5
8E
  8
1
  6
CONTINUOUS
 62
     7
 10
-400.7298142821
 20
1863.6639040603
 30
0.0
 11
-400.7298142821
 21
1866.1035970603
 31
0.0
  0
ARC
  5
8F
  8
1
  6
CONTINUOUS
 62
     7
 10
-401.4298252821
 20
1865.7162800603
 30
0.0
 40
0.800019
 50
28.955831
 51
89.999193
  0
LINE
  5
90
  8
1
  6
CONTINUOUS
 62
     7
 10
-399.5298142821
 20
1866.1035970603
 30
0.0
 11
-399.5298142821
 21
1863.6639040603
 31
0.0
  0
ARC
  5
91
  8
1
  6
CONTINUOUS
 62
     7
 10
-402.3426372821
 20
1867.3300890603
 30
0.0
 40
7.007575
 50
356.237601
 51
17.93606999999997
  0
LINE
  5
92
  8
1
  6
CONTINUOUS
 62
     7
 10
-400.7298142821
 20
1867.9290010603
 30
0.0
 11
-400.7298142821
 21
1870.3686940603
 31
0.0
  0
LINE
  5
93
  8
1
  6
CONTINUOUS
 62
     7
 10
-398.8298142821
 20
1866.5162990603
 30
0.0
 11
-398.0247112821
 21
1866.5162990603
 31
0.0
  0
LINE
  5
94
  8
1
  6
CONTINUOUS
 62
     7
 10
-398.0247112821
 20
1867.5162990603
 30
0.0
 11
-398.8298142821
 21
1867.5162990603
 31
0.0
  0
LINE
  5
95
  8
1
  6
CONTINUOUS
 62
     7
 10
-558.6302652821
 20
1703.5650125528
 30
0.0
 11
-563.6299292821
 21
1768.0641355528
 31
0.0
  0
LINE
  5
96
  8
1
  6
CONTINUOUS
 62
     7
 10
-560.1299292821001
 20
1768.0641435528
 30
0.0
 11
-555.1302652820935
 21
1703.5650045528
 31
0.0
  0
LINE
  5
97
  8
1
  6
CONTINUOUS
 62
     7
 10
-560.1299292821001
 20
1768.0641435528
 30
0.0
 11
-563.6299292821
 21
1768.0641355528
 31
0.0
  0
ARC
  5
98
  8
1
  6
CONTINUOUS
 62
     7
 10
-400.1298142821
 20
1867.0162990603
 30
0.0
 40
4.325
 50
142.353426
 51
157.646574
  0
ARC
  5
99
  8
1
  6
CONTINUOUS
 62
     7
 10
-400.1298142821
 20
1867.0162990603
 30
0.0
 40
4.325
 50
82.353426
 51
97.646574
  0
LINE
  5
9A
  8
1
  6
CONTINUOUS
 62
     7
 10
-565.1302652821
 20
1703.5650045528
 30
0.0
 11
-564.7772942821
 21
1705.5645555528
 31
0.0
  0
LINE
  5
9B
  8
1
  6
CONTINUOUS
 62
     7
 10
-610.1299292821
 20
1768.0641435528
 30
0.0
 11
-605.1302652821
 21
1703.5650045528
 31
0.0
  0
LINE
  5
9C
  8
1
  6
CONTINUOUS
 62
     7
 10
-600.1299292821
 20
1768.0641435528
 30
0.0
 11
-603.6299292821
 21
1768.0641355528
 31
0.0
  0
LINE
  5
9D
  8
1
  6
CONTINUOUS
 62
     7
 10
-570.3298142821
 20
1705.5645555528
 30
0.0
 11
-568.7852603067
 21
1705.5645555528
 31
0.0
  0
LINE
  5
9E
  8
1
  6
CONTINUOUS
 62
     7
 10
-598.2235132821
 20
1766.0645555528
 30
0.0
 11
-599.9749308078
 21
1766.0645555528
 31
0.0
  0
LINE
  5
9F
  8
1
  6
CONTINUOUS
 62
     7
 10
-603.9824812821
 20
1766.0645555528
 30
0.0
 11
-603.6299292821
 21
1768.0641355528
 31
0.0
  0
LINE
  5
A0
  8
1
  6
CONTINUOUS
 62
     7
 10
-570.1299292821001
 20
1768.0641435528
 30
0.0
 11
-565.1302652821
 21
1703.5650045528
 31
0.0
  0
LINE
  5
A1
  8
1
  6
CONTINUOUS
 62
     7
 10
-600.1299292821
 20
1768.0641435528
 30
0.0
 11
-598.2235132821
 21
1743.4700527148
 31
0.0
  0
LINE
  5
A2
  8
1
  6
CONTINUOUS
 62
     7
 10
-608.6302652821
 20
1703.5650125528
 30
0.0
 11
-613.6299292821
 21
1768.0641355528
 31
0.0
  0
LINE
  5
A3
  8
1
  6
CONTINUOUS
 62
     7
 10
-563.9824652821
 20
1766.0645555528
 30
0.0
 11
-569.9749308078
 21
1766.0645555528
 31
0.0
  0
LINE
  5
A4
  8
1
  6
CONTINUOUS
 62
     7
 10
-598.6302652821
 20
1703.5650125528
 30
0.0
 11
-603.6299292821
 21
1768.0641355528
 31
0.0
  0
LINE
  5
A5
  8
1
  6
CONTINUOUS
 62
     7
 10
-558.6302652821
 20
1703.5650125528
 30
0.0
 11
-557.1298142821
 21
1703.5650091232
 31
0.0
  0
LINE
  5
A6
  8
1
  6
CONTINUOUS
 62
     7
 10
-568.6302652821
 20
1703.5650125528
 30
0.0
 11
-565.1302652821
 21
1703.5650045528
 31
0.0
  0
LINE
  5
A7
  8
1
  6
CONTINUOUS
 62
     7
 10
-604.7772942821
 20
1705.5645555528
 30
0.0
 11
-598.7852603067001
 21
1705.5645555528
 31
0.0
  0
LINE
  5
A8
  8
1
  6
CONTINUOUS
 62
     7
 10
-568.6302652821
 20
1703.5650125528
 30
0.0
 11
-570.3298142821
 21
1725.490369936
 31
0.0
  0
LINE
  5
A9
  8
1
  6
CONTINUOUS
 62
     7
 10
-613.9824812821
 20
1766.0645555528
 30
0.0
 11
-613.6299292821
 21
1768.0641355528
 31
0.0
  0
LINE
  5
AA
  8
1
  6
CONTINUOUS
 62
     7
 10
-598.6302652821
 20
1703.5650125528
 30
0.0
 11
-598.2235132821
 21
1703.5650116231
 31
0.0
  0
LINE
  5
AB
  8
1
  6
CONTINUOUS
 62
     7
 10
-436.1298142821
 20
1893.3162990603
 30
0.0
 11
-439.1298142821
 21
1893.3162990603
 31
0.0
  0
LINE
  5
AC
  8
1
  6
CONTINUOUS
 62
     7
 10
-394.8510512821
 20
1824.7991310603
 30
0.0
 11
-394.4475702821
 21
1825.4979810603
 31
0.0
  0
LINE
  5
AD
  8
1
  6
CONTINUOUS
 62
     7
 10
-394.4475702821
 20
1892.5346170603
 30
0.0
 11
-394.8510512821
 21
1893.2334670603
 31
0.0
  0
LINE
  5
AE
  8
1
  6
CONTINUOUS
 62
     7
 10
-395.6870902821
 20
1893.7330170603
 30
0.0
 11
-414.2664162821
 21
1894.2903970603
 31
0.0
  0
LINE
  5
AF
  8
1
  6
CONTINUOUS
 62
     7
 10
-391.1298142821
 20
1826.2162990603
 30
0.0
 11
-391.1298142821
 21
1891.8162990603
 31
0.0
  0
ARC
  5
B0
  8
1
  6
CONTINUOUS
 62
     7
 10
-393.5815442821
 20
1824.9979810603
 30
0.0
 40
1.0
 50
95.0
 51
150.0
  0
ARC
  5
B1
  8
1
  6
CONTINUOUS
 62
     7
 10
-393.5815442821
 20
1893.0346170603
 30
0.0
 40
1.0
 50
210.0
 51
265.0
  0
LINE
  5
B2
  8
1
  6
CONTINUOUS
 62
     7
 10
-536.1298142821
 20
1824.0162990603
 30
0.0
 11
-536.1298142821
 21
1894.0162990603
 31
0.0
  0
LINE
  5
B3
  8
1
  6
CONTINUOUS
 62
     7
 10
-436.4184892821
 20
1864.5936497257
 30
0.0
 11
-433.1433002821
 21
1863.7160650603
 31
0.0
  0
LINE
  5
B4
  8
1
  6
CONTINUOUS
 62
     7
 10
-417.1298142821
 20
1825.7162990603
 30
0.0
 11
-417.1298142821
 21
1892.3162990603
 31
0.0
  0
ARC
  5
B5
  8
1
  6
CONTINUOUS
 62
     7
 10
-395.7170762821
 20
1892.7334670603
 30
0.0
 40
1.0
 50
30.0
 51
88.281642
  0
ARC
  5
B6
  8
1
  6
CONTINUOUS
 62
     7
 10
-435.0476992821
 20
1864.7488910603
 30
0.0
 40
0.505569
 50
183.231934
 51
258.285451
  0
LINE
  5
B7
  8
1
  6
CONTINUOUS
 62
     7
 10
-417.1298142821
 20
1825.7162990603
 30
0.0
 11
-415.7406032821
 21
1824.3270880603
 31
0.0
  0
LINE
  5
B8
  8
1
  6
CONTINUOUS
 62
     7
 10
-471.1298142821
 20
1824.0162990603
 30
0.0
 11
-471.1298142821
 21
1894.0162990603
 31
0.0
  0
LINE
  5
B9
  8
1
  6
CONTINUOUS
 62
     7
 10
-471.1298142821
 20
1844.5188243772
 30
0.0
 11
-439.1298142821
 21
1844.5188243772
 31
0.0
  0
LINE
  5
BA
  8
1
  6
CONTINUOUS
 62
     7
 10
-471.1298142821
 20
1873.5137737434
 30
0.0
 11
-439.1298142821
 21
1873.5137737434
 31
0.0
  0
LINE
  5
BB
  8
1
  6
CONTINUOUS
 62
     7
 10
-436.4184892821
 20
1864.175385245
 30
0.0
 11
-436.4184892821
 21
1892.8115050603
 31
0.0
  0
LINE
  5
BC
  8
1
  6
CONTINUOUS
 62
     7
 10
-435.5524642821
 20
1864.7203880603
 30
0.0
 11
-435.5524642821
 21
1891.8241240603
 31
0.0
  0
ARC
  5
BD
  8
1
  6
CONTINUOUS
 62
     7
 10
-395.7170762821
 20
1825.2991310603
 30
0.0
 40
1.0
 50
271.718358
 51
330.0
  0
LINE
  5
BE
  8
1
  6
CONTINUOUS
 62
     7
 10
-430.9852602821
 20
1862.7000410603
 30
0.0
 11
-436.4184892821
 21
1864.175385245
 31
0.0
  0
LINE
  5
BF
  8
1
  6
CONTINUOUS
 62
     7
 10
-414.2664162821
 20
1823.7422010603
 30
0.0
 11
-395.6870902821
 21
1824.2995810603
 31
0.0
  0
ARC
  5
C0
  8
1
  6
CONTINUOUS
 62
     7
 10
-414.3263892821
 20
1892.2912960603
 30
0.0
 40
2.0
 50
88.281642
 51
135.0
  0
LINE
  5
C1
  8
1
  6
CONTINUOUS
 62
     7
 10
-430.9852602821
 20
1855.3325570603
 30
0.0
 11
-430.9852602821
 21
1862.7000410603
 31
0.0
  0
ARC
  5
C2
  8
1
  6
CONTINUOUS
 62
     7
 10
-414.3263892821
 20
1825.7413020603
 30
0.0
 40
2.0
 50
225.0
 51
271.718358
  0
LINE
  5
C3
  8
1
  6
CONTINUOUS
 62
     7
 10
-415.7406032821
 20
1893.7055100603
 30
0.0
 11
-417.1298142821
 21
1892.3162990603
 31
0.0
  0
ARC
  5
C4
  8
1
  6
CONTINUOUS
 62
     7
 10
-401.4298252821
 20
1849.7162800603
 30
0.0
 40
0.800019
 50
28.955831
 51
89.999193
  0
LINE
  5
C5
  8
1
  6
CONTINUOUS
 62
     7
 10
-399.5543202821
 20
1855.3028400603
 30
0.0
 11
-396.7053082821
 21
1853.6579610603
 31
0.0
  0
ARC
  5
C6
  8
1
  6
CONTINUOUS
 62
     7
 10
-401.4298142821
 20
1849.7162990603
 30
0.0
 40
0.8
 50
0.0
 51
28.955024
  0
LINE
  5
C7
  8
1
  6
CONTINUOUS
 62
     7
 10
-396.1298142821
 20
1852.6611770603
 30
0.0
 11
-396.1298142821
 21
1849.3714210603
 31
0.0
  0
LINE
  5
C8
  8
1
  6
CONTINUOUS
 62
     7
 10
-436.4184892821
 20
1853.4389483949
 30
0.0
 11
-433.1433002821
 21
1854.3165330603
 31
0.0
  0
ARC
  5
C9
  8
1
  6
CONTINUOUS
 62
     7
 10
-435.0476992821
 20
1853.2837070603
 30
0.0
 40
0.505569
 50
101.714549
 51
176.768066
  0
LINE
  5
CA
  8
1
  6
CONTINUOUS
 62
     7
 10
-435.5524642821
 20
1853.3122100603
 30
0.0
 11
-435.5524642821
 21
1826.2084740603
 31
0.0
  0
CIRCLE
  5
CB
  8
1
  6
CONTINUOUS
 62
     7
 10
-781.4042508499
 20
1736.2106625528
 30
0.0
 40
42.405497
  0
ARC
  5
CC
  8
1
  6
CONTINUOUS
 62
     7
 10
-400.1298142821
 20
1851.0162990603
 30
0.0
 40
4.325
 50
322.353426
 51
337.646574
  0
LINE
  5
CD
  8
1
  6
CONTINUOUS
 62
     7
 10
-399.5298142821
 20
1854.3686940603
 30
0.0
 11
-399.5298142821
 21
1851.9290010603
 31
0.0
  0
ARC
  5
CE
  8
1
  6
CONTINUOUS
 62
     7
 10
-400.1298142821
 20
1851.0162990603
 30
0.0
 40
4.325
 50
82.353426
 51
97.646574
  0
LINE
  5
CF
  8
1
  6
CONTINUOUS
 62
     7
 10
-403.5543202821
 20
1853.6579610603
 30
0.0
 11
-400.7053082821
 21
1855.3028400603
 31
0.0
  0
LINE
  5
D0
  8
1
  6
CONTINUOUS
 62
     7
 10
-399.5543202821
 20
1871.3028400603
 30
0.0
 11
-396.7053082821
 21
1869.6579610603
 31
0.0
  0
ARC
  5
D1
  8
1
  6
CONTINUOUS
 62
     7
 10
-398.8298142821
 20
1852.3162990603
 30
0.0
 40
0.8
 50
180.0
 51
208.955024
  0
ARC
  5
D2
  8
1
  6
CONTINUOUS
 62
     7
 10
-400.1298142821
 20
1851.0162990603
 30
0.0
 40
4.325
 50
262.353426
 51
277.646574
  0
LINE
  5
D3
  8
1
  6
CONTINUOUS
 62
     7
 10
-430.9852602821
 20
1855.3325570603
 30
0.0
 11
-436.4184892821
 21
1853.8572128756
 31
0.0
  0
LINE
  5
D4
  8
1
  6
CONTINUOUS
 62
     7
 10
-436.4184892821
 20
1825.2210930603
 30
0.0
 11
-435.5524642821
 21
1826.2084740603
 31
0.0
  0
LINE
  5
D5
  8
1
  6
CENTER
 62
     5
 10
-823.4090418499
 20
1735.8097645528
 30
0.0
 11
-739.4090418499
 21
1735.8097645528
 31
0.0
  0
CIRCLE
  5
D7
  8
1
  6
CONTINUOUS
 62
     7
 10
-400.1298142821
 20
1851.0162990603
 30
0.0
 40
3.5
  0
LINE
  5
D8
  8
1
  6
CONTINUOUS
 62
     7
 10
-400.7053082821
 20
1846.7297580603
 30
0.0
 11
-403.5543202821
 21
1848.3746370603
 31
0.0
  0
ARC
  5
D9
  8
1
  6
CONTINUOUS
 62
     7
 10
-400.1298142821
 20
1851.0162990603
 30
0.0
 40
2.163668
 50
346.6387999999999
 51
13.3612
  0
ARC
  5
DA
  8
1
  6
CONTINUOUS
 62
     7
 10
-401.4298242821
 20
1852.3163160603
 30
0.0
 40
0.800017
 50
270.000699
 51
331.0442760000001
  0
LINE
  5
DB
  8
1
  6
CONTINUOUS
 62
     7
 10
-402.2349172821
 20
1850.5162990603
 30
0.0
 11
-401.4298142821
 21
1850.5162990603
 31
0.0
  0
LINE
  5
DC
  8
1
  6
CONTINUOUS
 62
     7
 10
-403.5543202821
 20
1869.6579610603
 30
0.0
 11
-400.7053082821
 21
1871.3028400603
 31
0.0
  0
LINE
  5
DD
  8
1
  6
CONTINUOUS
 62
     7
 10
-401.4298142821
 20
1851.5162990603
 30
0.0
 11
-402.2349172821
 21
1851.5162990603
 31
0.0
  0
LINE
  5
DE
  8
1
  6
CONTINUOUS
 62
     7
 10
-399.5298142821
 20
1850.1035970603
 30
0.0
 11
-399.5298142821
 21
1847.6639040603
 31
0.0
  0
ARC
  5
DF
  8
1
  6
CONTINUOUS
 62
     7
 10
-400.1298142821
 20
1867.0162990603
 30
0.0
 40
4.325
 50
22.353426
 51
37.646574
  0
LINE
  5
E0
  8
1
  6
CONTINUOUS
 62
     7
 10
-398.8298142821
 20
1850.5162990603
 30
0.0
 11
-398.0247112821
 21
1850.5162990603
 31
0.0
  0
ARC
  5
E1
  8
1
  6
CONTINUOUS
 62
     7
 10
-400.1298142821
 20
1851.0162990603
 30
0.0
 40
4.325
 50
22.353426
 51
37.646574
  0
LINE
  5
E2
  8
1
  6
CONTINUOUS
 62
     7
 10
-436.4184892821
 20
1853.8572128756
 30
0.0
 11
-436.4184892821
 21
1825.2210930603
 31
0.0
  0
LINE
  5
E3
  8
1
  6
CONTINUOUS
 62
     7
 10
-436.1298142821
 20
1824.7162990603
 30
0.0
 11
-439.1298142821
 21
1824.7162990603
 31
0.0
  0
LINE
  5
E4
  8
1
  6
CONTINUOUS
 62
     7
 10
-433.1433002821
 20
1854.3165330603
 30
0.0
 11
-430.9852602821
 21
1855.3325570603
 31
0.0
  0
CIRCLE
  5
E5
  8
1
  6
CONTINUOUS
 62
     7
 10
-781.4090418499
 20
1735.8097645528
 30
0.0
 40
25.664574
  0
LINE
  5
E6
  8
1
  6
CENTER
 62
     5
 10
-386.1724186526
 20
1735.8145555528
 30
0.0
 11
-689.4834039033
 21
1735.8145555528
 31
0.0
  0
LINE
  5
E7
  8
1
  6
CENTER
 62
     5
 10
-781.4090418499
 20
1693.8097645528
 30
0.0
 11
-781.4090418499
 21
1777.8097645528
 31
0.0
  0
LINE
  5
E8
  8
1
  6
CONTINUOUS
 62
     7
 10
-398.0247112821
 20
1851.5162990603
 30
0.0
 11
-398.8298142821
 21
1851.5162990603
 31
0.0
  0
ARC
  5
E9
  8
1
  6
CONTINUOUS
 62
     7
 10
-400.1298142821
 20
1851.0162990603
 30
0.0
 40
2.163668
 50
166.6388
 51
193.3612
  0
LINE
  5
EA
  8
1
  6
CONTINUOUS
 62
     7
 10
-396.7053082821
 20
1848.3746370603
 30
0.0
 11
-399.5543202821
 21
1846.7297580603
 31
0.0
  0
ARC
  5
EB
  8
1
  6
CONTINUOUS
 62
     7
 10
-400.1298142821
 20
1851.0162990603
 30
0.0
 40
4.325
 50
202.353426
 51
217.646574
  0
LINE
  5
EC
  8
1
  6
CONTINUOUS
 62
     7
 10
-430.9852602821
 20
1825.7162990603
 30
0.0
 11
-436.1298142821
 21
1824.7162990603
 31
0.0
  0
LINE
  5
ED
  8
1
  6
CONTINUOUS
 62
     7
 10
-435.5524642821
 20
1826.2084740603
 30
0.0
 11
-430.9852602821
 21
1825.7162990603
 31
0.0
  0
LINE
  5
EE
  8
1
  6
CONTINUOUS
 62
     7
 10
-400.7298142821
 20
1851.9290010603
 30
0.0
 11
-400.7298142821
 21
1854.3686940603
 31
0.0
  0
ARC
  5
EF
  8
1
  6
CONTINUOUS
 62
     7
 10
-398.8298042821
 20
1849.7162820603
 30
0.0
 40
0.800017
 50
90.000699
 51
151.044276
  0
LINE
  5
F0
  8
1
  6
CONTINUOUS
 62
     7
 10
-396.1298142821
 20
1868.6611770603
 30
0.0
 11
-396.1298142821
 21
1865.3714210603
 31
0.0
  0
ARC
  5
F1
  8
1
  6
CONTINUOUS
 62
     7
 10
-401.4298142821
 20
1852.3162990603
 30
0.0
 40
0.8
 50
331.044976
 51
0.0
  0
ARC
  5
F2
  8
1
  6
CONTINUOUS
 62
     7
 10
-398.8298142821
 20
1849.7162990603
 30
0.0
 40
0.8
 50
151.044976
 51
180.0
  0
ARC
  5
F3
  8
1
  6
CONTINUOUS
 62
     7
 10
-400.1298142821
 20
1851.0162990603
 30
0.0
 40
4.325
 50
142.353426
 51
157.646574
  0
LINE
  5
F4
  8
1
  6
CONTINUOUS
 62
     7
 10
-404.1298142821
 20
1849.3714210603
 30
0.0
 11
-404.1298142821
 21
1852.6611770603
 31
0.0
  0
ARC
  5
F5
  8
1
  6
CONTINUOUS
 62
     7
 10
-398.8298032821
 20
1852.3163180603
 30
0.0
 40
0.800019
 50
208.955831
 51
269.999193
  0
LINE
  5
F6
  8
1
  6
CONTINUOUS
 62
     7
 10
-400.7298142821
 20
1847.6639040603
 30
0.0
 11
-400.7298142821
 21
1850.1035970603
 31
0.0
  0
ARC
  5
F7
  8
1
  6
CONTINUOUS
 62
     7
 10
-398.8298142821
 20
1868.3162990603
 30
0.0
 40
0.8
 50
180.0
 51
208.955024
  0
ARC
  5
F8
  8
1
  6
CONTINUOUS
 62
     7
 10
-401.4298142821
 20
1868.3162990603
 30
0.0
 40
0.8
 50
331.044976
 51
0.0
  0
ARC
  5
F9
  8
1
  6
CONTINUOUS
 62
     7
 10
-398.8298142821
 20
1865.7162990603
 30
0.0
 40
0.8
 50
151.044976
 51
180.0
  0
ARC
  5
FA
  8
1
  6
CONTINUOUS
 62
     7
 10
-401.4298142821
 20
1865.7162990603
 30
0.0
 40
0.8
 50
0.0
 51
28.955024
  0
ARC
  5
FB
  8
1
  6
CONTINUOUS
 62
     7
 10
-400.1298142821
 20
1867.0162990603
 30
0.0
 40
4.325
 50
262.353426
 51
277.646574
  0
CIRCLE
  5
FC
  8
1
  6
CONTINUOUS
 62
     7
 10
-400.1298142821
 20
1867.0162990603
 30
0.0
 40
3.5
  0
INSERT
  5
FE
  8
0
 62
     7
  2
D_FRAME_DRAWING_21
 10
0.0
 20
0.0
 30
0.0
  0
LINE
  5
148
  8
1
  6
CONTINUOUS
 62
     7
 10
-594.3298142821
 20
1705.8339445528
 30
0.0
 11
-573.3298142821
 21
1705.8339445528
 31
0.0
  0
LINE
  5
149
  8
1
  6
CONTINUOUS
 62
     7
 10
-623.9824652821
 20
1766.0645555528
 30
0.0
 11
-629.9749308078
 21
1766.0645555528
 31
0.0
  0
LINE
  5
14A
  8
1
  6
CONTINUOUS
 62
     7
 10
-650.1299292821
 20
1768.0641435528
 30
0.0
 11
-645.1302652821
 21
1703.5650045528
 31
0.0
  0
LINE
  5
14B
  8
1
  6
CONTINUOUS
 62
     7
 10
-634.7772942821
 20
1705.5645555528
 30
0.0
 11
-628.7852603067
 21
1705.5645555528
 31
0.0
  0
LINE
  5
14C
  8
1
  6
CONTINUOUS
 62
     7
 10
-625.1302652821
 20
1703.5650045528
 30
0.0
 11
-624.7772942821
 21
1705.5645555528
 31
0.0
  0
LINE
  5
14D
  8
1
  6
CONTINUOUS
 62
     7
 10
-628.6302652821
 20
1703.5650125528
 30
0.0
 11
-633.6299292821001
 21
1768.0641355528
 31
0.0
  0
LINE
  5
14E
  8
1
  6
CONTINUOUS
 62
     7
 10
-570.3327842821
 20
1699.8727385528
 30
0.0
 11
-570.3298312821
 21
1699.9313575528
 31
0.0
  0
LINE
  5
14F
  8
1
  6
CONTINUOUS
 62
     7
 10
-630.1299292821
 20
1768.0641435528
 30
0.0
 11
-625.1302652821
 21
1703.5650045528
 31
0.0
  0
LINE
  5
150
  8
1
  6
CONTINUOUS
 62
     7
 10
-594.3298142821
 20
1733.0581775528
 30
0.0
 11
-573.3298142821
 21
1733.0581775528
 31
0.0
  0
LINE
  5
151
  8
1
  6
CONTINUOUS
 62
     7
 10
-645.1302652821
 20
1703.5650045528
 30
0.0
 11
-644.7772942821
 21
1705.5645555528
 31
0.0
  0
LINE
  5
152
  8
1
  6
CONTINUOUS
 62
     7
 10
-638.6302652821
 20
1703.5650125528
 30
0.0
 11
-635.1302652821
 21
1703.5650045528
 31
0.0
  0
LINE
  5
153
  8
1
  6
CONTINUOUS
 62
     7
 10
-640.1299292821
 20
1768.0641435528
 30
0.0
 11
-643.6299292821
 21
1768.0641355528
 31
0.0
  0
LINE
  5
154
  8
1
  6
CONTINUOUS
 62
     7
 10
-633.9824652821
 20
1766.0645555528
 30
0.0
 11
-639.9749308078
 21
1766.0645555528
 31
0.0
  0
LINE
  5
155
  8
1
  6
CONTINUOUS
 62
     7
 10
-573.3298142821
 20
1765.7951655528
 30
0.0
 11
-594.3298142821
 21
1765.7951655528
 31
0.0
  0
ARC
  5
156
  8
1
  6
CONTINUOUS
 62
     7
 10
-573.3298142821
 20
1772.8145555528
 30
0.0
 40
3.000000000000003
 50
0.0
 51
90.0
  0
LINE
  5
157
  8
1
  6
CONTINUOUS
 62
     7
 10
-638.6302652821
 20
1703.5650125528
 30
0.0
 11
-643.6299292821
 21
1768.0641355528
 31
0.0
  0
LINE
  5
158
  8
1
  6
CONTINUOUS
 62
     7
 10
-643.9824812821
 20
1766.0645555528
 30
0.0
 11
-643.6299292821
 21
1768.0641355528
 31
0.0
  0
LINE
  5
159
  8
1
  6
CONTINUOUS
 62
     7
 10
-628.6302652821
 20
1703.5650125528
 30
0.0
 11
-625.1302652821
 21
1703.5650045528
 31
0.0
  0
LINE
  5
15A
  8
1
  6
CONTINUOUS
 62
     7
 10
-630.1299292821
 20
1768.0641435528
 30
0.0
 11
-633.6299292821001
 21
1768.0641355528
 31
0.0
  0
LINE
  5
15B
  8
1
  6
CONTINUOUS
 62
     7
 10
-598.2235132821
 20
1695.8145555528
 30
0.0
 11
-573.3298142821
 21
1695.8145555528
 31
0.0
  0
LINE
  5
15C
  8
1
  6
CONTINUOUS
 62
     7
 10
-573.3298142821
 20
1775.8145555528
 30
0.0
 11
-598.2235132821
 21
1775.8145555528
 31
0.0
  0
LINE
  5
15D
  8
1
  6
CONTINUOUS
 62
     7
 10
-573.3298142821
 20
1738.5709335528
 30
0.0
 11
-594.3298142821
 21
1738.5709335528
 31
0.0
  0
ARC
  5
15E
  8
1
  6
CONTINUOUS
 62
     7
 10
-573.1199792821
 20
1762.9394745528
 30
0.0
 40
2.863390000000021
 50
14.530582
 51
94.202516
  0
LINE
  5
15F
  8
1
  6
CONTINUOUS
 62
     7
 10
-570.3298312821
 20
1771.6977525528
 30
0.0
 11
-570.3327842821
 21
1771.7563725528
 31
0.0
  0
LINE
  5
160
  8
1
  6
CONTINUOUS
 62
     7
 10
-648.6302652821001
 20
1703.5650125528
 30
0.0
 11
-653.6299292821
 21
1768.0641355528
 31
0.0
  0
ARC
  5
161
  8
1
  6
CONTINUOUS
 62
     7
 10
-573.3298142821
 20
1698.8145555528
 30
0.0
 40
3.000000000000003
 50
270.0
 51
0.0
  0
LINE
  5
162
  8
1
  6
CONTINUOUS
 62
     7
 10
-653.9824812821
 20
1766.0645555528
 30
0.0
 11
-653.6299292821
 21
1768.0641355528
 31
0.0
  0
LINE
  5
163
  8
1
  6
CONTINUOUS
 62
     7
 10
-635.1302652821
 20
1703.5650045528
 30
0.0
 11
-634.7772942821
 21
1705.5645555528
 31
0.0
  0
ARC
  5
164
  8
1
  6
CONTINUOUS
 62
     7
 10
-573.1181732821
 20
1708.6871175528
 30
0.0
 40
2.861011000000024
 50
265.7577210000001
 51
345.5091800000001
  0
LINE
  5
165
  8
1
  6
CONTINUOUS
 62
     7
 10
-640.1299292821
 20
1768.0641435528
 30
0.0
 11
-635.1302652821
 21
1703.5650045528
 31
0.0
  0
LINE
  5
166
  8
1
  6
CONTINUOUS
 62
     7
 10
-610.1299292821
 20
1768.0641435528
 30
0.0
 11
-613.6299292821
 21
1768.0641355528
 31
0.0
  0
LINE
  5
167
  8
1
  6
CONTINUOUS
 62
     7
 10
-603.9824652821
 20
1766.0645555528
 30
0.0
 11
-609.9749308078
 21
1766.0645555528
 31
0.0
  0
LINE
  5
168
  8
1
  6
CONTINUOUS
 62
     7
 10
-605.1302652821
 20
1703.5650045528
 30
0.0
 11
-604.7772942821
 21
1705.5645555528
 31
0.0
  0
LINE
  5
169
  8
1
  6
CONTINUOUS
 62
     7
 10
-620.1299292821
 20
1768.0641435528
 30
0.0
 11
-623.6299292821001
 21
1768.0641355528
 31
0.0
  0
LINE
  5
16A
  8
1
  6
CONTINUOUS
 62
     7
 10
-624.7772942821
 20
1705.5645555528
 30
0.0
 11
-618.7852603067
 21
1705.5645555528
 31
0.0
  0
LINE
  5
16B
  8
1
  6
CONTINUOUS
 62
     7
 10
-608.6302652821
 20
1703.5650125528
 30
0.0
 11
-605.1302652821
 21
1703.5650045528
 31
0.0
  0
LINE
  5
16C
  8
1
  6
CONTINUOUS
 62
     7
 10
-623.9824812821001
 20
1766.0645555528
 30
0.0
 11
-623.6299292821001
 21
1768.0641355528
 31
0.0
  0
LINE
  5
16D
  8
1
  6
CONTINUOUS
 62
     7
 10
-613.9824652821
 20
1766.0645555528
 30
0.0
 11
-619.9749308078
 21
1766.0645555528
 31
0.0
  0
LINE
  5
16E
  8
1
  6
CONTINUOUS
 62
     7
 10
-618.6302652821
 20
1703.5650125528
 30
0.0
 11
-623.6299292821001
 21
1768.0641355528
 31
0.0
  0
LINE
  5
16F
  8
1
  6
CONTINUOUS
 62
     7
 10
-614.7772942821
 20
1705.5645555528
 30
0.0
 11
-608.7852603067001
 21
1705.5645555528
 31
0.0
  0
LINE
  5
170
  8
1
  6
CONTINUOUS
 62
     7
 10
-633.9824812821001
 20
1766.0645555528
 30
0.0
 11
-633.6299292821001
 21
1768.0641355528
 31
0.0
  0
LINE
  5
171
  8
1
  6
CONTINUOUS
 62
     7
 10
-618.6302652821
 20
1703.5650125528
 30
0.0
 11
-615.1302652821
 21
1703.5650045528
 31
0.0
  0
LINE
  5
172
  8
1
  6
CONTINUOUS
 62
     7
 10
-620.1299292821
 20
1768.0641435528
 30
0.0
 11
-615.1302652821
 21
1703.5650045528
 31
0.0
  0
LINE
  5
173
  8
1
  6
CONTINUOUS
 62
     7
 10
-615.1302652821
 20
1703.5650045528
 30
0.0
 11
-614.7772942821
 21
1705.5645555528
 31
0.0
  0
LINE
  5
174
  8
1
  6
CONTINUOUS
 62
     7
 10
-543.9824812821
 20
1889.2662990603
 30
0.0
 11
-543.6299292821
 21
1891.2658790603
 31
0.0
  0
LINE
  5
175
  8
1
  6
CONTINUOUS
 62
     7
 10
-554.7772942821
 20
1828.7662990603
 30
0.0
 11
-548.7852603067
 21
1828.7662990603
 31
0.0
  0
LINE
  5
176
  8
1
  6
CONTINUOUS
 62
     7
 10
-555.1302652821
 20
1826.7667480603
 30
0.0
 11
-554.7772942821
 21
1828.7662990603
 31
0.0
  0
LINE
  5
177
  8
1
  6
CONTINUOUS
 62
     7
 10
-548.6302652821
 20
1826.7667560603
 30
0.0
 11
-553.6299292821
 21
1891.2658790603
 31
0.0
  0
LINE
  5
178
  8
1
  6
CONTINUOUS
 62
     7
 10
-545.1302652821
 20
1703.5650045528
 30
0.0
 11
-544.7772942821
 21
1705.5645555528
 31
0.0
  0
LINE
  5
179
  8
1
  6
CONTINUOUS
 62
     7
 10
-544.7772942821
 20
1705.5645555528
 30
0.0
 11
-538.7852603067
 21
1705.5645555528
 31
0.0
  0
LINE
  5
17A
  8
1
  6
CONTINUOUS
 62
     7
 10
-540.1299292821
 20
1768.0641435528
 30
0.0
 11
-543.6299292821
 21
1768.0641355528
 31
0.0
  0
LINE
  5
17B
  8
1
  6
CONTINUOUS
 62
     7
 10
-553.9824652821
 20
1766.0645555528
 30
0.0
 11
-559.9749308078
 21
1766.0645555528
 31
0.0
  0
LINE
  5
17C
  8
1
  6
CONTINUOUS
 62
     7
 10
-544.7772942821
 20
1828.7662990603
 30
0.0
 11
-538.7852603067
 21
1828.7662990603
 31
0.0
  0
LINE
  5
17D
  8
1
  6
CONTINUOUS
 62
     7
 10
-548.6302652821
 20
1703.5650125528
 30
0.0
 11
-545.1302652821
 21
1703.5650045528
 31
0.0
  0
LINE
  5
17E
  8
1
  6
CONTINUOUS
 62
     7
 10
-553.9824652821
 20
1889.2662990603
 30
0.0
 11
-559.9749308078
 21
1889.2662990603
 31
0.0
  0
LINE
  5
17F
  8
1
  6
CONTINUOUS
 62
     7
 10
-555.1302652821
 20
1703.5650045528
 30
0.0
 11
-554.7772942821
 21
1705.5645555528
 31
0.0
  0
LINE
  5
180
  8
1
  6
CONTINUOUS
 62
     7
 10
-550.1299292821
 20
1768.0641435528
 30
0.0
 11
-545.1302652820935
 21
1703.5650045528
 31
0.0
  0
LINE
  5
181
  8
1
  6
CONTINUOUS
 62
     7
 10
-538.6302652821
 20
1826.7667560603
 30
0.0
 11
-543.6299292821
 21
1891.2658790603
 31
0.0
  0
LINE
  5
182
  8
1
  6
CONTINUOUS
 62
     7
 10
-553.9824812821
 20
1766.0645555528
 30
0.0
 11
-553.6299292821
 21
1768.0641355528
 31
0.0
  0
LINE
  5
183
  8
1
  6
CONTINUOUS
 62
     7
 10
-553.9824812821
 20
1889.2662990603
 30
0.0
 11
-553.6299292821
 21
1891.2658790603
 31
0.0
  0
LINE
  5
184
  8
1
  6
CONTINUOUS
 62
     7
 10
-554.7772942821
 20
1705.5645555528
 30
0.0
 11
-548.7852603067
 21
1705.5645555528
 31
0.0
  0
LINE
  5
185
  8
1
  6
CONTINUOUS
 62
     7
 10
-548.6302652821
 20
1703.5650125528
 30
0.0
 11
-553.6299292821
 21
1768.0641355528
 31
0.0
  0
LINE
  5
186
  8
1
  6
CONTINUOUS
 62
     7
 10
-538.6302652821
 20
1703.5650125528
 30
0.0
 11
-543.6299292821
 21
1768.0641355528
 31
0.0
  0
LINE
  5
187
  8
1
  6
CONTINUOUS
 62
     7
 10
-543.9824812821
 20
1766.0645555528
 30
0.0
 11
-543.6299292821
 21
1768.0641355528
 31
0.0
  0
LINE
  5
188
  8
1
  6
CONTINUOUS
 62
     7
 10
-550.1299292821
 20
1768.0641435528
 30
0.0
 11
-553.6299292821
 21
1768.0641355528
 31
0.0
  0
LINE
  5
189
  8
1
  6
CONTINUOUS
 62
     7
 10
-558.6302652821
 20
1703.5650125528
 30
0.0
 11
-555.1302652821
 21
1703.5650045528
 31
0.0
  0
LINE
  5
18A
  8
1
  6
CONTINUOUS
 62
     7
 10
-550.1299292821
 20
1891.2658870603
 30
0.0
 11
-553.6299292821
 21
1891.2658790603
 31
0.0
  0
LINE
  5
18B
  8
1
  6
CONTINUOUS
 62
     7
 10
-550.1299292821
 20
1891.2658870603
 30
0.0
 11
-545.130265282094
 21
1826.766748060306
 31
0.0
  0
LINE
  5
18C
  8
1
  6
CONTINUOUS
 62
     7
 10
-540.1299292821
 20
1891.2658870603
 30
0.0
 11
-543.6299292821
 21
1891.2658790603
 31
0.0
  0
LINE
  5
18D
  8
1
  6
CONTINUOUS
 62
     7
 10
-548.6302652821
 20
1826.7667560603
 30
0.0
 11
-545.130265282094
 21
1826.766748060306
 31
0.0
  0
LINE
  5
18E
  8
1
  6
CONTINUOUS
 62
     7
 10
-545.1302652821
 20
1826.7667480603
 30
0.0
 11
-544.7772942821
 21
1828.7662990603
 31
0.0
  0
TEXT
  5
18F
  8
1
  6
CONTINUOUS
 62
     5
 10
-357.9679300916404
 20
1684.648428909091
 30
0.0
 40
3.5
  1
ＬＰＫＨ－５４Ｐ
 41
0.996045
 51
15.0
  0
LINE
  5
190
  8
1
  6
CONTINUOUS
 62
     7
 10
-537.1298142821
 20
1705.9645555528
 30
0.0
 11
-536.1298142821
 21
1705.9645555528
 31
0.0
  0
LINE
  5
191
  8
1
  6
CONTINUOUS
 62
     7
 10
-536.1298142821
 20
1765.6645555528
 30
0.0
 11
-537.1298142821
 21
1765.6645555528
 31
0.0
  0
LINE
  5
192
  8
1
  6
CONTINUOUS
 62
     7
 10
-557.1298142821
 20
1766.0645555528
 30
0.0
 11
-559.9749308078
 21
1766.0645555528
 31
0.0
  0
ARC
  5
193
  8
1
  6
CONTINUOUS
 62
     7
 10
-665.6298142821001
 20
1705.5645555528
 30
0.0
 40
0.4999999999999449
 50
90.0
 51
180.0
  0
LINE
  5
194
  8
1
  6
CONTINUOUS
 62
     7
 10
-663.6298142821001
 20
1765.5645555528
 30
0.0
 11
-665.6298142821001
 21
1765.5645555528
 31
0.0
  0
LINE
  5
195
  8
1
  6
CONTINUOUS
 62
     7
 10
-665.6298142821001
 20
1706.0645555528
 30
0.0
 11
-663.6298142821001
 21
1706.0645555528
 31
0.0
  0
LINE
  5
196
  8
1
  6
CONTINUOUS
 62
     7
 10
-558.6290030779
 20
1703.5648363308
 30
0.0
 11
-557.1298142967
 21
1703.5648328871
 31
0.0
  0
LINE
  5
197
  8
1
  6
CONTINUOUS
 62
     7
 10
-698.1298142821
 20
1775.8145555528
 30
0.0
 11
-687.6298142821
 21
1778.1609066853
 31
0.0
  0
LINE
  5
198
  8
1
  6
CONTINUOUS
 62
     7
 10
-666.1298142821
 20
1704.5645555528
 30
0.0
 11
-666.1298142821
 21
1767.0645555528
 31
0.0
  0
LINE
  5
199
  8
1
  6
CONTINUOUS
 62
     7
 10
-564.7772942821
 20
1705.5645555528
 30
0.0
 11
-558.7852603067
 21
1705.5645555528
 31
0.0
  0
LINE
  5
19A
  8
1
  6
CONTINUOUS
 62
     7
 10
-658.1298142821
 20
1742.2612705196
 30
0.0
 11
-658.1298142821
 21
1768.0645555528
 31
0.0
  0
LINE
  5
19B
  8
1
  6
CONTINUOUS
 62
     7
 10
-670.6298142821001
 20
1765.5645555528
 30
0.0
 11
-672.6298142821001
 21
1765.5645555528
 31
0.0
  0
LINE
  5
19C
  8
1
  6
CONTINUOUS
 62
     7
 10
-670.1298142821
 20
1704.5645555528
 30
0.0
 11
-670.1298142821
 21
1767.0645555528
 31
0.0
  0
ARC
  5
19D
  8
1
  6
CONTINUOUS
 62
     7
 10
-703.6298142821
 20
1696.3145555528
 30
0.0
 40
0.4999999999999449
 50
180.0
 51
270.0
  0
LINE
  5
19E
  8
1
  6
CONTINUOUS
 62
     7
 10
-658.1298142821
 20
1768.0645555528
 30
0.0
 11
-663.1298142821
 21
1768.0645555528
 31
0.0
  0
LINE
  5
19F
  8
1
  6
CONTINUOUS
 62
     7
 10
-570.3298142821
 20
1737.8965275528
 30
0.0
 11
-570.3298142821
 21
1698.8145555528
 31
0.0
  0
ARC
  5
1A0
  8
1
  6
CONTINUOUS
 62
     7
 10
-665.6298142821001
 20
1766.0645555528
 30
0.0
 40
0.4999999999999449
 50
180.0
 51
270.0
  0
ARC
  5
1A1
  8
1
  6
CONTINUOUS
 62
     7
 10
-703.1298142821
 20
1774.8020535528
 30
0.0
 40
1.000000000000001
 50
90.0
 51
180.0
  0
ARC
  5
1A2
  8
1
  6
CONTINUOUS
 62
     7
 10
-672.6298142821001
 20
1766.0645555528
 30
0.0
 40
0.4999999999999449
 50
180.0
 51
270.0
  0
ARC
  5
1A3
  8
1
  6
CONTINUOUS
 62
     7
 10
-663.6298142821001
 20
1766.0645555528
 30
0.0
 40
0.4999999999999449
 50
270.0
 51
0.0
  0
LINE
  5
1A4
  8
1
  6
CONTINUOUS
 62
     7
 10
-663.1298142821
 20
1703.5645555528
 30
0.0
 11
-658.1255036552
 21
1703.5645555528
 31
0.0
  0
LINE
  5
1A5
  8
1
  6
CONTINUOUS
 62
     7
 10
-673.1298142821
 20
1704.5645555528
 30
0.0
 11
-673.1298142821
 21
1767.0645555528
 31
0.0
  0
LINE
  5
1A6
  8
1
  6
CONTINUOUS
 62
     7
 10
-677.6298142821
 20
1765.5645555528
 30
0.0
 11
-679.6298142821
 21
1765.5645555528
 31
0.0
  0
LINE
  5
1A7
  8
1
  6
CONTINUOUS
 62
     7
 10
-670.1298142821
 20
1704.5645555528
 30
0.0
 11
-666.1298142821
 21
1704.5645555528
 31
0.0
  0
LINE
  5
1A8
  8
1
  6
CONTINUOUS
 62
     7
 10
-666.1298142821
 20
1767.0645555528
 30
0.0
 11
-670.1298142821
 21
1767.0645555528
 31
0.0
  0
ARC
  5
1A9
  8
1
  6
CONTINUOUS
 62
     7
 10
-672.6298142821001
 20
1705.5645555528
 30
0.0
 40
0.4999999999999449
 50
90.0
 51
180.0
  0
ARC
  5
1AA
  8
1
  6
CONTINUOUS
 62
     7
 10
-670.6298142821001
 20
1766.0645555528
 30
0.0
 40
0.4999999999999449
 50
270.0
 51
0.0
  0
LINE
  5
1AB
  8
1
  6
CONTINUOUS
 62
     7
 10
-672.6298142821001
 20
1706.0645555528
 30
0.0
 11
-670.6298142821001
 21
1706.0645555528
 31
0.0
  0
ARC
  5
1AC
  8
1
  6
CONTINUOUS
 62
     7
 10
-670.6298142821001
 20
1705.5645555528
 30
0.0
 40
0.4999999999999449
 50
0.0
 51
90.0
  0
LINE
  5
1AD
  8
1
  6
CONTINUOUS
 62
     7
 10
-537.1298142821
 20
1766.0645555528
 30
0.0
 11
-537.1298142821
 21
1703.564832915
 31
0.0
  0
LINE
  5
1AE
  8
1
  6
CONTINUOUS
 62
     7
 10
-698.1298142821
 20
1695.8145555528
 30
0.0
 11
-690.6598142821
 21
1694.1452943185
 31
0.0
  0
LINE
  5
1AF
  8
1
  6
CONTINUOUS
 62
     7
 10
-663.1298142821
 20
1703.5645555528
 30
0.0
 11
-663.1298142821
 21
1768.0645555528
 31
0.0
  0
ARC
  5
1B0
  8
1
  6
CONTINUOUS
 62
     7
 10
-663.6298142821001
 20
1705.5645555528
 30
0.0
 40
0.4999999999999449
 50
0.0
 51
90.0
  0
LINE
  5
1B1
  8
1
  6
CONTINUOUS
 62
     7
 10
-570.3298142821
 20
1739.1418985528
 30
0.0
 11
-570.3298142821
 21
1772.8145555528
 31
0.0
  0
ARC
  5
1B2
  8
1
  6
CONTINUOUS
 62
     7
 10
-572.9682492821001
 20
1747.4112685528
 30
0.0
 40
14.35150500000004
 50
268.556365
 51
279.213814
  0
ARC
  5
1B3
  8
1
  6
CONTINUOUS
 62
     7
 10
-573.0563162821
 20
1720.4033135528
 30
0.0
 40
18.16353800000003
 50
82.852554
 51
90.86276600000001
  0
LINE
  5
1B4
  8
1
  6
CONTINUOUS
 62
     7
 10
-594.3298142821
 20
1709.1921655528
 30
0.0
 11
-594.3298142821
 21
1733.5296155528
 31
0.0
  0
LINE
  5
1B5
  8
1
  6
CONTINUOUS
 62
     7
 10
-644.7772942821
 20
1705.5645555528
 30
0.0
 11
-638.7852603067
 21
1705.5645555528
 31
0.0
  0
LINE
  5
1B6
  8
1
  6
CONTINUOUS
 62
     7
 10
-598.2235132821
 20
1695.8145555528
 30
0.0
 11
-598.2235132821
 21
1775.8145555528
 31
0.0
  0
LINE
  5
1B7
  8
1
  6
CONTINUOUS
 62
     7
 10
-654.7772952821
 20
1705.5645555528
 30
0.0
 11
-649.2120932821
 21
1705.5645555528
 31
0.0
  0
LINE
  5
1B8
  8
1
  6
CONTINUOUS
 62
     7
 10
-594.3298142821
 20
1738.0994945528
 30
0.0
 11
-594.3298142821
 21
1762.4369455528
 31
0.0
  0
LINE
  5
1B9
  8
1
  6
CONTINUOUS
 62
     7
 10
-650.1299292821
 20
1768.0641435528
 30
0.0
 11
-653.6299292821
 21
1768.0641355528
 31
0.0
  0
LINE
  5
1BA
  8
1
  6
CONTINUOUS
 62
     7
 10
-594.3298142821
 20
1765.6683385528
 30
0.0
 11
-594.3298142821
 21
1775.7492405528
 31
0.0
  0
LINE
  5
1BB
  8
1
  6
CONTINUOUS
 62
     7
 10
-594.3298142821
 20
1695.8798705528
 30
0.0
 11
-594.3298142821
 21
1705.9607725528
 31
0.0
  0
LINE
  5
1BC
  8
1
  6
CONTINUOUS
 62
     7
 10
-648.6302652821001
 20
1703.5650125528
 30
0.0
 11
-645.1302652821
 21
1703.5650045528
 31
0.0
  0
LINE
  5
1BD
  8
1
  6
CONTINUOUS
 62
     7
 10
-653.9824812821
 20
1766.0645555528
 30
0.0
 11
-658.1298142821
 21
1766.0645555528
 31
0.0
  0
LINE
  5
1BE
  8
1
  6
CONTINUOUS
 62
     7
 10
-643.9824652821
 20
1766.0645555528
 30
0.0
 11
-649.5476742821
 21
1766.0645555528
 31
0.0
  0
LINE
  5
1BF
  8
1
  6
CONTINUOUS
 62
     7
 10
-439.1298142821
 20
1824.0162990603
 30
0.0
 11
-536.1298142821
 21
1824.0162990603
 31
0.0
  0
LINE
  5
1C0
  8
1
  6
CONTINUOUS
 62
     7
 10
-536.1298142821
 20
1894.0162990603
 30
0.0
 11
-439.1298142821
 21
1894.0162990603
 31
0.0
  0
LINE
  5
1C1
  8
1
  6
CONTINUOUS
 62
     7
 10
-439.1298142821
 20
1894.0162990603
 30
0.0
 11
-439.1298142821
 21
1824.0162990603
 31
0.0
  0
LINE
  5
1C2
  8
1
  6
CENTER
 62
     5
 10
-386.1724186526
 20
1859.0162990603
 30
0.0
 11
-689.4834039033
 21
1859.0162990603
 31
0.0
  0
LINE
  5
1C3
  8
1
  6
CONTINUOUS
 62
     7
 10
-537.1298142821
 20
1829.1662990603
 30
0.0
 11
-536.1298142821
 21
1829.1662990603
 31
0.0
  0
LINE
  5
1C4
  8
1
  6
CONTINUOUS
 62
     7
 10
-536.1298142821
 20
1888.8662990603
 30
0.0
 11
-537.1298142821
 21
1888.8662990603
 31
0.0
  0
LINE
  5
1C5
  8
1
  6
CONTINUOUS
 62
     7
 10
-663.1298142821
 20
1826.7662990603
 30
0.0
 11
-663.1298142821
 21
1891.2662990603
 31
0.0
  0
LINE
  5
1C6
  8
1
  6
CONTINUOUS
 62
     7
 10
-703.6298142821
 20
1819.0162990603
 30
0.0
 11
-698.1298142821
 21
1819.0162990603
 31
0.0
  0
LINE
  5
1C7
  8
1
  6
CONTINUOUS
 62
     7
 10
-677.1298142821
 20
1827.7662990603
 30
0.0
 11
-673.1298142821
 21
1827.7662990603
 31
0.0
  0
LINE
  5
1C8
  8
1
  6
CONTINUOUS
 62
     7
 10
-698.1298142821
 20
1819.0162990603
 30
0.0
 11
-689.1591665355002
 21
1817.0117000603
 31
0.0
  0
LINE
  5
1C9
  8
1
  6
CONTINUOUS
 62
     7
 10
-537.1298142821
 20
1889.2662990603
 30
0.0
 11
-537.1298142821
 21
1826.7665764225
 31
0.0
  0
LINE
  5
1CA
  8
1
  6
CONTINUOUS
 62
     7
 10
-689.1591665355002
 20
1826.7662990603
 30
0.0
 11
-685.1298142821
 21
1826.7662990603
 31
0.0
  0
ARC
  5
1CB
  8
1
  6
CONTINUOUS
 62
     7
 10
-679.6298142821
 20
1828.7662990603
 30
0.0
 40
0.4999999999999449
 50
90.0
 51
180.0
  0
LINE
  5
1CC
  8
1
  6
CONTINUOUS
 62
     7
 10
-684.1298142821
 20
1827.7662990603
 30
0.0
 11
-680.1298142821
 21
1827.7662990603
 31
0.0
  0
ARC
  5
1CD
  8
1
  6
CONTINUOUS
 62
     7
 10
-679.6298142821
 20
1889.2662990603
 30
0.0
 40
0.4999999999999449
 50
180.0
 51
270.0
  0
LINE
  5
1CE
  8
1
  6
CONTINUOUS
 62
     7
 10
-680.1298142821
 20
1827.7662990603
 30
0.0
 11
-680.1298142821
 21
1890.2662990603
 31
0.0
  0
LINE
  5
1CF
  8
1
  6
CONTINUOUS
 62
     7
 10
-670.1298142821
 20
1827.7662990603
 30
0.0
 11
-670.1298142821
 21
1890.2662990603
 31
0.0
  0
LINE
  5
1D0
  8
1
  6
CONTINUOUS
 62
     7
 10
-673.1298142821
 20
1827.7662990603
 30
0.0
 11
-673.1298142821
 21
1890.2662990603
 31
0.0
  0
ARC
  5
1D1
  8
1
  6
CONTINUOUS
 62
     7
 10
-670.6298142821001
 20
1889.2662990603
 30
0.0
 40
0.4999999999999449
 50
270.0
 51
0.0
  0
ARC
  5
1D2
  8
1
  6
CONTINUOUS
 62
     7
 10
-703.1298142821
 20
1898.0037970603
 30
0.0
 40
1.000000000000001
 50
90.0
 51
180.0
  0
LINE
  5
1D3
  8
1
  6
CONTINUOUS
 62
     7
 10
-672.6298142821001
 20
1829.2662990603
 30
0.0
 11
-670.6298142821001
 21
1829.2662990603
 31
0.0
  0
LINE
  5
1D4
  8
1
  6
CONTINUOUS
 62
     7
 10
-670.6298142821001
 20
1888.7662990603
 30
0.0
 11
-672.6298142821001
 21
1888.7662990603
 31
0.0
  0
LINE
  5
1D5
  8
1
  6
CONTINUOUS
 62
     7
 10
-685.1298142821
 20
1826.7662990603
 30
0.0
 11
-684.1298142821
 21
1827.7662990603
 31
0.0
  0
LINE
  5
1D6
  8
1
  6
CONTINUOUS
 62
     7
 10
-677.6298142821
 20
1888.7662990603
 30
0.0
 11
-679.6298142821
 21
1888.7662990603
 31
0.0
  0
ARC
  5
1D7
  8
1
  6
CONTINUOUS
 62
     7
 10
-703.6298142821
 20
1819.5162990603
 30
0.0
 40
0.4999999999999449
 50
180.0
 51
270.0
  0
LINE
  5
1D8
  8
1
  6
CONTINUOUS
 62
     7
 10
-680.1298142821
 20
1890.2662990603
 30
0.0
 11
-684.1298142821
 21
1890.2662990603
 31
0.0
  0
LINE
  5
1D9
  8
1
  6
CONTINUOUS
 62
     7
 10
-679.6298142821
 20
1829.2662990603
 30
0.0
 11
-677.6298142821
 21
1829.2662990603
 31
0.0
  0
ARC
  5
1DA
  8
1
  6
CONTINUOUS
 62
     7
 10
-677.6298142821
 20
1828.7662990603
 30
0.0
 40
0.4999999999999449
 50
0.0
 51
90.0
  0
LINE
  5
1DB
  8
1
  6
CONTINUOUS
 62
     7
 10
-698.1298142821
 20
1899.0162990603
 30
0.0
 11
-689.1591665355002
 21
1901.0208980603
 31
0.0
  0
LINE
  5
1DC
  8
1
  6
CONTINUOUS
 62
     7
 10
-685.1298142821
 20
1891.2662990603
 30
0.0
 11
-689.1591665355002
 21
1891.2662990603
 31
0.0
  0
LINE
  5
1DD
  8
1
  6
CONTINUOUS
 62
     7
 10
-673.1298142821
 20
1890.2662990603
 30
0.0
 11
-677.1298142821
 21
1890.2662990603
 31
0.0
  0
LINE
  5
1DE
  8
1
  6
CONTINUOUS
 62
     7
 10
-670.1298142821
 20
1827.7662990603
 30
0.0
 11
-666.1298142821
 21
1827.7662990603
 31
0.0
  0
LINE
  5
1DF
  8
1
  6
CONTINUOUS
 62
     7
 10
-666.1298142821
 20
1890.2662990603
 30
0.0
 11
-670.1298142821
 21
1890.2662990603
 31
0.0
  0
ARC
  5
1E0
  8
1
  6
CONTINUOUS
 62
     7
 10
-672.6298142821001
 20
1828.7662990603
 30
0.0
 40
0.4999999999999449
 50
90.0
 51
180.0
  0
LINE
  5
1E1
  8
1
  6
CONTINUOUS
 62
     7
 10
-684.1298142821
 20
1890.2662990603
 30
0.0
 11
-685.1298142821
 21
1891.2662990603
 31
0.0
  0
ARC
  5
1E2
  8
1
  6
CONTINUOUS
 62
     7
 10
-672.6298142821001
 20
1889.2662990603
 30
0.0
 40
0.4999999999999449
 50
180.0
 51
270.0
  0
ARC
  5
1E3
  8
1
  6
CONTINUOUS
 62
     7
 10
-670.6298142821001
 20
1828.7662990603
 30
0.0
 40
0.4999999999999449
 50
0.0
 51
90.0
  0
ARC
  5
1E4
  8
1
  6
CONTINUOUS
 62
     7
 10
-677.6298142821
 20
1889.2662990603
 30
0.0
 40
0.4999999999999449
 50
270.0
 51
0.0
  0
ARC
  5
1E5
  8
1
  6
CONTINUOUS
 62
     7
 10
-665.6298142821001
 20
1828.7662990603
 30
0.0
 40
0.4999999999999449
 50
90.0
 51
180.0
  0
ARC
  5
1E6
  8
1
  6
CONTINUOUS
 62
     7
 10
-572.9682492821001
 20
1870.6130120603
 30
0.0
 40
14.35150500000004
 50
268.556365
 51
279.213814
  0
LINE
  5
1E7
  8
1
  6
CONTINUOUS
 62
     7
 10
-573.3298142821
 20
1899.0162990603
 30
0.0
 11
-598.2235132821
 21
1899.0162990603
 31
0.0
  0
ARC
  5
1E8
  8
1
  6
CONTINUOUS
 62
     7
 10
-663.6298142821001
 20
1828.7662990603
 30
0.0
 40
0.4999999999999449
 50
0.0
 51
90.0
  0
LINE
  5
1E9
  8
1
  6
CONTINUOUS
 62
     7
 10
-648.6302652821001
 20
1826.7667560603
 30
0.0
 11
-645.1302652821
 21
1826.7667480603
 31
0.0
  0
LINE
  5
1EA
  8
1
  6
CONTINUOUS
 62
     7
 10
-650.1299292821
 20
1891.2658870603
 30
0.0
 11
-653.6299292821
 21
1891.2658790603
 31
0.0
  0
ARC
  5
1EB
  8
1
  6
CONTINUOUS
 62
     7
 10
-665.6298142821001
 20
1889.2662990603
 30
0.0
 40
0.4999999999999449
 50
180.0
 51
270.0
  0
LINE
  5
1EC
  8
1
  6
CONTINUOUS
 62
     7
 10
-663.1298142821
 20
1826.7662990603
 30
0.0
 11
-658.1255036552
 21
1826.7662990603
 31
0.0
  0
ARC
  5
1ED
  8
1
  6
CONTINUOUS
 62
     7
 10
-663.6298142821001
 20
1889.2662990603
 30
0.0
 40
0.4999999999999449
 50
270.0
 51
0.0
  0
LINE
  5
1EE
  8
1
  6
CONTINUOUS
 62
     7
 10
-598.2235132821
 20
1819.0162990603
 30
0.0
 11
-573.3298142821
 21
1819.0162990603
 31
0.0
  0
LINE
  5
1EF
  8
1
  6
CONTINUOUS
 62
     7
 10
-570.3298142821
 20
1862.3436420603
 30
0.0
 11
-570.3298142821
 21
1896.0162990603
 31
0.0
  0
LINE
  5
1F0
  8
1
  6
CONTINUOUS
 62
     7
 10
-643.9824652821
 20
1889.2662990603
 30
0.0
 11
-649.5476742821
 21
1889.2662990603
 31
0.0
  0
ARC
  5
1F1
  8
1
  6
CONTINUOUS
 62
     7
 10
-573.0563162821
 20
1843.6050570603
 30
0.0
 40
18.16353800000003
 50
82.852554
 51
90.86276600000001
  0
LINE
  5
1F2
  8
1
  6
CONTINUOUS
 62
     7
 10
-665.6298142821001
 20
1829.2662990603
 30
0.0
 11
-663.6298142821001
 21
1829.2662990603
 31
0.0
  0
LINE
  5
1F3
  8
1
  6
CONTINUOUS
 62
     7
 10
-658.1298142821
 20
1865.4630140271
 30
0.0
 11
-658.1298142821
 21
1891.2662990603
 31
0.0
  0
LINE
  5
1F4
  8
1
  6
CONTINUOUS
 62
     7
 10
-573.3298142821
 20
1856.2599210603
 30
0.0
 11
-573.3298142821
 21
1856.2660620603
 31
0.0
  0
LINE
  5
1F5
  8
1
  6
CONTINUOUS
 62
     7
 10
-666.1298142821
 20
1827.7662990603
 30
0.0
 11
-666.1298142821
 21
1890.2662990603
 31
0.0
  0
LINE
  5
1F6
  8
1
  6
CONTINUOUS
 62
     7
 10
-564.7772942821
 20
1828.7662990603
 30
0.0
 11
-558.7852603067
 21
1828.7662990603
 31
0.0
  0
LINE
  5
1F7
  8
1
  6
CONTINUOUS
 62
     7
 10
-570.3298142821
 20
1861.0982710603
 30
0.0
 11
-570.3298142821
 21
1822.0162990603
 31
0.0
  0
LINE
  5
1F8
  8
1
  6
CONTINUOUS
 62
     7
 10
-594.3298142821
 20
1861.3012380603
 30
0.0
 11
-594.3298142821
 21
1885.6386890603
 31
0.0
  0
LINE
  5
1F9
  8
1
  6
CONTINUOUS
 62
     7
 10
-594.3298142821
 20
1832.3939090603
 30
0.0
 11
-594.3298142821
 21
1856.7313590603
 31
0.0
  0
LINE
  5
1FA
  8
1
  6
CONTINUOUS
 62
     7
 10
-663.6298142821001
 20
1888.7662990603
 30
0.0
 11
-665.6298142821001
 21
1888.7662990603
 31
0.0
  0
LINE
  5
1FB
  8
1
  6
CONTINUOUS
 62
     7
 10
-594.3298142821
 20
1819.0816140603
 30
0.0
 11
-594.3298142821
 21
1829.1625160603
 31
0.0
  0
LINE
  5
1FC
  8
1
  6
CONTINUOUS
 62
     7
 10
-598.2235132821
 20
1819.0162990603
 30
0.0
 11
-598.2235132821
 21
1899.0162990603
 31
0.0
  0
LINE
  5
1FD
  8
1
  6
CONTINUOUS
 62
     7
 10
-558.6290030779
 20
1826.7665798383
 30
0.0
 11
-557.1298142967
 21
1826.7665763946
 31
0.0
  0
LINE
  5
1FE
  8
1
  6
CONTINUOUS
 62
     7
 10
-557.1298142821
 20
1889.2662990603
 30
0.0
 11
-559.9749308078
 21
1889.2662990603
 31
0.0
  0
LINE
  5
1FF
  8
1
  6
CONTINUOUS
 62
     7
 10
-594.3298142821
 20
1888.8700820603
 30
0.0
 11
-594.3298142821
 21
1898.9509840603
 31
0.0
  0
LINE
  5
200
  8
1
  6
CONTINUOUS
 62
     7
 10
-654.7772952821
 20
1828.7662990603
 30
0.0
 11
-649.2120932821
 21
1828.7662990603
 31
0.0
  0
LINE
  5
201
  8
1
  6
CONTINUOUS
 62
     7
 10
-653.9824812821
 20
1889.2662990603
 30
0.0
 11
-658.1298142821
 21
1889.2662990603
 31
0.0
  0
LINE
  5
202
  8
1
  6
CONTINUOUS
 62
     7
 10
-573.3298142821
 20
1861.7665350603
 30
0.0
 11
-573.3298142821
 21
1861.7726770603
 31
0.0
  0
LINE
  5
203
  8
1
  6
CONTINUOUS
 62
     7
 10
-658.1298142821
 20
1891.2662990603
 30
0.0
 11
-663.1298142821
 21
1891.2662990603
 31
0.0
  0
LINE
  5
204
  8
1
  6
CONTINUOUS
 62
     7
 10
-644.7772942821
 20
1828.7662990603
 30
0.0
 11
-638.7852603067
 21
1828.7662990603
 31
0.0
  0
LINE
  5
205
  8
1
  6
CONTINUOUS
 62
     7
 10
-684.1298142821
 20
1827.7662990603
 30
0.0
 11
-684.1298142821
 21
1890.2662990603
 31
0.0
  0
LINE
  5
206
  8
1
  6
CONTINUOUS
 62
     7
 10
-698.1298142821
 20
1899.0037970603
 30
0.0
 11
-703.1298142821
 21
1899.0037970603
 31
0.0
  0
LINE
  5
207
  8
1
  6
CONTINUOUS
 62
     7
 10
-698.1298142821
 20
1819.0162990603
 30
0.0
 11
-698.1298142821
 21
1899.0037970603
 31
0.0
  0
LINE
  5
208
  8
1
  6
CONTINUOUS
 62
     7
 10
-704.1298142821
 20
1819.5162990603
 30
0.0
 11
-704.1298142821
 21
1898.5037970603
 31
0.0
  0
LINE
  5
209
  8
1
  6
CONTINUOUS
 62
     7
 10
-677.1298142821
 20
1827.7662990603
 30
0.0
 11
-677.1298142821
 21
1890.2662990603
 31
0.0
  0
LINE
  5
20A
  8
1
  6
CONTINUOUS
 62
     7
 10
-689.1591665355002
 20
1817.0117000603
 30
0.0
 11
-689.1591665355002
 21
1901.0208980603
 31
0.0
  0
LINE
  5
20B
  8
1
  6
CONTINUOUS
 62
     7
 10
-685.1298142821
 20
1826.7662990603
 30
0.0
 11
-685.1298142821
 21
1891.2662990603
 31
0.0
  0
LINE
  5
20C
  8
1
  6
CONTINUOUS
 62
     7
 10
-353.9248789508
 20
1771.5685845528
 30
0.0
 11
-354.7923089508
 21
1768.3312885528
 31
0.0
  0
LINE
  5
20D
  8
1
  6
CONTINUOUS
 62
     7
 10
-536.1298142821
 20
1770.8145555528
 30
0.0
 11
-439.1298142821
 21
1770.8145555528
 31
0.0
  0
ARC
  5
20E
  8
1
  6
CONTINUOUS
 62
     7
 10
-394.9841892821
 20
1769.9008615528
 30
0.0
 40
0.478364
 50
240.47601
 51
240.9324959999999
  0
ARC
  5
20F
  8
1
  6
CONTINUOUS
 62
     7
 10
-414.3263892821
 20
1769.0895535528
 30
0.0
 40
2.0
 50
88.281642
 51
135.0
  0
CIRCLE
  5
210
  8
1
  6
CONTINUOUS
 62
     7
 10
-341.7262799508
 20
1735.8097645528
 30
0.0
 40
28.3
  0
ARC
  5
211
  8
1
  6
CONTINUOUS
 62
     7
 10
-414.3263892821
 20
1702.5395585528
 30
0.0
 40
2.0
 50
225.0
 51
271.718358
  0
LINE
  5
212
  8
1
  6
CONTINUOUS
 62
     7
 10
-414.2664162821
 20
1700.5404575528
 30
0.0
 11
-395.6870902821
 21
1701.0978375528
 31
0.0
  0
LINE
  5
213
  8
1
  6
CONTINUOUS
 62
     7
 10
-346.6160649508
 20
1772.3097645528
 30
0.0
 11
-352.9589529508
 21
1772.3097645528
 31
0.0
  0
LINE
  5
214
  8
1
  6
CONTINUOUS
 62
     7
 10
-404.9330342821
 20
1770.8086525528
 30
0.0
 11
-414.2664162821
 21
1771.0886545528
 31
0.0
  0
LINE
  5
215
  8
1
  6
CONTINUOUS
 62
     7
 10
-439.1298142821
 20
1770.8145555528
 30
0.0
 11
-439.1298142821
 21
1700.8145555528
 31
0.0
  0
ARC
  5
216
  8
1
  6
CONTINUOUS
 62
     7
 10
-395.7170762821
 20
1769.5317235528
 30
0.0
 40
1.0
 50
30.0
 51
71.762857
  0
ARC
  5
217
  8
1
  6
CONTINUOUS
 62
     7
 10
-341.7262799508
 20
1802.0097645528
 30
0.0
 40
30.0
 50
262.978336
 51
277.021664
  0
ARC
  5
218
  8
1
  6
CONTINUOUS
 62
     7
 10
-395.7170762821
 20
1702.0973885528
 30
0.0
 40
1.0
 50
271.718358
 51
330.0
  0
LINE
  5
219
  8
1
  6
CONTINUOUS
 62
     7
 10
-391.1298142821
 20
1703.0145555528
 30
0.0
 11
-391.1298142821
 21
1768.6145555528
 31
0.0
  0
LINE
  5
21A
  8
1
  6
CONTINUOUS
 62
     7
 10
-415.7406032821
 20
1770.5037675528
 30
0.0
 11
-417.1298142821
 21
1769.1145555528
 31
0.0
  0
LINE
  5
21B
  8
1
  6
CONTINUOUS
 62
     7
 10
-471.1298142821
 20
1750.3120302359
 30
0.0
 11
-439.1298142821
 21
1750.3120302359
 31
0.0
  0
LINE
  5
21C
  8
1
  6
CONTINUOUS
 62
     7
 10
-417.1298142821
 20
1702.5145555528
 30
0.0
 11
-415.7406032821
 21
1701.1253445528
 31
0.0
  0
CIRCLE
  5
21D
  8
1
  6
CONTINUOUS
 62
     7
 10
-341.7262799508
 20
1735.8097645528
 30
0.0
 40
32.8
  0
LINE
  5
21E
  8
1
  6
CENTER
 62
     5
 10
-341.7262799508
 20
1784.2830547934
 30
0.0
 11
-341.7262799508
 21
1695.6131850576
 31
0.0
  0
LINE
  5
21F
  8
1
  6
CONTINUOUS
 62
     7
 10
-395.4492882821
 20
1769.7747975528
 30
0.0
 11
-395.9312152821
 21
1771.5733755528
 31
0.0
  0
LINE
  5
220
  8
1
  6
CONTINUOUS
 62
     7
 10
-404.6768082821
 20
1770.2731475528
 30
0.0
 11
-404.3284132821
 21
1771.5733755528
 31
0.0
  0
LINE
  5
221
  8
1
  6
CONTINUOUS
 62
     7
 10
-536.1298142821
 20
1700.8145555528
 30
0.0
 11
-536.1298142821
 21
1770.8145555528
 31
0.0
  0
LINE
  5
222
  8
1
  6
CONTINUOUS
 62
     7
 10
-471.1298142821
 20
1721.3170808697
 30
0.0
 11
-439.1298142821
 21
1721.3170808697
 31
0.0
  0
LINE
  5
223
  8
1
  6
CONTINUOUS
 62
     7
 10
-471.1298142821
 20
1700.8145555528
 30
0.0
 11
-471.1298142821
 21
1770.8145555528
 31
0.0
  0
ARC
  5
224
  8
1
  6
CONTINUOUS
 62
     7
 10
-341.7262799508
 20
1739.8893275528
 30
0.0
 40
30.933072
 50
75.011636
 51
104.988364
  0
LINE
  5
225
  8
1
  6
CONTINUOUS
 62
     7
 10
-331.0755549508
 20
1769.1626355528
 30
0.0
 11
-328.6607869508
 21
1768.3264175528
 31
0.0
  0
LINE
  5
226
  8
1
  6
CONTINUOUS
 62
     7
 10
-354.7930789508
 20
1768.3307085528
 30
0.0
 11
-352.3770049508
 21
1769.1626355528
 31
0.0
  0
ARC
  5
227
  8
1
  6
CONTINUOUS
 62
     7
 10
-346.6160649508
 20
1762.3097645528
 30
0.0
 40
10.0
 50
82.978336
 51
90.0
  0
ARC
  5
228
  8
1
  6
CONTINUOUS
 62
     7
 10
-336.8364949508
 20
1762.3097645528
 30
0.0
 40
10.0
 50
90.0
 51
97.021664
  0
LINE
  5
229
  8
1
  6
CONTINUOUS
 62
     7
 10
-352.3770049508
 20
1769.1626355528
 30
0.0
 11
-349.7262799508
 21
1769.7700065528
 31
0.0
  0
LINE
  5
22A
  8
1
  6
CONTINUOUS
 62
     7
 10
-336.8364949508
 20
1772.3097645528
 30
0.0
 11
-330.4936069508
 21
1772.3097645528
 31
0.0
  0
LINE
  5
22B
  8
1
  6
CONTINUOUS
 62
     7
 10
-439.1298142821
 20
1700.8145555528
 30
0.0
 11
-536.1298142821
 21
1700.8145555528
 31
0.0
  0
LINE
  5
22C
  8
1
  6
CONTINUOUS
 62
     7
 10
-328.6602999508
 20
1768.3314735528
 30
0.0
 11
-329.5276809508
 21
1771.5685845528
 31
0.0
  0
ARC
  5
22D
  8
1
  6
CONTINUOUS
 62
     7
 10
-341.7262799508
 20
1735.8097645528
 30
0.0
 40
35.274997
 50
111.612492
 51
68.38750800000003
  0
CIRCLE
  5
22E
  8
1
  6
CONTINUOUS
 62
     7
 10
-341.7262799508
 20
1735.8097645528
 30
0.0
 40
25.5
  0
ARC
  5
22F
  8
1
  6
CONTINUOUS
 62
     7
 10
-341.7262799508
 20
1735.8097645528
 30
0.0
 40
35.274098
 50
111.613578
 51
68.38642199999998
  0
LINE
  5
230
  8
1
  6
CENTER
 62
     5
 10
-380.4504982373
 20
1735.8097645528
 30
0.0
 11
-302.7327264261
 21
1735.8097645528
 31
0.0
  0
ARC
  5
231
  8
1
  6
CONTINUOUS
 62
     7
 10
-352.9589529508
 20
1771.3097645528
 30
0.0
 40
1.0
 50
90.0
 51
165.0
  0
LINE
  5
232
  8
1
  6
CONTINUOUS
 62
     7
 10
-417.1298142821
 20
1702.5145555528
 30
0.0
 11
-417.1298142821
 21
1769.1145555528
 31
0.0
  0
ARC
  5
233
  8
1
  6
CONTINUOUS
 62
     7
 10
-395.9918912821
 20
1769.7076175528
 30
0.0
 40
0.546747
 50
261.118359
 51
7.057884000000001
  0
LINE
  5
234
  8
1
  6
CONTINUOUS
 62
     7
 10
-396.8971412821
 20
1772.3145555528
 30
0.0
 11
-403.3624872821
 21
1772.3145555528
 31
0.0
  0
CIRCLE
  5
235
  8
1
  6
CONTINUOUS
 62
     7
 10
-341.7262799508
 20
1735.8097645528
 30
0.0
 40
30.293378
  0
LINE
  5
236
  8
1
  6
CONTINUOUS
 62
     7
 10
-333.7262799508
 20
1769.7700065528
 30
0.0
 11
-331.0755549508
 21
1769.1626355528
 31
0.0
  0
ARC
  5
237
  8
1
  6
CONTINUOUS
 62
     7
 10
-330.4936069508
 20
1771.3097645528
 30
0.0
 40
1.0
 50
15.0
 51
90.0
  0
ARC
  5
238
  8
1
  6
CONTINUOUS
 62
     7
 10
-399.7301652821
 20
1776.6263085528
 30
0.0
 40
8.305757
 50
234.380756
 51
296.098709
  0
ARC
  5
239
  8
1
  6
CONTINUOUS
 62
     7
 10
-396.8971412821
 20
1771.3145555528
 30
0.0
 40
1.0
 50
15.0
 51
90.0
  0
ARC
  5
23A
  8
1
  6
CONTINUOUS
 62
     7
 10
-403.3624872821
 20
1771.3145555528
 30
0.0
 40
1.0
 50
90.0
 51
165.0
  0
LINE
  5
23B
  8
1
  6
CONTINUOUS
 62
     7
 10
-430.9852602821
 20
1732.1308135528
 30
0.0
 11
-430.9852602821
 21
1739.4982975528
 31
0.0
  0
LINE
  5
23C
  8
1
  6
CONTINUOUS
 62
     7
 10
-430.9852602821
 20
1739.4982975528
 30
0.0
 11
-436.4184892821
 21
1740.9736417375
 31
0.0
  0
LINE
  5
23D
  8
1
  6
CONTINUOUS
 62
     7
 10
-436.4184892821
 20
1769.6097615528
 30
0.0
 11
-435.5524642821
 21
1768.6223805528
 31
0.0
  0
LINE
  5
23E
  8
1
  6
CONTINUOUS
 62
     7
 10
-436.4184892821
 20
1702.0193495528
 30
0.0
 11
-435.5524642821
 21
1703.0067305528
 31
0.0
  0
LINE
  5
23F
  8
1
  6
CONTINUOUS
 62
     7
 10
-436.4184892821
 20
1740.9736417375
 30
0.0
 11
-436.4184892821
 21
1769.6097615528
 31
0.0
  0
LINE
  5
240
  8
1
  6
CONTINUOUS
 62
     7
 10
-436.1298142821
 20
1770.1145555528
 30
0.0
 11
-439.1298142821
 21
1770.1145555528
 31
0.0
  0
LINE
  5
241
  8
1
  6
CONTINUOUS
 62
     7
 10
-433.1433002821
 20
1731.1147895528
 30
0.0
 11
-430.9852602821
 21
1732.1308135528
 31
0.0
  0
LINE
  5
242
  8
1
  6
CONTINUOUS
 62
     7
 10
-404.1298142821
 20
1778.0081165528
 30
0.0
 11
-404.1298142821
 21
1780.6705575528
 31
0.0
  0
ARC
  5
243
  8
1
  6
CONTINUOUS
 62
     7
 10
-393.5815442821
 20
1769.8328745528
 30
0.0
 40
1.0
 50
210.0
 51
265.0
  0
LINE
  5
244
  8
1
  6
CONTINUOUS
 62
     7
 10
-397.3798142821
 20
1777.3393375528
 30
0.0
 11
-402.8798142821
 21
1777.3393375528
 31
0.0
  0
LINE
  5
245
  8
1
  6
CONTINUOUS
 62
     7
 10
-398.6298142821
 20
1775.5893375528
 30
0.0
 11
-401.6298142821
 21
1775.5893375528
 31
0.0
  0
LINE
  5
246
  8
1
  6
CONTINUOUS
 62
     7
 10
-397.6412252821
 20
1772.3393375528
 30
0.0
 11
-397.4187422821
 21
1772.8393375528
 31
0.0
  0
ARC
  5
247
  8
1
  6
CONTINUOUS
 62
     7
 10
-404.9170512821
 20
1771.3083985528
 30
0.0
 40
0.5
 50
268.281642
 51
345.0
  0
LINE
  5
248
  8
1
  6
CONTINUOUS
 62
     7
 10
-435.5524642821
 20
1741.5186445528
 30
0.0
 11
-435.5524642821
 21
1768.6223805528
 31
0.0
  0
LINE
  5
249
  8
1
  6
CONTINUOUS
 62
     7
 10
-436.4184892821
 20
1730.6554693681
 30
0.0
 11
-436.4184892821
 21
1702.0193495528
 31
0.0
  0
LINE
  5
24A
  8
1
  6
CONTINUOUS
 62
     7
 10
-417.1298142821
 20
1769.1145555528
 30
0.0
 11
-430.9852602821
 21
1769.1145555528
 31
0.0
  0
LINE
  5
24B
  8
1
  6
CONTINUOUS
 62
     7
 10
-397.8798142821
 20
1774.8393375528
 30
0.0
 11
-397.4187422821
 21
1774.3393375528
 31
0.0
  0
LINE
  5
24C
  8
1
  6
CONTINUOUS
 62
     7
 10
-402.8408862821
 20
1772.8393375528
 30
0.0
 11
-402.6184032821
 21
1772.3393375528
 31
0.0
  0
LINE
  5
24D
  8
1
  6
CONTINUOUS
 62
     7
 10
-394.8510512821
 20
1701.5973885528
 30
0.0
 11
-394.4475702821
 21
1702.2962375528
 31
0.0
  0
CIRCLE
  5
24E
  8
1
  6
CONTINUOUS
 62
     7
 10
-781.4090418499
 20
1735.8097645528
 30
0.0
 40
40.0
  0
LINE
  5
24F
  8
1
  6
CONTINUOUS
 62
     7
 10
-435.5524642821
 20
1730.1104665528
 30
0.0
 11
-435.5524642821
 21
1703.0067305528
 31
0.0
  0
ARC
  5
250
  8
1
  6
CONTINUOUS
 62
     7
 10
-435.0476992821
 20
1741.5471475528
 30
0.0
 40
0.505569
 50
183.231934
 51
258.285451
  0
LINE
  5
251
  8
1
  6
CONTINUOUS
 62
     7
 10
-430.9852602821
 20
1702.5145555528
 30
0.0
 11
-417.1298142821
 21
1702.5145555528
 31
0.0
  0
LINE
  5
252
  8
1
  6
CONTINUOUS
 62
     7
 10
-433.1433002821
 20
1740.5143215528
 30
0.0
 11
-430.9852602821
 21
1739.4982975528
 31
0.0
  0
LINE
  5
253
  8
1
  6
CONTINUOUS
 62
     7
 10
-430.9852602821
 20
1702.5145555528
 30
0.0
 11
-436.1298142821
 21
1701.5145555528
 31
0.0
  0
LINE
  5
254
  8
1
  6
CONTINUOUS
 62
     7
 10
-391.1298142821
 20
1768.6145555528
 30
0.0
 11
-393.6687002821
 21
1768.8366795528
 31
0.0
  0
ARC
  5
255
  8
1
  6
CONTINUOUS
 62
     7
 10
-435.0476992821
 20
1730.0819635528
 30
0.0
 40
0.505569
 50
101.714549
 51
176.768066
  0
LINE
  5
256
  8
1
  6
CONTINUOUS
 62
     7
 10
-397.6298142821
 20
1772.3393375528
 30
0.0
 11
-402.6298142821
 21
1772.3393375528
 31
0.0
  0
LINE
  5
257
  8
1
  6
CONTINUOUS
 62
     7
 10
-394.4475702821
 20
1769.3328745528
 30
0.0
 11
-394.8510512821
 21
1770.0317235528
 31
0.0
  0
LINE
  5
258
  8
1
  6
CONTINUOUS
 62
     7
 10
-397.4187422821
 20
1774.3393375528
 30
0.0
 11
-397.4187422821
 21
1772.8393375528
 31
0.0
  0
LINE
  5
259
  8
1
  6
CONTINUOUS
 62
     7
 10
-403.6298142821
 20
1777.8393375528
 30
0.0
 11
-396.6298142821
 21
1777.8393375528
 31
0.0
  0
LINE
  5
25A
  8
1
  6
CONTINUOUS
 62
     7
 10
-402.8408862821
 20
1772.8393375528
 30
0.0
 11
-402.8408862821
 21
1774.3393375528
 31
0.0
  0
ARC
  5
25B
  8
1
  6
CONTINUOUS
 62
     7
 10
-403.6298142821
 20
1778.6643375528
 30
0.0
 40
0.825
 50
232.694817
 51
270.0
  0
LINE
  5
25C
  8
1
  6
CONTINUOUS
 62
     7
 10
-430.9852602821
 20
1769.1145555528
 30
0.0
 11
-436.1298142821
 21
1770.1145555528
 31
0.0
  0
LINE
  5
25D
  8
1
  6
CONTINUOUS
 62
     7
 10
-430.9852602821
 20
1732.1308135528
 30
0.0
 11
-436.4184892821
 21
1730.6554693681
 31
0.0
  0
LINE
  5
25E
  8
1
  6
CONTINUOUS
 62
     7
 10
-436.1298142821
 20
1701.5145555528
 30
0.0
 11
-439.1298142821
 21
1701.5145555528
 31
0.0
  0
ARC
  5
25F
  8
1
  6
CONTINUOUS
 62
     7
 10
-393.5815442821
 20
1701.7962375528
 30
0.0
 40
1.0
 50
95.0
 51
150.0
  0
LINE
  5
260
  8
1
  6
CONTINUOUS
 62
     7
 10
-435.5524642821
 20
1768.6223805528
 30
0.0
 11
-430.9852602821
 21
1769.1145555528
 31
0.0
  0
LINE
  5
261
  8
1
  6
CONTINUOUS
 62
     7
 10
-435.5524642821
 20
1703.0067305528
 30
0.0
 11
-430.9852602821
 21
1702.5145555528
 31
0.0
  0
LINE
  5
262
  8
1
  6
CONTINUOUS
 62
     7
 10
-403.6298142821
 20
1780.8393375528
 30
0.0
 11
-396.6298142821
 21
1780.8393375528
 31
0.0
  0
LINE
  5
263
  8
1
  6
CONTINUOUS
 62
     7
 10
-398.6298142821
 20
1776.0893375528
 30
0.0
 11
-401.6298142821
 21
1776.0893375528
 31
0.0
  0
LINE
  5
264
  8
1
  6
CONTINUOUS
 62
     7
 10
-402.8408862821
 20
1774.3393375528
 30
0.0
 11
-402.3798142821
 21
1774.8393375528
 31
0.0
  0
ARC
  5
265
  8
1
  6
CONTINUOUS
 62
     7
 10
-396.6298142821
 20
1778.6643375528
 30
0.0
 40
0.825
 50
270.0
 51
307.305183
  0
ARC
  5
266
  8
1
  6
CONTINUOUS
 62
     7
 10
-403.6298142821
 20
1780.0143375528
 30
0.0
 40
0.825
 50
90.0
 51
127.305183
  0
LINE
  5
267
  8
1
  6
CONTINUOUS
 62
     7
 10
-393.6687002821
 20
1702.7924325528
 30
0.0
 11
-391.1298142821
 21
1703.0145555528
 31
0.0
  0
LINE
  5
268
  8
1
  6
CONTINUOUS
 62
     7
 10
-395.4045662821
 20
1770.4816385528
 30
0.0
 11
-395.6636102821
 21
1770.6453965528
 31
0.0
  0
LINE
  5
269
  8
1
  6
CONTINUOUS
 62
     7
 10
-436.4184892821
 20
1741.3919062182
 30
0.0
 11
-433.1433002821
 21
1740.5143215528
 31
0.0
  0
LINE
  5
26A
  8
1
  6
CONTINUOUS
 62
     7
 10
-396.1298142821
 20
1780.6705575528
 30
0.0
 11
-396.1298142821
 21
1778.0081165528
 31
0.0
  0
LINE
  5
26B
  8
1
  6
CONTINUOUS
 62
     7
 10
-436.4184892821
 20
1730.2372048874
 30
0.0
 11
-433.1433002821
 21
1731.1147895528
 31
0.0
  0
LINE
  5
26C
  8
1
  6
CONTINUOUS
 62
     7
 10
-346.9762799508
 20
1777.3345465528
 30
0.0
 11
-352.4762799508
 21
1777.3345465528
 31
0.0
  0
LINE
  5
26D
  8
1
  6
CONTINUOUS
 62
     7
 10
-331.2262799508
 20
1772.3345465528
 30
0.0
 11
-336.2262799508
 21
1772.3345465528
 31
0.0
  0
LINE
  5
26E
  8
1
  6
CONTINUOUS
 62
     7
 10
-332.2262799508
 20
1775.5845465528
 30
0.0
 11
-335.2262799508
 21
1775.5845465528
 31
0.0
  0
LINE
  5
26F
  8
1
  6
CONTINUOUS
 62
     7
 10
-336.4373519508
 20
1774.3345465528
 30
0.0
 11
-335.9762799508
 21
1774.8345465528
 31
0.0
  0
LINE
  5
270
  8
1
  6
CONTINUOUS
 62
     7
 10
-348.2262799508
 20
1775.5845465528
 30
0.0
 11
-351.2262799508
 21
1775.5845465528
 31
0.0
  0
LINE
  5
271
  8
1
  6
CONTINUOUS
 62
     7
 10
-331.2376909508
 20
1772.3345465528
 30
0.0
 11
-331.0152079508
 21
1772.8345465528
 31
0.0
  0
LINE
  5
272
  8
1
  6
CONTINUOUS
 62
     7
 10
-331.4762799508
 20
1774.8345465528
 30
0.0
 11
-331.0152079508
 21
1774.3345465528
 31
0.0
  0
ARC
  5
273
  8
1
  6
CONTINUOUS
 62
     7
 10
-353.2262799508
 20
1778.6595465528
 30
0.0
 40
0.825
 50
232.694817
 51
270.0
  0
ARC
  5
274
  8
1
  6
CONTINUOUS
 62
     7
 10
-400.1298142821
 20
1766.6876783934
 30
0.0
 40
16.3332547308
 50
80.9590607153
 51
99.04093928470003
  0
LINE
  5
275
  8
1
  6
CONTINUOUS
 62
     7
 10
-402.8798142821
 20
1777.3393375528
 30
0.0
 11
-401.6298142821
 21
1776.0893375528
 31
0.0
  0
LINE
  5
276
  8
1
  6
CONTINUOUS
 62
     7
 10
-345.7262799508
 20
1780.6657665528
 30
0.0
 11
-345.7262799508
 21
1778.0033255528
 31
0.0
  0
LINE
  5
277
  8
1
  6
CONTINUOUS
 62
     7
 10
-353.7262799508
 20
1778.0033255528
 30
0.0
 11
-353.7262799508
 21
1780.6657665528
 31
0.0
  0
LINE
  5
278
  8
1
  6
CONTINUOUS
 62
     7
 10
-352.4373519508
 20
1772.8345465528
 30
0.0
 11
-352.4373519508
 21
1774.3345465528
 31
0.0
  0
LINE
  5
279
  8
1
  6
CONTINUOUS
 62
     7
 10
-352.2262799508
 20
1772.3345465528
 30
0.0
 11
-352.2262799508
 21
1772.3097645528
 31
0.0
  0
LINE
  5
27A
  8
1
  6
CONTINUOUS
 62
     7
 10
-336.4373519508
 20
1772.8345465528
 30
0.0
 11
-336.2148689508
 21
1772.3345465528
 31
0.0
  0
LINE
  5
27B
  8
1
  6
CONTINUOUS
 62
     7
 10
-403.5354792821
 20
1781.9175935528
 30
0.0
 11
-403.6298142821
 21
1780.8393375528
 31
0.0
  0
LINE
  5
27C
  8
1
  6
CONTINUOUS
 62
     7
 10
-331.0152079508
 20
1774.3345465528
 30
0.0
 11
-331.0152079508
 21
1772.8345465528
 31
0.0
  0
ARC
  5
27D
  8
1
  6
CONTINUOUS
 62
     7
 10
-330.2262799508
 20
1778.6595465528
 30
0.0
 40
0.825
 50
270.0
 51
307.305183
  0
LINE
  5
27E
  8
1
  6
CONTINUOUS
 62
     7
 10
-347.4762799508
 20
1774.8345465528
 30
0.0
 11
-347.0152079508
 21
1774.3345465528
 31
0.0
  0
LINE
  5
27F
  8
1
  6
CONTINUOUS
 62
     7
 10
-401.6298142821
 20
1776.0893375528
 30
0.0
 11
-401.6298142821
 21
1775.5893375528
 31
0.0
  0
LINE
  5
280
  8
1
  6
CONTINUOUS
 62
     7
 10
-332.2262799508
 20
1776.0845465528
 30
0.0
 11
-335.2262799508
 21
1776.0845465528
 31
0.0
  0
LINE
  5
281
  8
1
  6
CONTINUOUS
 62
     7
 10
-336.4373519508
 20
1772.8345465528
 30
0.0
 11
-336.4373519508
 21
1774.3345465528
 31
0.0
  0
LINE
  5
282
  8
1
  6
CONTINUOUS
 62
     7
 10
-352.4373519508
 20
1772.8345465528
 30
0.0
 11
-352.2148689508
 21
1772.3345465528
 31
0.0
  0
ARC
  5
283
  8
1
  6
CONTINUOUS
 62
     7
 10
-353.2262799508
 20
1780.0095465528
 30
0.0
 40
0.825
 50
90.0
 51
127.305183
  0
LINE
  5
284
  8
1
  6
CONTINUOUS
 62
     7
 10
-348.2262799508
 20
1776.0845465528
 30
0.0
 11
-351.2262799508
 21
1776.0845465528
 31
0.0
  0
LINE
  5
285
  8
1
  6
CONTINUOUS
 62
     7
 10
-351.2262799508
 20
1776.0845465528
 30
0.0
 11
-351.2262799508
 21
1775.5845465528
 31
0.0
  0
LINE
  5
286
  8
1
  6
CONTINUOUS
 62
     7
 10
-398.6298142821
 20
1775.5893375528
 30
0.0
 11
-398.6298142821
 21
1776.0893375528
 31
0.0
  0
LINE
  5
287
  8
1
  6
CONTINUOUS
 62
     7
 10
-347.2262799508
 20
1772.3097645528
 30
0.0
 11
-347.2262799508
 21
1772.3345465528
 31
0.0
  0
LINE
  5
288
  8
1
  6
CONTINUOUS
 62
     7
 10
-351.2262799508
 20
1775.5845465528
 30
0.0
 11
-351.9762799508
 21
1774.8345465528
 31
0.0
  0
LINE
  5
289
  8
1
  6
CONTINUOUS
 62
     7
 10
-353.1319449508
 20
1781.9128025528
 30
0.0
 11
-353.2262799508
 21
1780.8345465528
 31
0.0
  0
ARC
  5
28A
  8
1
  6
CONTINUOUS
 62
     7
 10
-397.7203442821
 20
1781.8304375528
 30
0.0
 40
1.0
 50
5.0
 51
80.9590607153
  0
LINE
  5
28B
  8
1
  6
CONTINUOUS
 62
     7
 10
-353.2262799508
 20
1780.8345465528
 30
0.0
 11
-346.2262799508
 21
1780.8345465528
 31
0.0
  0
LINE
  5
28C
  8
1
  6
CONTINUOUS
 62
     7
 10
-347.2376909508
 20
1772.3345465528
 30
0.0
 11
-347.0152079508
 21
1772.8345465528
 31
0.0
  0
LINE
  5
28D
  8
1
  6
CONTINUOUS
 62
     7
 10
-346.9762799508
 20
1777.3345465528
 30
0.0
 11
-346.9762799508
 21
1777.8345465528
 31
0.0
  0
LINE
  5
28E
  8
1
  6
CONTINUOUS
 62
     7
 10
-397.3798142821
 20
1777.3393375528
 30
0.0
 11
-397.3798142821
 21
1777.8393375528
 31
0.0
  0
LINE
  5
28F
  8
1
  6
CONTINUOUS
 62
     7
 10
-396.6298142821
 20
1780.8393375528
 30
0.0
 11
-396.7241492821
 21
1781.9175935528
 31
0.0
  0
LINE
  5
290
  8
1
  6
CONTINUOUS
 62
     7
 10
-347.0152079508
 20
1774.3345465528
 30
0.0
 11
-347.0152079508
 21
1772.8345465528
 31
0.0
  0
LINE
  5
291
  8
1
  6
CONTINUOUS
 62
     7
 10
-352.4762799508
 20
1777.8345465528
 30
0.0
 11
-352.4762799508
 21
1777.3345465528
 31
0.0
  0
ARC
  5
292
  8
1
  6
CONTINUOUS
 62
     7
 10
-349.7262799508
 20
1766.6828873934
 30
0.0
 40
16.3332547308
 50
80.9590607153
 51
99.04093928470003
  0
LINE
  5
293
  8
1
  6
CONTINUOUS
 62
     7
 10
-402.8798142821
 20
1777.8393375528
 30
0.0
 11
-402.8798142821
 21
1777.3393375528
 31
0.0
  0
ARC
  5
294
  8
1
  6
CONTINUOUS
 62
     7
 10
-346.2262799508
 20
1780.0095465528
 30
0.0
 40
0.825
 50
52.694817
 51
90.0
  0
LINE
  5
295
  8
1
  6
CONTINUOUS
 62
     7
 10
-397.6298142821
 20
1772.3145555528
 30
0.0
 11
-397.6298142821
 21
1772.3393375528
 31
0.0
  0
LINE
  5
296
  8
1
  6
CONTINUOUS
 62
     7
 10
-348.2262799508
 20
1776.0845465528
 30
0.0
 11
-346.9762799508
 21
1777.3345465528
 31
0.0
  0
LINE
  5
297
  8
1
  6
CONTINUOUS
 62
     7
 10
-401.6298142821
 20
1775.5893375528
 30
0.0
 11
-402.3798142821
 21
1774.8393375528
 31
0.0
  0
LINE
  5
298
  8
1
  6
CONTINUOUS
 62
     7
 10
-347.2262799508
 20
1772.3345465528
 30
0.0
 11
-352.2262799508
 21
1772.3345465528
 31
0.0
  0
LINE
  5
299
  8
1
  6
CONTINUOUS
 62
     7
 10
-337.2262799508
 20
1777.8345465528
 30
0.0
 11
-330.2262799508
 21
1777.8345465528
 31
0.0
  0
LINE
  5
29A
  8
1
  6
CONTINUOUS
 62
     7
 10
-329.7262799508
 20
1780.6657665528
 30
0.0
 11
-329.7262799508
 21
1778.0033255528
 31
0.0
  0
ARC
  5
29B
  8
1
  6
CONTINUOUS
 62
     7
 10
-346.2262799508
 20
1778.6595465528
 30
0.0
 40
0.825
 50
270.0
 51
307.305183
  0
ARC
  5
29C
  8
1
  6
CONTINUOUS
 62
     7
 10
-352.1357499508
 20
1781.8256465528
 30
0.0
 40
1.0
 50
99.04093928470003
 51
175.0
  0
LINE
  5
29D
  8
1
  6
CONTINUOUS
 62
     7
 10
-353.2262799508
 20
1777.8345465528
 30
0.0
 11
-346.2262799508
 21
1777.8345465528
 31
0.0
  0
ARC
  5
29E
  8
1
  6
CONTINUOUS
 62
     7
 10
-396.6298142821
 20
1780.0143375528
 30
0.0
 40
0.825
 50
52.694817
 51
90.0
  0
LINE
  5
29F
  8
1
  6
CONTINUOUS
 62
     7
 10
-402.6298142821
 20
1772.3393375528
 30
0.0
 11
-402.6298142821
 21
1772.3145555528
 31
0.0
  0
LINE
  5
2A0
  8
1
  6
CONTINUOUS
 62
     7
 10
-352.4373519508
 20
1774.3345465528
 30
0.0
 11
-351.9762799508
 21
1774.8345465528
 31
0.0
  0
ARC
  5
2A1
  8
1
  6
CONTINUOUS
 62
     7
 10
-402.5392842821
 20
1781.8304375528
 30
0.0
 40
1.0
 50
99.04093928470003
 51
175.0
  0
LINE
  5
2A2
  8
1
  6
CONTINUOUS
 62
     7
 10
-348.2262799508
 20
1775.5845465528
 30
0.0
 11
-348.2262799508
 21
1776.0845465528
 31
0.0
  0
LINE
  5
2A3
  8
1
  6
CONTINUOUS
 62
     7
 10
-397.8798142821
 20
1774.8393375528
 30
0.0
 11
-398.6298142821
 21
1775.5893375528
 31
0.0
  0
LINE
  5
2A4
  8
1
  6
CONTINUOUS
 62
     7
 10
-352.4762799508
 20
1777.3345465528
 30
0.0
 11
-351.2262799508
 21
1776.0845465528
 31
0.0
  0
ARC
  5
2A5
  8
1
  6
CONTINUOUS
 62
     7
 10
-347.3168099508
 20
1781.8256465528
 30
0.0
 40
1.0
 50
5.0
 51
80.9590607153
  0
LINE
  5
2A6
  8
1
  6
CONTINUOUS
 62
     7
 10
-337.7262799508
 20
1778.0033255528
 30
0.0
 11
-337.7262799508
 21
1780.6657665528
 31
0.0
  0
LINE
  5
2A7
  8
1
  6
CONTINUOUS
 62
     7
 10
-337.2262799508
 20
1780.8345465528
 30
0.0
 11
-330.2262799508
 21
1780.8345465528
 31
0.0
  0
LINE
  5
2A8
  8
1
  6
CONTINUOUS
 62
     7
 10
-330.9762799508
 20
1777.3345465528
 30
0.0
 11
-336.4762799508
 21
1777.3345465528
 31
0.0
  0
LINE
  5
2A9
  8
1
  6
CONTINUOUS
 62
     7
 10
-398.6298142821
 20
1776.0893375528
 30
0.0
 11
-397.3798142821
 21
1777.3393375528
 31
0.0
  0
LINE
  5
2AA
  8
1
  6
CONTINUOUS
 62
     7
 10
-347.4762799508
 20
1774.8345465528
 30
0.0
 11
-348.2262799508
 21
1775.5845465528
 31
0.0
  0
LINE
  5
2AB
  8
1
  6
CONTINUOUS
 62
     7
 10
-346.2262799508
 20
1780.8345465528
 30
0.0
 11
-346.3206149508
 21
1781.9128025528
 31
0.0
  0
LINE
  5
2AC
  8
1
  6
CONTINUOUS
 62
     7
 10
-330.9762799508
 20
1777.3345465528
 30
0.0
 11
-330.9762799508
 21
1777.8345465528
 31
0.0
  0
LINE
  5
2AD
  8
1
  6
CONTINUOUS
 62
     7
 10
-335.2262799508
 20
1775.5845465528
 30
0.0
 11
-335.9762799508
 21
1774.8345465528
 31
0.0
  0
LINE
  5
2AE
  8
1
  6
CONTINUOUS
 62
     7
 10
-331.4762799508
 20
1774.8345465528
 30
0.0
 11
-332.2262799508
 21
1775.5845465528
 31
0.0
  0
ARC
  5
2AF
  8
1
  6
CONTINUOUS
 62
     7
 10
-330.2262799508
 20
1780.0095465528
 30
0.0
 40
0.825
 50
52.694817
 51
90.0
  0
ARC
  5
2B0
  8
1
  6
CONTINUOUS
 62
     7
 10
-337.2262799508
 20
1778.6595465528
 30
0.0
 40
0.825
 50
232.694817
 51
270.0
  0
ARC
  5
2B1
  8
1
  6
CONTINUOUS
 62
     7
 10
-337.2262799508
 20
1780.0095465528
 30
0.0
 40
0.825
 50
90.0
 51
127.305183
  0
LINE
  5
2B2
  8
1
  6
CONTINUOUS
 62
     7
 10
-336.2262799508
 20
1772.3345465528
 30
0.0
 11
-336.2262799508
 21
1772.3097645528
 31
0.0
  0
LINE
  5
2B3
  8
1
  6
CONTINUOUS
 62
     7
 10
-336.4762799508
 20
1777.8345465528
 30
0.0
 11
-336.4762799508
 21
1777.3345465528
 31
0.0
  0
LINE
  5
2B4
  8
1
  6
CONTINUOUS
 62
     7
 10
-332.2262799508
 20
1776.0845465528
 30
0.0
 11
-330.9762799508
 21
1777.3345465528
 31
0.0
  0
LINE
  5
2B5
  8
1
  6
CONTINUOUS
 62
     7
 10
-337.1319449508
 20
1781.9128025528
 30
0.0
 11
-337.2262799508
 21
1780.8345465528
 31
0.0
  0
LINE
  5
2B6
  8
1
  6
CONTINUOUS
 62
     7
 10
-332.2262799508
 20
1775.5845465528
 30
0.0
 11
-332.2262799508
 21
1776.0845465528
 31
0.0
  0
ARC
  5
2B7
  8
1
  6
CONTINUOUS
 62
     7
 10
-336.1357499508
 20
1781.8256465528
 30
0.0
 40
1.0
 50
99.04093928470003
 51
175.0
  0
LINE
  5
2B8
  8
1
  6
CONTINUOUS
 62
     7
 10
-330.2262799508
 20
1780.8345465528
 30
0.0
 11
-330.3206149508
 21
1781.9128025528
 31
0.0
  0
LINE
  5
2B9
  8
1
  6
CONTINUOUS
 62
     7
 10
-331.2262799508
 20
1772.3097645528
 30
0.0
 11
-331.2262799508
 21
1772.3345465528
 31
0.0
  0
ARC
  5
2BA
  8
1
  6
CONTINUOUS
 62
     7
 10
-331.3168099508
 20
1781.8256465528
 30
0.0
 40
1.0
 50
5.0
 51
80.9590607153
  0
LINE
  5
2BB
  8
1
  6
CONTINUOUS
 62
     7
 10
-336.4762799508
 20
1777.3345465528
 30
0.0
 11
-335.2262799508
 21
1776.0845465528
 31
0.0
  0
LINE
  5
2BC
  8
1
  6
CONTINUOUS
 62
     7
 10
-335.2262799508
 20
1776.0845465528
 30
0.0
 11
-335.2262799508
 21
1775.5845465528
 31
0.0
  0
ARC
  5
2BD
  8
1
  6
CONTINUOUS
 62
     7
 10
-333.7262799508
 20
1766.6828873934
 30
0.0
 40
16.3332547308
 50
80.9590607153
 51
99.04093928470003
  0
LINE
  5
2BE
  8
1
  6
CONTINUOUS
 62
     7
 10
-603.9824652821
 20
1889.2662990603
 30
0.0
 11
-609.9749308078
 21
1889.2662990603
 31
0.0
  0
LINE
  5
2BF
  8
1
  6
CONTINUOUS
 62
     7
 10
-605.1302652821
 20
1826.7667480603
 30
0.0
 11
-604.7772942821
 21
1828.7662990603
 31
0.0
  0
LINE
  5
2C0
  8
1
  6
CONTINUOUS
 62
     7
 10
-604.7772942821
 20
1828.7662990603
 30
0.0
 11
-598.7852603067001
 21
1828.7662990603
 31
0.0
  0
LINE
  5
2C1
  8
1
  6
CONTINUOUS
 62
     7
 10
-598.6302652821
 20
1826.7667560603
 30
0.0
 11
-603.6299292821
 21
1891.2658790603
 31
0.0
  0
LINE
  5
2C2
  8
1
  6
CONTINUOUS
 62
     7
 10
-630.1299292821
 20
1891.2658870603
 30
0.0
 11
-633.6299292821001
 21
1891.2658790603
 31
0.0
  0
LINE
  5
2C3
  8
1
  6
CONTINUOUS
 62
     7
 10
-610.1299292821
 20
1891.2658870603
 30
0.0
 11
-613.6299292821
 21
1891.2658790603
 31
0.0
  0
LINE
  5
2C4
  8
1
  6
CONTINUOUS
 62
     7
 10
-608.6302652821
 20
1826.7667560603
 30
0.0
 11
-605.1302652821
 21
1826.7667480603
 31
0.0
  0
LINE
  5
2C5
  8
1
  6
CONTINUOUS
 62
     7
 10
-600.1299292821
 20
1891.2658870603
 30
0.0
 11
-598.2235132821
 21
1866.6717962223
 31
0.0
  0
LINE
  5
2C6
  8
1
  6
CONTINUOUS
 62
     7
 10
-614.7772942821
 20
1828.7662990603
 30
0.0
 11
-608.7852603067001
 21
1828.7662990603
 31
0.0
  0
LINE
  5
2C7
  8
1
  6
CONTINUOUS
 62
     7
 10
-624.7772942821
 20
1828.7662990603
 30
0.0
 11
-618.7852603067
 21
1828.7662990603
 31
0.0
  0
LINE
  5
2C8
  8
1
  6
CONTINUOUS
 62
     7
 10
-598.2235132821
 20
1889.2662990603
 30
0.0
 11
-599.9749308078
 21
1889.2662990603
 31
0.0
  0
LINE
  5
2C9
  8
1
  6
CONTINUOUS
 62
     7
 10
-618.6302652821
 20
1826.7667560603
 30
0.0
 11
-623.6299292821001
 21
1891.2658790603
 31
0.0
  0
LINE
  5
2CA
  8
1
  6
CONTINUOUS
 62
     7
 10
-603.9824812821
 20
1889.2662990603
 30
0.0
 11
-603.6299292821
 21
1891.2658790603
 31
0.0
  0
LINE
  5
2CB
  8
1
  6
CONTINUOUS
 62
     7
 10
-570.3298142821
 20
1828.7662990603
 30
0.0
 11
-568.7852603067
 21
1828.7662990603
 31
0.0
  0
LINE
  5
2CC
  8
1
  6
CONTINUOUS
 62
     7
 10
-568.6302652821
 20
1826.7667560603
 30
0.0
 11
-565.1302652821
 21
1826.7667480603
 31
0.0
  0
LINE
  5
2CD
  8
1
  6
CONTINUOUS
 62
     7
 10
-623.9824812821001
 20
1889.2662990603
 30
0.0
 11
-623.6299292821001
 21
1891.2658790603
 31
0.0
  0
LINE
  5
2CE
  8
1
  6
CONTINUOUS
 62
     7
 10
-608.6302652821
 20
1826.7667560603
 30
0.0
 11
-613.6299292821
 21
1891.2658790603
 31
0.0
  0
LINE
  5
2CF
  8
1
  6
CONTINUOUS
 62
     7
 10
-625.1302652821
 20
1826.7667480603
 30
0.0
 11
-624.7772942821
 21
1828.7662990603
 31
0.0
  0
LINE
  5
2D0
  8
1
  6
CONTINUOUS
 62
     7
 10
-628.6302652821
 20
1826.7667560603
 30
0.0
 11
-625.1302652821
 21
1826.7667480603
 31
0.0
  0
LINE
  5
2D1
  8
1
  6
CONTINUOUS
 62
     7
 10
-610.1299292821
 20
1891.2658870603
 30
0.0
 11
-605.1302652821
 21
1826.7667480603
 31
0.0
  0
LINE
  5
2D2
  8
1
  6
CONTINUOUS
 62
     7
 10
-613.9824812821
 20
1889.2662990603
 30
0.0
 11
-613.6299292821
 21
1891.2658790603
 31
0.0
  0
LINE
  5
2D3
  8
1
  6
CONTINUOUS
 62
     7
 10
-598.6302652821
 20
1826.7667560603
 30
0.0
 11
-598.2235132821
 21
1826.7667551306
 31
0.0
  0
LINE
  5
2D4
  8
1
  6
CONTINUOUS
 62
     7
 10
-628.6302652821
 20
1826.7667560603
 30
0.0
 11
-633.6299292821001
 21
1891.2658790603
 31
0.0
  0
LINE
  5
2D5
  8
1
  6
CONTINUOUS
 62
     7
 10
-613.9824652821
 20
1889.2662990603
 30
0.0
 11
-619.9749308078
 21
1889.2662990603
 31
0.0
  0
LINE
  5
2D6
  8
1
  6
CONTINUOUS
 62
     7
 10
-623.9824652821
 20
1889.2662990603
 30
0.0
 11
-629.9749308078
 21
1889.2662990603
 31
0.0
  0
LINE
  5
2D7
  8
1
  6
CONTINUOUS
 62
     7
 10
-630.1299292821
 20
1891.2658870603
 30
0.0
 11
-625.1302652821
 21
1826.7667480603
 31
0.0
  0
LINE
  5
2D8
  8
1
  6
CONTINUOUS
 62
     7
 10
-633.9824812821001
 20
1889.2662990603
 30
0.0
 11
-633.6299292821001
 21
1891.2658790603
 31
0.0
  0
LINE
  5
2D9
  8
1
  6
CONTINUOUS
 62
     7
 10
-620.1299292821
 20
1891.2658870603
 30
0.0
 11
-623.6299292821001
 21
1891.2658790603
 31
0.0
  0
LINE
  5
2DA
  8
1
  6
CONTINUOUS
 62
     7
 10
-620.1299292821
 20
1891.2658870603
 30
0.0
 11
-615.1302652821
 21
1826.7667480603
 31
0.0
  0
LINE
  5
2DB
  8
1
  6
CONTINUOUS
 62
     7
 10
-600.1299292821
 20
1891.2658870603
 30
0.0
 11
-603.6299292821
 21
1891.2658790603
 31
0.0
  0
LINE
  5
2DC
  8
1
  6
CONTINUOUS
 62
     7
 10
-618.6302652821
 20
1826.7667560603
 30
0.0
 11
-615.1302652821
 21
1826.7667480603
 31
0.0
  0
LINE
  5
2DD
  8
1
  6
CONTINUOUS
 62
     7
 10
-615.1302652821
 20
1826.7667480603
 30
0.0
 11
-614.7772942821
 21
1828.7662990603
 31
0.0
  0
LINE
  5
2DE
  8
1
  6
CONTINUOUS
 62
     7
 10
-684.1298142821
 20
1704.5645555528
 30
0.0
 11
-684.1298142821
 21
1767.0645555528
 31
0.0
  0
LINE
  5
2DF
  8
1
  6
CONTINUOUS
 62
     7
 10
-558.6302652821
 20
1826.7667560603
 30
0.0
 11
-563.6299292821
 21
1891.2658790603
 31
0.0
  0
LINE
  5
2E0
  8
1
  6
CONTINUOUS
 62
     7
 10
-677.1298142821
 20
1704.5645555528
 30
0.0
 11
-677.1298142821
 21
1767.0645555528
 31
0.0
  0
LINE
  5
2E1
  8
1
  6
CONTINUOUS
 62
     7
 10
-685.1298142821
 20
1703.5645555528
 30
0.0
 11
-685.1298142821
 21
1768.0645555528
 31
0.0
  0
LINE
  5
2E2
  8
1
  6
CONTINUOUS
 62
     7
 10
-684.1298142821
 20
1767.0645555528
 30
0.0
 11
-685.1298142821
 21
1768.0645555528
 31
0.0
  0
LINE
  5
2E3
  8
1
  6
CONTINUOUS
 62
     7
 10
-568.6302652821
 20
1826.7667560603
 30
0.0
 11
-570.3298142821
 21
1848.6921134435
 31
0.0
  0
LINE
  5
2E4
  8
1
  6
CONTINUOUS
 62
     7
 10
-677.1298142821
 20
1704.5645555528
 30
0.0
 11
-673.1298142821
 21
1704.5645555528
 31
0.0
  0
LINE
  5
2E5
  8
1
  6
CONTINUOUS
 62
     7
 10
-698.1298142821
 20
1695.8145555528
 30
0.0
 11
-698.1298142821
 21
1775.8020535528
 31
0.0
  0
LINE
  5
2E6
  8
1
  6
CONTINUOUS
 62
     7
 10
-680.1298142821
 20
1767.0645555528
 30
0.0
 11
-684.1298142821
 21
1767.0645555528
 31
0.0
  0
ARC
  5
2E7
  8
1
  6
CONTINUOUS
 62
     7
 10
-677.6298142821
 20
1766.0645555528
 30
0.0
 40
0.4999999999999449
 50
270.0
 51
0.0
  0
ARC
  5
2E8
  8
1
  6
CONTINUOUS
 62
     7
 10
-679.6298142821
 20
1705.5645555528
 30
0.0
 40
0.4999999999999449
 50
90.0
 51
180.0
  0
ARC
  5
2E9
  8
1
  6
CONTINUOUS
 62
     7
 10
-679.6298142821
 20
1766.0645555528
 30
0.0
 40
0.4999999999999449
 50
180.0
 51
270.0
  0
LINE
  5
2EA
  8
1
  6
CONTINUOUS
 62
     7
 10
-679.6298142821
 20
1706.0645555528
 30
0.0
 11
-677.6298142821
 21
1706.0645555528
 31
0.0
  0
LINE
  5
2EB
  8
1
  6
CONTINUOUS
 62
     7
 10
-680.1298142821
 20
1704.5645555528
 30
0.0
 11
-680.1298142821
 21
1767.0645555528
 31
0.0
  0
LINE
  5
2EC
  8
1
  6
CONTINUOUS
 62
     7
 10
-560.1299292821001
 20
1891.2658870603
 30
0.0
 11
-563.6299292821
 21
1891.2658790603
 31
0.0
  0
LINE
  5
2ED
  8
1
  6
CONTINUOUS
 62
     7
 10
-704.1298142821
 20
1696.3145555528
 30
0.0
 11
-704.1298142821
 21
1775.3020535528
 31
0.0
  0
LINE
  5
2EE
  8
1
  6
CONTINUOUS
 62
     7
 10
-685.1298142821
 20
1768.0645555528
 30
0.0
 11
-687.9939364146
 21
1768.0645555528
 31
0.0
  0
LINE
  5
2EF
  8
1
  6
CONTINUOUS
 62
     7
 10
-703.6298142821
 20
1695.8145555528
 30
0.0
 11
-698.1298142821
 21
1695.8145555528
 31
0.0
  0
LINE
  5
2F0
  8
1
  6
CONTINUOUS
 62
     7
 10
-673.1298142821
 20
1767.0645555528
 30
0.0
 11
-677.1298142821
 21
1767.0645555528
 31
0.0
  0
LINE
  5
2F1
  8
1
  6
CONTINUOUS
 62
     7
 10
-684.1298142821
 20
1704.5645555528
 30
0.0
 11
-680.1298142821
 21
1704.5645555528
 31
0.0
  0
ARC
  5
2F2
  8
1
  6
CONTINUOUS
 62
     7
 10
-677.6298142821
 20
1705.5645555528
 30
0.0
 40
0.4999999999999449
 50
0.0
 51
90.0
  0
LINE
  5
2F3
  8
1
  6
CONTINUOUS
 62
     7
 10
-685.1298142821
 20
1703.5645555528
 30
0.0
 11
-684.1298142821
 21
1704.5645555528
 31
0.0
  0
LINE
  5
2F4
  8
1
  6
CONTINUOUS
 62
     7
 10
-565.1302652821
 20
1826.7667480603
 30
0.0
 11
-564.7772942821
 21
1828.7662990603
 31
0.0
  0
LINE
  5
2F5
  8
1
  6
CONTINUOUS
 62
     7
 10
-563.9824812821
 20
1889.2662990603
 30
0.0
 11
-563.6299292821
 21
1891.2658790603
 31
0.0
  0
LINE
  5
2F6
  8
1
  6
CONTINUOUS
 62
     7
 10
-560.1299292821001
 20
1891.2658870603
 30
0.0
 11
-555.130265282094
 21
1826.766748060306
 31
0.0
  0
LINE
  5
2F7
  8
1
  6
CONTINUOUS
 62
     7
 10
-655.1302652821
 20
1826.7667480603
 30
0.0
 11
-654.7772942821001
 21
1828.7662990603
 31
0.0
  0
LINE
  5
2F8
  8
1
  6
CONTINUOUS
 62
     7
 10
-558.6302652821
 20
1826.7667560603
 30
0.0
 11
-555.130265282094
 21
1826.766748060306
 31
0.0
  0
LINE
  5
2F9
  8
1
  6
CONTINUOUS
 62
     7
 10
-658.1298142821
 20
1865.4630140271
 30
0.0
 11
-655.1302652821
 21
1826.7667480603
 31
0.0
  0
LINE
  5
2FA
  8
1
  6
CONTINUOUS
 62
     7
 10
-570.1299292821001
 20
1891.2658870603
 30
0.0
 11
-565.1302652821
 21
1826.7667480603
 31
0.0
  0
LINE
  5
2FB
  8
1
  6
CONTINUOUS
 62
     7
 10
-698.1298142821
 20
1775.8020535528
 30
0.0
 11
-703.1298142821
 21
1775.8020535528
 31
0.0
  0
LINE
  5
2FC
  8
1
  6
CONTINUOUS
 62
     7
 10
-690.3201112111
 20
1703.5645555528
 30
0.0
 11
-685.1298142821
 21
1703.5645555528
 31
0.0
  0
LINE
  5
2FD
  8
1
  6
CONTINUOUS
 62
     7
 10
-563.9824652821
 20
1889.2662990603
 30
0.0
 11
-569.9749308078
 21
1889.2662990603
 31
0.0
  0
LINE
  5
2FE
  8
1
  6
CONTINUOUS
 62
     7
 10
-638.6302652821
 20
1826.7667560603
 30
0.0
 11
-643.6299292821
 21
1891.2658790603
 31
0.0
  0
LINE
  5
2FF
  8
1
  6
CONTINUOUS
 62
     7
 10
-640.1299292821
 20
1891.2658870603
 30
0.0
 11
-635.1302652821
 21
1826.7667480603
 31
0.0
  0
LINE
  5
300
  8
1
  6
CONTINUOUS
 62
     7
 10
-633.9824652821
 20
1889.2662990603
 30
0.0
 11
-639.9749308078
 21
1889.2662990603
 31
0.0
  0
LINE
  5
301
  8
1
  6
CONTINUOUS
 62
     7
 10
-643.9824812821
 20
1889.2662990603
 30
0.0
 11
-643.6299292821
 21
1891.2658790603
 31
0.0
  0
LINE
  5
302
  8
1
  6
CONTINUOUS
 62
     7
 10
-634.7772942821
 20
1828.7662990603
 30
0.0
 11
-628.7852603067
 21
1828.7662990603
 31
0.0
  0
LINE
  5
303
  8
1
  6
CONTINUOUS
 62
     7
 10
-635.1302652821
 20
1826.7667480603
 30
0.0
 11
-634.7772942821
 21
1828.7662990603
 31
0.0
  0
ARC
  5
304
  8
1
  6
CONTINUOUS
 62
     7
 10
-573.3298142821
 20
1822.0162990603
 30
0.0
 40
3.000000000000003
 50
270.0
 51
0.0
  0
LINE
  5
305
  8
1
  6
CONTINUOUS
 62
     7
 10
-573.3298142821
 20
1861.7726770603
 30
0.0
 11
-594.3298142821
 21
1861.7726770603
 31
0.0
  0
LINE
  5
306
  8
1
  6
CONTINUOUS
 62
     7
 10
-645.1302652821
 20
1826.7667480603
 30
0.0
 11
-644.7772942821
 21
1828.7662990603
 31
0.0
  0
LINE
  5
307
  8
1
  6
CONTINUOUS
 62
     7
 10
-650.1299292821
 20
1891.2658870603
 30
0.0
 11
-645.1302652821
 21
1826.7667480603
 31
0.0
  0
LINE
  5
308
  8
1
  6
CONTINUOUS
 62
     7
 10
-573.3298142821
 20
1888.9969090603
 30
0.0
 11
-594.3298142821
 21
1888.9969090603
 31
0.0
  0
LINE
  5
309
  8
1
  6
CONTINUOUS
 62
     7
 10
-594.3298142821
 20
1856.2599210603
 30
0.0
 11
-573.3298142821
 21
1856.2599210603
 31
0.0
  0
ARC
  5
30A
  8
1
  6
CONTINUOUS
 62
     7
 10
-573.1199792821
 20
1886.1412180603
 30
0.0
 40
2.863390000000021
 50
14.530582
 51
94.202516
  0
ARC
  5
30B
  8
1
  6
CONTINUOUS
 62
     7
 10
-573.3298142821
 20
1896.0162990603
 30
0.0
 40
3.000000000000003
 50
0.0
 51
90.0
  0
LINE
  5
30C
  8
1
  6
CONTINUOUS
 62
     7
 10
-638.6302652821
 20
1826.7667560603
 30
0.0
 11
-635.1302652821
 21
1826.7667480603
 31
0.0
  0
LINE
  5
30D
  8
1
  6
CONTINUOUS
 62
     7
 10
-640.1299292821
 20
1891.2658870603
 30
0.0
 11
-643.6299292821
 21
1891.2658790603
 31
0.0
  0
LINE
  5
30E
  8
1
  6
CONTINUOUS
 62
     7
 10
-594.3298142821
 20
1829.0356880603
 30
0.0
 11
-573.3298142821
 21
1829.0356880603
 31
0.0
  0
LINE
  5
30F
  8
1
  6
CONTINUOUS
 62
     7
 10
-653.9824812821
 20
1889.2662990603
 30
0.0
 11
-653.6299292821
 21
1891.2658790603
 31
0.0
  0
LINE
  5
310
  8
1
  6
CONTINUOUS
 62
     7
 10
-570.3298312821
 20
1894.8994960603
 30
0.0
 11
-570.3327842821
 21
1894.9581160603
 31
0.0
  0
LINE
  5
311
  8
1
  6
CONTINUOUS
 62
     7
 10
-570.3327842821
 20
1823.0744820603
 30
0.0
 11
-570.3298312821
 21
1823.1331010603
 31
0.0
  0
ARC
  5
312
  8
1
  6
CONTINUOUS
 62
     7
 10
-573.1181732821
 20
1831.8888610603
 30
0.0
 40
2.861011000000024
 50
265.7577210000001
 51
345.5091800000001
  0
LINE
  5
313
  8
1
  6
CONTINUOUS
 62
     7
 10
-648.6302652821001
 20
1826.7667560603
 30
0.0
 11
-653.6299292821
 21
1891.2658790603
 31
0.0
  0
LINE
  5
314
  8
1
  6
CONTINUOUS
 62
     7
 10
-543.9824812821
 20
1766.0645555528
 30
0.0
 11
-549.9749308078
 21
1766.0645555528
 31
0.0
  0
LINE
  5
315
  8
1
  6
CONTINUOUS
 62
     7
 10
-538.6302652821
 20
1703.5650125528
 30
0.0
 11
-537.1298142821
 21
1703.565009123198
 31
0.0
  0
LINE
  5
316
  8
1
  6
CONTINUOUS
 62
     7
 10
-543.9824812821
 20
1889.2662990603
 30
0.0
 11
-549.9749308078
 21
1889.2662990603
 31
0.0
  0
LINE
  5
317
  8
1
  6
CONTINUOUS
 62
     7
 10
-540.1299292821
 20
1768.0641435528
 30
0.0
 11
-537.1298142821
 21
1729.3605757929
 31
0.0
  0
LINE
  5
318
  8
1
  6
CONTINUOUS
 62
     7
 10
-658.1298142821
 20
1742.2612705196
 30
0.0
 11
-655.1302652821
 21
1703.5650045528
 31
0.0
  0
LINE
  5
319
  8
1
  6
CONTINUOUS
 62
     7
 10
-563.9824812821
 20
1766.0645555528
 30
0.0
 11
-563.6299292821
 21
1768.0641355528
 31
0.0
  0
LINE
  5
31A
  8
1
  6
CONTINUOUS
 62
     7
 10
-537.1298142821
 20
1766.0645555528
 30
0.0
 11
-539.9749308078
 21
1766.0645555528
 31
0.0
  0
LINE
  5
31B
  8
1
  6
CONTINUOUS
 62
     7
 10
-540.1299292821
 20
1891.2658870603
 30
0.0
 11
-537.1298142821
 21
1852.5623193004
 31
0.0
  0
LINE
  5
31C
  8
1
  6
CONTINUOUS
 62
     7
 10
-687.6298142821
 20
1778.1609066853
 30
0.0
 11
-690.6598142821
 21
1694.1452943185
 31
0.0
  0
LINE
  5
31D
  8
1
  6
CONTINUOUS
 62
     7
 10
-538.6302652821
 20
1826.7667560603
 30
0.0
 11
-537.1298142821
 21
1826.7667526307
 31
0.0
  0
LINE
  5
31E
  8
1
  6
CONTINUOUS
 62
     7
 10
-537.1298142821
 20
1889.2662990603
 30
0.0
 11
-539.9749308078
 21
1889.2662990603
 31
0.0
  0
LINE
  5
31F
  8
1
  6
CONTINUOUS
 62
     7
 10
-655.1302652821
 20
1703.5650045528
 30
0.0
 11
-654.7772942821001
 21
1705.5645555528
 31
0.0
  0
ENDSEC
  0
EOF
