  0
SECTION
  2
HEADER
  9
$ACADVER
  1
AC1006
  9
$DWGCODEPAGE
  3
ansi_932
  9
$INSBASE
 10
0.0
 20
0.0
 30
0.0
  9
$EXTMIN
 10
-866.6624118499
 20
-0.0000000000000017
  9
$EXTMAX
 10
420.0
 20
1649.7890909589
  9
$LIMMIN
 10
0.0
 20
0.0
  9
$LIMMAX
 10
12.0
 20
9.0
  9
$ORTHOMODE
 70
     0
  9
$REGENMODE
 70
     1
  9
$FILLMODE
 70
     1
  9
$QTEXTMODE
 70
     0
  9
$MIRRTEXT
 70
     1
  9
$DRAGMODE
 70
     2
  9
$LTSCALE
 40
1.0
  9
$OSMODE
 70
    37
  9
$ATTMODE
 70
     1
  9
$TEXTSIZE
 40
0.2
  9
$TRACEWID
 40
0.05
  9
$TEXTSTYLE
  7
STANDARD
  9
$CLAYER
  8
0
  9
$CELTYPE
  6
BYLAYER
  9
$CECOLOR
 62
   256
  9
$DIMSCALE
 40
1.0
  9
$DIMASZ
 40
3.0
  9
$DIMEXO
 40
0.0625
  9
$DIMDLI
 40
0.38
  9
$DIMRND
 40
0.0
  9
$DIMDLE
 40
0.0
  9
$DIMEXE
 40
1.5
  9
$DIMTP
 40
0.0
  9
$DIMTM
 40
0.0
  9
$DIMTXT
 40
3.5
  9
$DIMCEN
 40
0.09
  9
$DIMTSZ
 40
0.0
  9
$DIMTOL
 70
     0
  9
$DIMLIM
 70
     0
  9
$DIMTIH
 70
     1
  9
$DIMTOH
 70
     1
  9
$DIMSE1
 70
     0
  9
$DIMSE2
 70
     0
  9
$DIMTAD
 70
     1
  9
$DIMZIN
 70
     0
  9
$DIMBLK
  1

  9
$DIMASO
 70
     1
  9
$DIMSHO
 70
     1
  9
$DIMPOST
  1

  9
$DIMAPOST
  1

  9
$DIMALT
 70
     0
  9
$DIMALTD
 70
     2
  9
$DIMALTF
 40
25.4
  9
$DIMLFAC
 40
1.0
  9
$DIMTOFL
 70
     0
  9
$DIMTVP
 40
0.0
  9
$DIMTIX
 70
     0
  9
$DIMSOXD
 70
     0
  9
$DIMSAH
 70
     0
  9
$DIMBLK1
  1

  9
$DIMBLK2
  1

  9
$LUNITS
 70
     2
  9
$LUPREC
 70
     4
  9
$SKETCHINC
 40
0.1
  9
$FILLETRAD
 40
0.5
  9
$AUNITS
 70
     0
  9
$AUPREC
 70
     0
  9
$MENU
  1
.
  9
$ELEVATION
 40
0.0
  9
$THICKNESS
 40
0.0
  9
$LIMCHECK
 70
     0
  9
$CHAMFERA
 40
0.0
  9
$CHAMFERB
 40
0.0
  9
$SKPOLY
 70
     0
  9
$TDCREATE
 40
2460497.538833634
  9
$TDUPDATE
 40
2460497.538834132
  9
$TDINDWG
 40
0.0000000116
  9
$TDUSRTIMER
 40
0.0000000116
  9
$USRTIMER
 70
     1
  9
$ANGBASE
 50
0.0
  9
$ANGDIR
 70
     0
  9
$PDMODE
 70
     0
  9
$PDSIZE
 40
0.0
  9
$PLINEWID
 40
0.0
  9
$COORDS
 70
     1
  9
$SPLFRAME
 70
     0
  9
$SPLINETYPE
 70
     6
  9
$SPLINESEGS
 70
     8
  9
$ATTDIA
 70
     0
  9
$ATTREQ
 70
     1
  9
$HANDLING
 70
     1
  9
$HANDSEED
  5
3F3
  9
$SURFTAB1
 70
     6
  9
$SURFTAB2
 70
     6
  9
$SURFTYPE
 70
     6
  9
$SURFU
 70
     6
  9
$SURFV
 70
     6
  9
$UCSNAME
  2

  9
$UCSORG
 10
0.0
 20
0.0
 30
0.0
  9
$UCSXDIR
 10
1.0
 20
0.0
 30
0.0
  9
$UCSYDIR
 10
0.0
 20
1.0
 30
0.0
  9
$USERI1
 70
     0
  9
$USERI2
 70
     0
  9
$USERI3
 70
     0
  9
$USERI4
 70
     0
  9
$USERI5
 70
     0
  9
$USERR1
 40
0.0
  9
$USERR2
 40
0.0
  9
$USERR3
 40
0.0
  9
$USERR4
 40
0.0
  9
$USERR5
 40
0.0
  9
$WORLDVIEW
 70
     1
  0
ENDSEC
  0
SECTION
  2
TABLES
  0
TABLE
  2
VPORT
 70
     1
  0
VPORT
  2
*ACTIVE
 70
     0
 10
0.0
 20
0.0
 11
1.0
 21
1.0
 12
-223.33120592495
 22
824.89454547945
 13
0.0
 23
0.0
 14
0.5
 24
0.5
 15
0.5
 25
0.5
 16
0.0
 26
0.0
 36
1.0
 17
0.0
 27
0.0
 37
0.0
 40
1649.7890909589
 41
1.6
 42
50.0
 43
0.0
 44
0.0
 50
0.0
 51
0.0
 71
     0
 72
   100
 73
     1
 74
     3
 75
     0
 76
     0
 77
     0
 78
     0
  0
ENDTAB
  0
TABLE
  2
LTYPE
 70
     2
  0
LTYPE
  2
CONTINUOUS
 70
     0
  3
Solid line
 72
    65
 73
     0
 40
0.0
  0
LTYPE
  2
CENTER
 70
     0
  3

 72
    65
 73
     0
 40
0.0
  0
ENDTAB
  0
TABLE
  2
LAYER
 70
     2
  0
LAYER
  2
0
 70
     0
 62
     7
  6
CONTINUOUS
  0
LAYER
  2
1
 70
     0
 62
     7
  6
CONTINUOUS
  0
ENDTAB
  0
TABLE
  2
STYLE
 70
     2
  0
STYLE
  2
STANDARD
 70
     0
 40
0.0
 41
1.0
 50
0.0
 71
     0
 42
0.2
  3
txt
  4

  0
STYLE
  2
ＭＳ_ゴシック
 70
     0
 40
0.0
 41
1.0
 50
0.0
 71
     0
 42
0.2
  3
ＭＳ ゴシック.shx
  4

  0
ENDTAB
  0
TABLE
  2
VIEW
 70
     0
  0
ENDTAB
  0
TABLE
  2
UCS
 70
     0
  0
ENDTAB
  0
ENDSEC
  0
SECTION
  2
BLOCKS
  0
BLOCK
  8
0
  2
D_FRAME_DRAWING_21
 70
     0
 10
0.0
 20
0.0
 30
0.0
  0
LINE
  5
B9
  8
0
  6
CONTINUOUS
 62
     7
 10
0.0
 20
0.0
 30
0.0
 11
420.0
 21
0.0
 31
0.0
  0
LINE
  5
BA
  8
0
  6
CONTINUOUS
 62
     7
 10
420.0
 20
0.0
 30
0.0
 11
420.0
 21
297.0
 31
0.0
  0
LINE
  5
BB
  8
0
  6
CONTINUOUS
 62
     7
 10
420.0
 20
297.0
 30
0.0
 11
0.0
 21
297.0
 31
0.0
  0
LINE
  5
BC
  8
0
  6
CONTINUOUS
 62
     7
 10
0.0
 20
297.0
 30
0.0
 11
0.0
 21
0.0
 31
0.0
  0
LINE
  5
BD
  8
0
  6
CONTINUOUS
 62
     7
 10
10.0
 20
10.0
 30
0.0
 11
409.9999999999999
 21
10.0
 31
0.0
  0
LINE
  5
BE
  8
0
  6
CONTINUOUS
 62
     7
 10
409.9999999999999
 20
10.0
 30
0.0
 11
409.9999999999999
 21
286.9999999999999
 31
0.0
  0
LINE
  5
BF
  8
0
  6
CONTINUOUS
 62
     7
 10
409.9999999999999
 20
286.9999999999999
 30
0.0
 11
10.00000000000006
 21
286.9999999999999
 31
0.0
  0
LINE
  5
C0
  8
0
  6
CONTINUOUS
 62
     7
 10
10.0
 20
286.9999999999999
 30
0.0
 11
10.0
 21
10.00000000000001
 31
0.0
  0
LINE
  5
C1
  8
0
  6
CONTINUOUS
 62
     7
 10
210.0
 20
0.0
 30
0.0
 11
210.0
 21
10.0
 31
0.0
  0
LINE
  5
C2
  8
0
  6
CONTINUOUS
 62
     7
 10
420.0
 20
148.5
 30
0.0
 11
409.9999999999999
 21
148.5
 31
0.0
  0
LINE
  5
C3
  8
0
  6
CONTINUOUS
 62
     7
 10
210.0
 20
297.0
 30
0.0
 11
210.0
 21
286.9999999999999
 31
0.0
  0
LINE
  5
C4
  8
0
  6
CONTINUOUS
 62
     7
 10
0.0
 20
148.5
 30
0.0
 11
10.0
 21
148.5
 31
0.0
  0
POLYLINE
  5
C5
  8
0
  6
CONTINUOUS
 62
     7
 66
     1
 10
0.0
 20
0.0
 30
0.0
 70
     1
  0
VERTEX
  5
39E
  8
0
  6
CONTINUOUS
 62
     7
 10
11.0
 20
152.5
 30
0.0
  0
VERTEX
  5
39F
  8
0
  6
CONTINUOUS
 62
     7
 10
0.0
 20
148.5
 30
0.0
  0
VERTEX
  5
3A0
  8
0
  6
CONTINUOUS
 62
     7
 10
11.0
 20
144.5
 30
0.0
  0
VERTEX
  5
3A1
  8
0
  6
CONTINUOUS
 62
     7
 10
11.0
 20
152.5
 30
0.0
  0
SEQEND
  5
3F1
  8
0
  6
CONTINUOUS
 62
     7
  0
INSERT
  5
C6
  8
0
 62
     7
  2
*U21
 10
0.0
 20
0.0
 30
0.0
  0
POLYLINE
  5
C7
  8
0
  6
CONTINUOUS
 62
     7
 66
     1
 10
0.0
 20
0.0
 30
0.0
 70
     1
  0
VERTEX
  5
3A4
  8
0
  6
CONTINUOUS
 62
     7
 10
206.0
 20
11.0
 30
0.0
  0
VERTEX
  5
3A5
  8
0
  6
CONTINUOUS
 62
     7
 10
210.0
 20
0.0
 30
0.0
  0
VERTEX
  5
3A6
  8
0
  6
CONTINUOUS
 62
     7
 10
214.0
 20
11.0
 30
0.0
  0
VERTEX
  5
3A7
  8
0
  6
CONTINUOUS
 62
     7
 10
206.0
 20
11.0
 30
0.0
  0
SEQEND
  5
3F2
  8
0
  6
CONTINUOUS
 62
     7
  0
INSERT
  5
C8
  8
0
 62
     7
  2
*U22
 10
0.0
 20
0.0
 30
0.0
  0
LINE
  5
C9
  8
0
  6
CONTINUOUS
 62
     7
 10
367.5
 20
286.9999999999999
 30
0.0
 11
367.5
 21
292.0
 31
0.0
  0
TEXT
  5
CA
  8
0
  6
CONTINUOUS
 62
     7
 10
391.6340909090909
 20
291.8324293485057
 30
0.0
 40
3.5
  1
A
 50
270.0
  0
LINE
  5
CB
  8
0
  6
CONTINUOUS
 62
     7
 10
367.5
 20
10.0
 30
0.0
 11
367.5
 21
5.0
 31
0.0
  0
TEXT
  5
CC
  8
0
  6
CONTINUOUS
 62
     7
 10
392.9868888333125
 20
4.602272727272727
 30
0.0
 40
3.5
  1
A
  0
LINE
  5
CD
  8
0
  6
CONTINUOUS
 62
     7
 10
315.0
 20
286.9999999999999
 30
0.0
 11
315.0
 21
292.0
 31
0.0
  0
TEXT
  5
CE
  8
0
  6
CONTINUOUS
 62
     7
 10
339.1340909090909
 20
291.9745607727899
 30
0.0
 40
3.5
  1
B
 50
270.0
  0
LINE
  5
CF
  8
0
  6
CONTINUOUS
 62
     7
 10
315.0
 20
10.0
 30
0.0
 11
315.0
 21
5.0
 31
0.0
  0
TEXT
  5
D0
  8
0
  6
CONTINUOUS
 62
     7
 10
340.3447574090284
 20
4.602272727272727
 30
0.0
 40
3.5
  1
B
  0
LINE
  5
D1
  8
0
  6
CONTINUOUS
 62
     7
 10
262.5
 20
286.9999999999999
 30
0.0
 11
262.5
 21
292.0
 31
0.0
  0
TEXT
  5
D2
  8
0
  6
CONTINUOUS
 62
     7
 10
286.6327779167187
 20
291.9399305989747
 30
0.0
 40
3.5
  1
C
 50
270.0
  0
LINE
  5
D3
  8
0
  6
CONTINUOUS
 62
     7
 10
262.5
 20
10.0
 30
0.0
 11
262.5
 21
5.0
 31
0.0
  0
TEXT
  5
D4
  8
0
  6
CONTINUOUS
 62
     7
 10
287.8793875828435
 20
4.600959734900587
 30
0.0
 40
3.5
  1
C
  0
LINE
  5
D5
  8
0
  6
CONTINUOUS
 62
     7
 10
210.0
 20
286.9999999999999
 30
0.0
 11
210.0
 21
292.0
 31
0.0
  0
TEXT
  5
D6
  8
0
  6
CONTINUOUS
 62
     7
 10
234.1340909090909
 20
291.9745607727898
 30
0.0
 40
3.5
  1
D
 50
270.0
  0
LINE
  5
D7
  8
0
  6
CONTINUOUS
 62
     7
 10
157.5
 20
286.9999999999999
 30
0.0
 11
157.5
 21
292.0
 31
0.0
  0
TEXT
  5
D8
  8
0
  6
CONTINUOUS
 62
     7
 10
181.6327779167188
 20
292.027463423784
 30
0.0
 40
3.5
  1
E
 50
270.0
  0
LINE
  5
D9
  8
0
  6
CONTINUOUS
 62
     7
 10
157.5
 20
10.0
 30
0.0
 11
157.5
 21
5.0
 31
0.0
  0
LINE
  5
DA
  8
0
  6
CONTINUOUS
 62
     7
 10
105.0
 20
286.9999999999999
 30
0.0
 11
105.0
 21
292.0
 31
0.0
  0
TEXT
  5
DB
  8
0
  6
CONTINUOUS
 62
     7
 10
129.1327779167188
 20
291.9924502938602
 30
0.0
 40
3.5
  1
F
 50
270.0
  0
LINE
  5
DC
  8
0
  6
CONTINUOUS
 62
     7
 10
105.0
 20
10.0
 30
0.0
 11
105.0
 21
5.0
 31
0.0
  0
TEXT
  5
DD
  8
0
  6
CONTINUOUS
 62
     7
 10
130.326867887958
 20
4.600959734900587
 30
0.0
 40
3.5
  1
F
  0
LINE
  5
DE
  8
0
  6
CONTINUOUS
 62
     7
 10
52.50000000000004
 20
286.9999999999999
 30
0.0
 11
52.50000000000004
 21
292.0
 31
0.0
  0
TEXT
  5
DF
  8
0
  6
CONTINUOUS
 62
     7
 10
76.6327779167188
 20
291.9399305989746
 30
0.0
 40
3.5
  1
G
 50
270.0
  0
LINE
  5
E0
  8
0
  6
CONTINUOUS
 62
     7
 10
52.50000000000004
 20
10.0
 30
0.0
 11
52.50000000000004
 21
5.0
 31
0.0
  0
TEXT
  5
E1
  8
0
  6
CONTINUOUS
 62
     7
 10
77.8793875828436
 20
4.600959734900587
 30
0.0
 40
3.5
  1
G
  0
TEXT
  5
E2
  8
0
  6
CONTINUOUS
 62
     7
 10
24.13277791671879
 20
291.9749437288983
 30
0.0
 40
3.5
  1
H
 50
270.0
  0
TEXT
  5
E3
  8
0
  6
CONTINUOUS
 62
     7
 10
25.34437445291988
 20
4.600959734900587
 30
0.0
 40
3.5
  1
H
  0
LINE
  5
E4
  8
0
  6
CONTINUOUS
 62
     7
 10
409.9999999999999
 20
74.25
 30
0.0
 11
414.9999999999999
 21
74.25
 31
0.0
  0
TEXT
  5
E5
  8
0
  6
CONTINUOUS
 62
     7
 10
412.9326059772414
 20
35.00777791671877
 30
0.0
 40
3.5
  1
1
  0
LINE
  5
E6
  8
0
  6
CONTINUOUS
 62
     7
 10
10.0
 20
74.25
 30
0.0
 11
5.0
 21
74.25
 31
0.0
  0
TEXT
  5
E7
  8
0
  6
CONTINUOUS
 62
     7
 10
4.600959734900584
 20
38.26171220457671
 30
0.0
 40
3.5
  1
1
 50
270.0
  0
LINE
  5
E8
  8
0
  6
CONTINUOUS
 62
     7
 10
409.9999999999999
 20
148.5
 30
0.0
 11
414.9999999999999
 21
148.5
 31
0.0
  0
TEXT
  5
E9
  8
0
  6
CONTINUOUS
 62
     7
 10
413.163692634738
 20
109.2577779167188
 30
0.0
 40
3.5
  1
2
  0
LINE
  5
EA
  8
0
  6
CONTINUOUS
 62
     7
 10
10.0
 20
148.5
 30
0.0
 11
5.0
 21
148.5
 31
0.0
  0
TEXT
  5
EB
  8
0
  6
CONTINUOUS
 62
     7
 10
4.600959734900599
 20
112.2806255470802
 30
0.0
 40
3.5
  1
2
 50
270.0
  0
LINE
  5
EC
  8
0
  6
CONTINUOUS
 62
     7
 10
409.9999999999999
 20
222.75
 30
0.0
 11
414.9999999999999
 21
222.75
 31
0.0
  0
TEXT
  5
ED
  8
0
  6
CONTINUOUS
 62
     7
 10
413.1811991996998
 20
183.5077779167188
 30
0.0
 40
3.5
  1
3
  0
LINE
  5
EE
  8
0
  6
CONTINUOUS
 62
     7
 10
10.0
 20
222.75
 30
0.0
 11
5.0
 21
222.75
 31
0.0
  0
TEXT
  5
EF
  8
0
  6
CONTINUOUS
 62
     7
 10
4.600959734900584
 20
186.5131189821183
 30
0.0
 40
3.5
  1
3
 50
270.0
  0
TEXT
  5
F0
  8
0
  6
CONTINUOUS
 62
     7
 10
413.2351413029886
 20
257.7590909090909
 30
0.0
 40
3.5
  1
4
  0
TEXT
  5
F1
  8
0
  6
CONTINUOUS
 62
     7
 10
4.60227272727272
 20
260.7091768788295
 30
0.0
 40
3.5
  1
4
 50
270.0
  0
LINE
  5
F2
  8
0
  6
CONTINUOUS
 62
     7
 10
220.0
 20
10.0
 30
0.0
 11
220.0
 21
7.0
 31
0.0
  0
LINE
  5
F3
  8
0
  6
CONTINUOUS
 62
     7
 10
200.0
 20
10.0
 30
0.0
 11
200.0
 21
7.0
 31
0.0
  0
LINE
  5
F4
  8
0
  6
CONTINUOUS
 62
     7
 10
230.0
 20
10.0
 30
0.0
 11
230.0
 21
7.0
 31
0.0
  0
LINE
  5
F5
  8
0
  6
CONTINUOUS
 62
     7
 10
190.0
 20
10.0
 30
0.0
 11
190.0
 21
7.0
 31
0.0
  0
LINE
  5
F6
  8
0
  6
CONTINUOUS
 62
     7
 10
240.0
 20
10.0
 30
0.0
 11
240.0
 21
7.0
 31
0.0
  0
LINE
  5
F7
  8
0
  6
CONTINUOUS
 62
     7
 10
180.0
 20
10.0
 30
0.0
 11
180.0
 21
7.0
 31
0.0
  0
LINE
  5
F8
  8
0
  6
CONTINUOUS
 62
     7
 10
250.0
 20
10.0
 30
0.0
 11
250.0
 21
7.0
 31
0.0
  0
LINE
  5
F9
  8
0
  6
CONTINUOUS
 62
     7
 10
170.0
 20
10.0
 30
0.0
 11
170.0
 21
7.0
 31
0.0
  0
LINE
  5
FA
  8
0
  6
CONTINUOUS
 62
     7
 10
260.0
 20
10.0
 30
0.0
 11
260.0
 21
5.0
 31
0.0
  0
LINE
  5
FB
  8
0
  6
CONTINUOUS
 62
     7
 10
160.0
 20
10.0
 30
0.0
 11
160.0
 21
5.0
 31
0.0
  0
LINE
  5
FC
  8
0
  6
CONTINUOUS
 62
     7
 10
260.0
 20
10.0
 30
0.0
 11
160.0
 21
10.0
 31
0.0
  0
LINE
  5
FD
  8
0
  6
CONTINUOUS
 62
     7
 10
260.0
 20
7.0
 30
0.0
 11
160.0
 21
7.0
 31
0.0
  0
INSERT
  5
FE
  8
0
 62
     7
  2
*U23
 10
0.0
 20
0.0
 30
0.0
  0
INSERT
  5
FF
  8
0
 62
     7
  2
*U24
 10
0.0
 20
0.0
 30
0.0
  0
INSERT
  5
100
  8
0
 62
     7
  2
*U25
 10
0.0
 20
0.0
 30
0.0
  0
INSERT
  5
101
  8
0
 62
     7
  2
*U26
 10
0.0
 20
0.0
 30
0.0
  0
ENDBLK
  8
0
  0
BLOCK
  8
0
  2
*U2
 70
     1
 10
0.0
 20
0.0
 30
0.0
  0
SOLID
  5
377
  8
0
  6
CONTINUOUS
 62
     7
 10
11.0
 20
144.5
 30
0.0
 11
6.999999999999999
 21
148.5
 31
0.0
 12
11.0
 22
152.5
 32
0.0
 13
11.0
 23
152.5
 33
0.0
  0
ENDBLK
  8
0
  0
BLOCK
  8
0
  2
*U3
 70
     1
 10
0.0
 20
0.0
 30
0.0
  0
SOLID
  5
379
  8
0
  6
CONTINUOUS
 62
     7
 10
210.0
 20
6.999999999999999
 30
0.0
 11
206.0
 21
11.0
 31
0.0
 12
210.0
 22
11.0
 32
0.0
 13
210.0
 23
11.0
 33
0.0
  0
ENDBLK
  8
0
  0
BLOCK
  8
0
  2
*U4
 70
     1
 10
0.0
 20
0.0
 30
0.0
  0
SOLID
  5
37B
  8
0
  6
CONTINUOUS
 62
     7
 10
210.0
 20
6.999999999999999
 30
0.0
 11
210.0
 21
11.0
 31
0.0
 12
214.0
 22
11.0
 32
0.0
 13
214.0
 23
11.0
 33
0.0
  0
ENDBLK
  8
0
  0
BLOCK
  8
0
  2
*U5
 70
     1
 10
0.0
 20
0.0
 30
0.0
  0
SOLID
  5
37D
  8
0
  6
CONTINUOUS
 62
     7
 10
0.0
 20
0.0
 30
0.0
 11
0.0
 21
10.0
 31
0.0
 12
2.0
 22
0.0
 32
0.0
 13
2.0
 23
0.0
 33
0.0
  0
ENDBLK
  8
0
  0
BLOCK
  8
0
  2
*U6
 70
     1
 10
0.0
 20
0.0
 30
0.0
  0
SOLID
  5
37F
  8
0
  6
CONTINUOUS
 62
     7
 10
2.0
 20
0.0
 30
0.0
 11
0.0
 21
10.0
 31
0.0
 12
2.0
 22
10.0
 32
0.0
 13
2.0
 23
10.0
 33
0.0
  0
ENDBLK
  8
0
  0
BLOCK
  8
0
  2
*U7
 70
     1
 10
0.0
 20
0.0
 30
0.0
  0
SOLID
  5
381
  8
0
  6
CONTINUOUS
 62
     7
 10
2.0
 20
0.0
 30
0.0
 11
2.0
 21
2.0
 31
0.0
 12
10.0
 22
0.0
 32
0.0
 13
10.0
 23
0.0
 33
0.0
  0
ENDBLK
  8
0
  0
BLOCK
  8
0
  2
*U8
 70
     1
 10
0.0
 20
0.0
 30
0.0
  0
SOLID
  5
383
  8
0
  6
CONTINUOUS
 62
     7
 10
10.0
 20
0.0
 30
0.0
 11
2.0
 21
2.0
 31
0.0
 12
10.0
 22
2.0
 32
0.0
 13
10.0
 23
2.0
 33
0.0
  0
ENDBLK
  8
0
  0
BLOCK
  8
0
  2
*U9
 70
     1
 10
0.0
 20
0.0
 30
0.0
  0
SOLID
  5
385
  8
0
  6
CONTINUOUS
 62
     7
 10
409.9999999999999
 20
0.0
 30
0.0
 11
409.9999999999999
 21
2.0
 31
0.0
 12
418.0
 22
0.0
 32
0.0
 13
418.0
 23
0.0
 33
0.0
  0
ENDBLK
  8
0
  0
BLOCK
  8
0
  2
*U10
 70
     1
 10
0.0
 20
0.0
 30
0.0
  0
SOLID
  5
387
  8
0
  6
CONTINUOUS
 62
     7
 10
418.0
 20
0.0
 30
0.0
 11
409.9999999999999
 21
2.0
 31
0.0
 12
418.0
 22
2.0
 32
0.0
 13
418.0
 23
2.0
 33
0.0
  0
ENDBLK
  8
0
  0
BLOCK
  8
0
  2
*U11
 70
     1
 10
0.0
 20
0.0
 30
0.0
  0
SOLID
  5
389
  8
0
  6
CONTINUOUS
 62
     7
 10
418.0
 20
0.0
 30
0.0
 11
418.0
 21
10.0
 31
0.0
 12
420.0
 22
0.0
 32
0.0
 13
420.0
 23
0.0
 33
0.0
  0
ENDBLK
  8
0
  0
BLOCK
  8
0
  2
*U12
 70
     1
 10
0.0
 20
0.0
 30
0.0
  0
SOLID
  5
38B
  8
0
  6
CONTINUOUS
 62
     7
 10
420.0
 20
0.0
 30
0.0
 11
418.0
 21
10.0
 31
0.0
 12
420.0
 22
10.0
 32
0.0
 13
420.0
 23
10.0
 33
0.0
  0
ENDBLK
  8
0
  0
BLOCK
  8
0
  2
*U13
 70
     1
 10
0.0
 20
0.0
 30
0.0
  0
SOLID
  5
38D
  8
0
  6
CONTINUOUS
 62
     7
 10
409.9999999999999
 20
295.0
 30
0.0
 11
409.9999999999999
 21
297.0
 31
0.0
 12
418.0
 22
295.0
 32
0.0
 13
418.0
 23
295.0
 33
0.0
  0
ENDBLK
  8
0
  0
BLOCK
  8
0
  2
*U14
 70
     1
 10
0.0
 20
0.0
 30
0.0
  0
SOLID
  5
38F
  8
0
  6
CONTINUOUS
 62
     7
 10
418.0
 20
295.0
 30
0.0
 11
409.9999999999999
 21
297.0
 31
0.0
 12
418.0
 22
297.0
 32
0.0
 13
418.0
 23
297.0
 33
0.0
  0
ENDBLK
  8
0
  0
BLOCK
  8
0
  2
*U15
 70
     1
 10
0.0
 20
0.0
 30
0.0
  0
SOLID
  5
391
  8
0
  6
CONTINUOUS
 62
     7
 10
418.0
 20
286.9999999999999
 30
0.0
 11
418.0
 21
297.0
 31
0.0
 12
420.0
 22
286.9999999999999
 32
0.0
 13
420.0
 23
286.9999999999999
 33
0.0
  0
ENDBLK
  8
0
  0
BLOCK
  8
0
  2
*U16
 70
     1
 10
0.0
 20
0.0
 30
0.0
  0
SOLID
  5
393
  8
0
  6
CONTINUOUS
 62
     7
 10
420.0
 20
286.9999999999999
 30
0.0
 11
418.0
 21
297.0
 31
0.0
 12
420.0
 22
297.0
 32
0.0
 13
420.0
 23
297.0
 33
0.0
  0
ENDBLK
  8
0
  0
BLOCK
  8
0
  2
*U17
 70
     1
 10
0.0
 20
0.0
 30
0.0
  0
SOLID
  5
395
  8
0
  6
CONTINUOUS
 62
     7
 10
0.0
 20
286.9999999999999
 30
0.0
 11
0.0
 21
297.0
 31
0.0
 12
2.0
 22
286.9999999999999
 32
0.0
 13
2.0
 23
286.9999999999999
 33
0.0
  0
ENDBLK
  8
0
  0
BLOCK
  8
0
  2
*U18
 70
     1
 10
0.0
 20
0.0
 30
0.0
  0
SOLID
  5
397
  8
0
  6
CONTINUOUS
 62
     7
 10
2.0
 20
286.9999999999999
 30
0.0
 11
0.0
 21
297.0
 31
0.0
 12
2.0
 22
297.0
 32
0.0
 13
2.0
 23
297.0
 33
0.0
  0
ENDBLK
  8
0
  0
BLOCK
  8
0
  2
*U19
 70
     1
 10
0.0
 20
0.0
 30
0.0
  0
SOLID
  5
399
  8
0
  6
CONTINUOUS
 62
     7
 10
2.0
 20
295.0
 30
0.0
 11
2.0
 21
297.0
 31
0.0
 12
10.0
 22
295.0
 32
0.0
 13
10.0
 23
295.0
 33
0.0
  0
ENDBLK
  8
0
  0
BLOCK
  8
0
  2
*U20
 70
     1
 10
0.0
 20
0.0
 30
0.0
  0
SOLID
  5
39B
  8
0
  6
CONTINUOUS
 62
     7
 10
10.0
 20
295.0
 30
0.0
 11
2.0
 21
297.0
 31
0.0
 12
10.0
 22
297.0
 32
0.0
 13
10.0
 23
297.0
 33
0.0
  0
ENDBLK
  8
0
  0
BLOCK
  8
0
  2
*U21
 70
     1
 10
0.0
 20
0.0
 30
0.0
  0
SOLID
  5
3A3
  8
0
  6
CONTINUOUS
 62
     7
 10
11.0
 20
144.5
 30
0.0
 11
6.999999999999999
 21
148.5
 31
0.0
 12
11.0
 22
152.5
 32
0.0
 13
11.0
 23
152.5
 33
0.0
  0
ENDBLK
  8
0
  0
BLOCK
  8
0
  2
*U22
 70
     1
 10
0.0
 20
0.0
 30
0.0
  0
SOLID
  5
3A9
  8
0
  6
CONTINUOUS
 62
     7
 10
210.0
 20
6.999999999999999
 30
0.0
 11
206.0
 21
11.0
 31
0.0
 12
210.0
 22
11.0
 32
0.0
 13
210.0
 23
11.0
 33
0.0
  0
SOLID
  5
3AA
  8
0
  6
CONTINUOUS
 62
     7
 10
210.0
 20
6.999999999999999
 30
0.0
 11
210.0
 21
11.0
 31
0.0
 12
214.0
 22
11.0
 32
0.0
 13
214.0
 23
11.0
 33
0.0
  0
ENDBLK
  8
0
  0
BLOCK
  8
0
  2
*U23
 70
     1
 10
0.0
 20
0.0
 30
0.0
  0
SOLID
  5
3AC
  8
0
  6
CONTINUOUS
 62
     7
 10
0.0
 20
0.0
 30
0.0
 11
0.0
 21
10.0
 31
0.0
 12
2.0
 22
0.0
 32
0.0
 13
2.0
 23
0.0
 33
0.0
  0
SOLID
  5
3AD
  8
0
  6
CONTINUOUS
 62
     7
 10
2.0
 20
0.0
 30
0.0
 11
0.0
 21
10.0
 31
0.0
 12
2.0
 22
10.0
 32
0.0
 13
2.0
 23
10.0
 33
0.0
  0
SOLID
  5
3AE
  8
0
  6
CONTINUOUS
 62
     7
 10
2.0
 20
0.0
 30
0.0
 11
2.0
 21
2.0
 31
0.0
 12
10.0
 22
0.0
 32
0.0
 13
10.0
 23
0.0
 33
0.0
  0
SOLID
  5
3AF
  8
0
  6
CONTINUOUS
 62
     7
 10
10.0
 20
0.0
 30
0.0
 11
2.0
 21
2.0
 31
0.0
 12
10.0
 22
2.0
 32
0.0
 13
10.0
 23
2.0
 33
0.0
  0
ENDBLK
  8
0
  0
BLOCK
  8
0
  2
*U24
 70
     1
 10
0.0
 20
0.0
 30
0.0
  0
SOLID
  5
3B1
  8
0
  6
CONTINUOUS
 62
     7
 10
409.9999999999999
 20
0.0
 30
0.0
 11
409.9999999999999
 21
2.0
 31
0.0
 12
418.0
 22
0.0
 32
0.0
 13
418.0
 23
0.0
 33
0.0
  0
SOLID
  5
3B2
  8
0
  6
CONTINUOUS
 62
     7
 10
418.0
 20
0.0
 30
0.0
 11
409.9999999999999
 21
2.0
 31
0.0
 12
418.0
 22
2.0
 32
0.0
 13
418.0
 23
2.0
 33
0.0
  0
SOLID
  5
3B3
  8
0
  6
CONTINUOUS
 62
     7
 10
418.0
 20
0.0
 30
0.0
 11
418.0
 21
10.0
 31
0.0
 12
420.0
 22
0.0
 32
0.0
 13
420.0
 23
0.0
 33
0.0
  0
SOLID
  5
3B4
  8
0
  6
CONTINUOUS
 62
     7
 10
420.0
 20
0.0
 30
0.0
 11
418.0
 21
10.0
 31
0.0
 12
420.0
 22
10.0
 32
0.0
 13
420.0
 23
10.0
 33
0.0
  0
ENDBLK
  8
0
  0
BLOCK
  8
0
  2
*U25
 70
     1
 10
0.0
 20
0.0
 30
0.0
  0
SOLID
  5
3B6
  8
0
  6
CONTINUOUS
 62
     7
 10
409.9999999999999
 20
295.0
 30
0.0
 11
409.9999999999999
 21
297.0
 31
0.0
 12
418.0
 22
295.0
 32
0.0
 13
418.0
 23
295.0
 33
0.0
  0
SOLID
  5
3B7
  8
0
  6
CONTINUOUS
 62
     7
 10
418.0
 20
295.0
 30
0.0
 11
409.9999999999999
 21
297.0
 31
0.0
 12
418.0
 22
297.0
 32
0.0
 13
418.0
 23
297.0
 33
0.0
  0
SOLID
  5
3B8
  8
0
  6
CONTINUOUS
 62
     7
 10
418.0
 20
286.9999999999999
 30
0.0
 11
418.0
 21
297.0
 31
0.0
 12
420.0
 22
286.9999999999999
 32
0.0
 13
420.0
 23
286.9999999999999
 33
0.0
  0
SOLID
  5
3B9
  8
0
  6
CONTINUOUS
 62
     7
 10
420.0
 20
286.9999999999999
 30
0.0
 11
418.0
 21
297.0
 31
0.0
 12
420.0
 22
297.0
 32
0.0
 13
420.0
 23
297.0
 33
0.0
  0
ENDBLK
  8
0
  0
BLOCK
  8
0
  2
*U26
 70
     1
 10
0.0
 20
0.0
 30
0.0
  0
SOLID
  5
3BB
  8
0
  6
CONTINUOUS
 62
     7
 10
0.0
 20
286.9999999999999
 30
0.0
 11
0.0
 21
297.0
 31
0.0
 12
2.0
 22
286.9999999999999
 32
0.0
 13
2.0
 23
286.9999999999999
 33
0.0
  0
SOLID
  5
3BC
  8
0
  6
CONTINUOUS
 62
     7
 10
2.0
 20
286.9999999999999
 30
0.0
 11
0.0
 21
297.0
 31
0.0
 12
2.0
 22
297.0
 32
0.0
 13
2.0
 23
297.0
 33
0.0
  0
SOLID
  5
3BD
  8
0
  6
CONTINUOUS
 62
     7
 10
2.0
 20
295.0
 30
0.0
 11
2.0
 21
297.0
 31
0.0
 12
10.0
 22
295.0
 32
0.0
 13
10.0
 23
295.0
 33
0.0
  0
SOLID
  5
3BE
  8
0
  6
CONTINUOUS
 62
     7
 10
10.0
 20
295.0
 30
0.0
 11
2.0
 21
297.0
 31
0.0
 12
10.0
 22
297.0
 32
0.0
 13
10.0
 23
297.0
 33
0.0
  0
ENDBLK
  8
0
  0
ENDSEC
  0
SECTION
  2
ENTITIES
  0
LINE
  5
70
  8
1
  6
CONTINUOUS
 62
     7
 10
-694.1298142821
 20
1555.049989886
 30
0.0
 11
-690.1298142821
 21
1555.049989886
 31
0.0
  0
LINE
  5
71
  8
1
  6
CONTINUOUS
 62
     7
 10
-708.1298142821
 20
1542.049989886
 30
0.0
 11
-698.8730312821
 21
1540.082399886
 31
0.0
  0
LINE
  5
72
  8
1
  6
CONTINUOUS
 62
     7
 10
-695.2008090138
 20
1649.7890909589
 30
0.0
 11
-695.2008090138
 21
1539.3108888131
 31
0.0
  0
ARC
  5
73
  8
1
  6
CONTINUOUS
 62
     7
 10
-713.1298142821
 20
1543.049989886
 30
0.0
 40
1.000000000000001
 50
180.0
 51
270.0
  0
LINE
  5
74
  8
1
  6
CONTINUOUS
 62
     7
 10
-699.1298142821
 20
1648.962998886
 30
0.0
 11
-699.1298142821
 21
1648.953808886
 31
0.0
  0
LINE
  5
75
  8
1
  6
CONTINUOUS
 62
     7
 10
-663.6299482821
 20
1508.3587469817
 30
0.0
 11
-664.0706422821002
 21
1505.8592729817
 31
0.0
  0
LINE
  5
76
  8
1
  6
CONTINUOUS
 62
     7
 10
-664.0706422821002
 20
1505.8592729817
 30
0.0
 11
-668.1298142821
 21
1505.8592729817
 31
0.0
  0
LINE
  5
77
  8
1
  6
CONTINUOUS
 62
     7
 10
-650.1299482821
 20
1508.3587559817
 30
0.0
 11
-645.1299742821
 21
1427.3598359817
 31
0.0
  0
LINE
  5
78
  8
1
  6
CONTINUOUS
 62
     7
 10
-644.6891492821
 20
1429.8592729817
 30
0.0
 11
-638.7842613101
 21
1429.8592729817
 31
0.0
  0
LINE
  5
79
  8
1
  6
CONTINUOUS
 62
     7
 10
-638.6299742821
 20
1427.3598439817
 30
0.0
 11
-643.6299482821
 21
1508.3587469817
 31
0.0
  0
LINE
  5
7A
  8
1
  6
CONTINUOUS
 62
     7
 10
-648.6299742821
 20
1427.3598439817
 30
0.0
 11
-645.1299742821
 21
1427.3598359817
 31
0.0
  0
LINE
  5
7B
  8
1
  6
CONTINUOUS
 62
     7
 10
-660.1299482821
 20
1508.3587559817
 30
0.0
 11
-655.1299742821
 21
1427.3598359817
 31
0.0
  0
LINE
  5
7C
  8
1
  6
CONTINUOUS
 62
     7
 10
-630.1299482821001
 20
1508.3587559817
 30
0.0
 11
-633.6299482821
 21
1508.3587469817
 31
0.0
  0
LINE
  5
7D
  8
1
  6
CONTINUOUS
 62
     7
 10
-645.1299742821
 20
1427.3598359817
 30
0.0
 11
-644.6891722821
 21
1429.8592729817
 31
0.0
  0
LINE
  5
7E
  8
1
  6
CONTINUOUS
 62
     7
 10
-635.1299742821
 20
1427.3598359817
 30
0.0
 11
-634.6891722821
 21
1429.8592729817
 31
0.0
  0
LINE
  5
7F
  8
1
  6
CONTINUOUS
 62
     7
 10
-658.6299742821
 20
1427.3598439817
 30
0.0
 11
-663.6299482821
 21
1508.3587469817
 31
0.0
  0
LINE
  5
80
  8
1
  6
CONTINUOUS
 62
     7
 10
-644.0706422821
 20
1505.8592729817
 30
0.0
 11
-649.9756579532
 21
1505.8592729817
 31
0.0
  0
LINE
  5
81
  8
1
  6
CONTINUOUS
 62
     7
 10
-650.1299482821
 20
1508.3587559817
 30
0.0
 11
-653.6299482821
 21
1508.3587469817
 31
0.0
  0
LINE
  5
82
  8
1
  6
CONTINUOUS
 62
     7
 10
-654.6891492821
 20
1429.8592729817
 30
0.0
 11
-648.7842613101
 21
1429.8592729817
 31
0.0
  0
LINE
  5
83
  8
1
  6
CONTINUOUS
 62
     7
 10
-640.1299482821
 20
1508.3587559817
 30
0.0
 11
-635.1299742821
 21
1427.3598359817
 31
0.0
  0
LINE
  5
84
  8
1
  6
CONTINUOUS
 62
     7
 10
-654.0706422821
 20
1505.8592729817
 30
0.0
 11
-659.9756579532
 21
1505.8592729817
 31
0.0
  0
LINE
  5
85
  8
1
  6
CONTINUOUS
 62
     7
 10
-653.6299482821
 20
1508.3587469817
 30
0.0
 11
-654.0706422821
 21
1505.8592729817
 31
0.0
  0
LINE
  5
86
  8
1
  6
CONTINUOUS
 62
     7
 10
-648.6299742821
 20
1427.3598439817
 30
0.0
 11
-653.6299482821
 21
1508.3587469817
 31
0.0
  0
LINE
  5
87
  8
1
  6
CONTINUOUS
 62
     7
 10
-683.1298142821
 20
1634.049989886
 30
0.0
 11
-687.1298142821
 21
1634.049989886
 31
0.0
  0
LINE
  5
88
  8
1
  6
CONTINUOUS
 62
     7
 10
-687.1298142821
 20
1555.049989886
 30
0.0
 11
-683.1298142821
 21
1555.049989886
 31
0.0
  0
LINE
  5
89
  8
1
  6
CONTINUOUS
 62
     7
 10
-687.6298142821
 20
1632.049989886
 30
0.0
 11
-689.6298142821
 21
1632.049989886
 31
0.0
  0
LINE
  5
8A
  8
1
  6
CONTINUOUS
 62
     7
 10
-708.1298142821
 20
1542.049989886
 30
0.0
 11
-708.1298142821
 21
1647.040464886
 31
0.0
  0
ARC
  5
8B
  8
1
  6
CONTINUOUS
 62
     7
 10
-687.6298142821
 20
1556.549989886
 30
0.0
 40
0.4999999999999449
 50
0.0
 51
90.0
  0
LINE
  5
8C
  8
1
  6
CONTINUOUS
 62
     7
 10
-708.1298142821
 20
1647.040464886
 30
0.0
 11
-713.6298142821
 21
1647.040464886
 31
0.0
  0
LINE
  5
8D
  8
1
  6
CONTINUOUS
 62
     7
 10
-638.6299742821
 20
1427.3598439817
 30
0.0
 11
-635.1299742821
 21
1427.3598359817
 31
0.0
  0
ARC
  5
8E
  8
1
  6
CONTINUOUS
 62
     7
 10
-682.6298142821
 20
1632.549989886
 30
0.0
 40
0.4999999999999449
 50
180.0
 51
270.0
  0
ARC
  5
8F
  8
1
  6
CONTINUOUS
 62
     7
 10
-675.6298142821
 20
1556.549989886
 30
0.0
 40
0.4999999999999449
 50
90.0
 51
180.0
  0
LINE
  5
90
  8
1
  6
CONTINUOUS
 62
     7
 10
-714.1298142821
 20
1543.049989886
 30
0.0
 11
-714.1298142821
 21
1646.540464886
 31
0.0
  0
LINE
  5
91
  8
1
  6
CONTINUOUS
 62
     7
 10
-690.1298142821
 20
1555.049989886
 30
0.0
 11
-690.1298142821
 21
1634.049989886
 31
0.0
  0
LINE
  5
92
  8
1
  6
CONTINUOUS
 62
     7
 10
-689.6298142821
 20
1557.049989886
 30
0.0
 11
-687.6298142821
 21
1557.049989886
 31
0.0
  0
LINE
  5
93
  8
1
  6
CONTINUOUS
 62
     7
 10
-687.1298142821
 20
1555.049989886
 30
0.0
 11
-687.1298142821
 21
1634.049989886
 31
0.0
  0
ARC
  5
94
  8
1
  6
CONTINUOUS
 62
     7
 10
-687.6298142821
 20
1632.549989886
 30
0.0
 40
0.4999999999999449
 50
270.0
 51
0.0
  0
LINE
  5
95
  8
1
  6
CONTINUOUS
 62
     7
 10
-694.1298142821
 20
1634.049989886
 30
0.0
 11
-695.1298142821
 21
1635.049989886
 31
0.0
  0
LINE
  5
96
  8
1
  6
CONTINUOUS
 62
     7
 10
-673.1298142821
 20
1554.049989886
 30
0.0
 11
-668.1298142821
 21
1554.049989886
 31
0.0
  0
LINE
  5
97
  8
1
  6
CONTINUOUS
 62
     7
 10
-583.9298142821
 20
1470.5813019817
 30
0.0
 11
-604.9298142821
 21
1470.5813019817
 31
0.0
  0
LINE
  5
98
  8
1
  6
CONTINUOUS
 62
     7
 10
-673.1298142821
 20
1427.3592729817
 30
0.0
 11
-668.1298142821
 21
1427.3592729817
 31
0.0
  0
LINE
  5
99
  8
1
  6
CONTINUOUS
 62
     7
 10
-604.9298142821
 20
1432.3563949817
 30
0.0
 11
-604.9298142821
 21
1465.6158779817
 31
0.0
  0
LINE
  5
9A
  8
1
  6
CONTINUOUS
 62
     7
 10
-604.9298142821
 20
1506.5347909817
 30
0.0
 11
-604.9298142821
 21
1520.3113199817
 31
0.0
  0
LINE
  5
9B
  8
1
  6
CONTINUOUS
 62
     7
 10
-658.6299742821
 20
1427.3598439817
 30
0.0
 11
-655.1299742821
 21
1427.3598359817
 31
0.0
  0
LINE
  5
9C
  8
1
  6
CONTINUOUS
 62
     7
 10
-675.6298142821
 20
1430.3592729817
 30
0.0
 11
-673.6298142821001
 21
1430.3592729817
 31
0.0
  0
LINE
  5
9D
  8
1
  6
CONTINUOUS
 62
     7
 10
-583.9298142821
 20
1506.6664519817
 30
0.0
 11
-604.9298142821
 21
1506.6664519817
 31
0.0
  0
LINE
  5
9E
  8
1
  6
CONTINUOUS
 62
     7
 10
-655.1299742821
 20
1427.3598359817
 30
0.0
 11
-654.6891722821
 21
1429.8592729817
 31
0.0
  0
LINE
  5
9F
  8
1
  6
CONTINUOUS
 62
     7
 10
-640.1299482821
 20
1508.3587559817
 30
0.0
 11
-643.6299482821
 21
1508.3587469817
 31
0.0
  0
LINE
  5
A0
  8
1
  6
CONTINUOUS
 62
     7
 10
-643.6299482821
 20
1508.3587469817
 30
0.0
 11
-644.0706422821
 21
1505.8592729817
 31
0.0
  0
ARC
  5
A1
  8
1
  6
CONTINUOUS
 62
     7
 10
-583.6289722821
 20
1447.3099339817
 30
0.0
 40
23.26638700000005
 50
84.52496
 51
90.740874
  0
LINE
  5
A2
  8
1
  6
CONTINUOUS
 62
     7
 10
-628.6299742821
 20
1427.3598439817
 30
0.0
 11
-625.1299742821001
 21
1427.3598359817
 31
0.0
  0
LINE
  5
A3
  8
1
  6
CONTINUOUS
 62
     7
 10
-604.9298142821
 20
1465.1372439817
 30
0.0
 11
-583.9298142821
 21
1465.1372439817
 31
0.0
  0
LINE
  5
A4
  8
1
  6
CONTINUOUS
 62
     7
 10
-668.1298142821
 20
1508.3592729817
 30
0.0
 11
-673.1298142821
 21
1508.3592729817
 31
0.0
  0
ARC
  5
A5
  8
1
  6
CONTINUOUS
 62
     7
 10
-583.7066382821
 20
1431.8976879817
 30
0.0
 40
2.854331999999959
 50
265.51554
 51
345.108433
  0
LINE
  5
A6
  8
1
  6
CONTINUOUS
 62
     7
 10
-664.6891492821
 20
1429.8592729817
 30
0.0
 11
-658.7842613101001
 21
1429.8592729817
 31
0.0
  0
ARC
  5
A7
  8
1
  6
CONTINUOUS
 62
     7
 10
-583.9298142821
 20
1418.3592729817
 30
0.0
 40
3.000000000000003
 50
270.0
 51
0.0
  0
ARC
  5
A8
  8
1
  6
CONTINUOUS
 62
     7
 10
-583.6091432821001
 20
1487.1981029817
 30
0.0
 40
22.05626400000005
 50
269.16696
 51
275.799319
  0
LINE
  5
A9
  8
1
  6
CONTINUOUS
 62
     7
 10
-604.9298142821
 20
1429.0520939817
 30
0.0
 11
-583.9298142821
 21
1429.0520939817
 31
0.0
  0
LINE
  5
AA
  8
1
  6
CONTINUOUS
 62
     7
 10
-609.1953402821
 20
1415.3592729817
 30
0.0
 11
-583.9298142821
 21
1415.3592729817
 31
0.0
  0
ARC
  5
AB
  8
1
  6
CONTINUOUS
 62
     7
 10
-673.6298142821001
 20
1429.8592729817
 30
0.0
 40
0.4999999999999449
 50
0.0
 51
90.0
  0
LINE
  5
AC
  8
1
  6
CONTINUOUS
 62
     7
 10
-604.9298142821
 20
1415.4072269817
 30
0.0
 11
-604.9298142821
 21
1429.1837559817
 31
0.0
  0
LINE
  5
AD
  8
1
  6
CONTINUOUS
 62
     7
 10
-673.6298142821001
 20
1505.3592729817
 30
0.0
 11
-675.6298142821
 21
1505.3592729817
 31
0.0
  0
ARC
  5
AE
  8
1
  6
CONTINUOUS
 62
     7
 10
-583.9298142821
 20
1517.3592729817
 30
0.0
 40
3.000000000000003
 50
0.0
 51
90.0
  0
LINE
  5
AF
  8
1
  6
CONTINUOUS
 62
     7
 10
-609.1953402821
 20
1415.3592729817
 30
0.0
 11
-609.1953402821
 21
1520.3592729817
 31
0.0
  0
TEXT
  5
B0
  8
1
  6
CONTINUOUS
 62
     5
 10
-308.4170351832808
 20
1407.535796818182
 30
0.0
 40
3.5
  1
ＬＰＫＨ－７０Ｐ
 41
0.996045
 51
15.0
  0
LINE
  5
B1
  8
1
  6
CONTINUOUS
 62
     7
 10
-695.1298142821
 20
1554.049989886
 30
0.0
 11
-694.1298142821
 21
1555.049989886
 31
0.0
  0
ARC
  5
B2
  8
1
  6
CONTINUOUS
 62
     7
 10
-682.6298142821
 20
1556.549989886
 30
0.0
 40
0.4999999999999449
 50
90.0
 51
180.0
  0
LINE
  5
B3
  8
1
  6
CONTINUOUS
 62
     7
 10
-708.1298142821
 20
1647.040464886
 30
0.0
 11
-695.2008090138
 21
1649.7890909589
 31
0.0
  0
LINE
  5
B4
  8
1
  6
CONTINUOUS
 62
     7
 10
-683.1298142821
 20
1555.049989886
 30
0.0
 11
-683.1298142821
 21
1634.049989886
 31
0.0
  0
LINE
  5
B5
  8
1
  6
CONTINUOUS
 62
     7
 10
-694.1298142821
 20
1634.049989886
 30
0.0
 11
-694.1298142821
 21
1555.049989886
 31
0.0
  0
ARC
  5
B6
  8
1
  6
CONTINUOUS
 62
     7
 10
-689.6298142821
 20
1632.549989886
 30
0.0
 40
0.4999999999999449
 50
180.0
 51
270.0
  0
INSERT
  5
B8
  8
0
 62
     7
  2
D_FRAME_DRAWING_21
 10
0.0
 20
0.0
 30
0.0
  0
LINE
  5
102
  8
1
  6
CONTINUOUS
 62
     7
 10
-628.6299742821
 20
1554.050560886
 30
0.0
 11
-625.1299742821001
 21
1554.050552886
 31
0.0
  0
LINE
  5
103
  8
1
  6
CONTINUOUS
 62
     7
 10
-391.4298142821
 20
1604.049989886
 30
0.0
 11
-392.2349172821
 21
1604.049989886
 31
0.0
  0
LINE
  5
104
  8
1
  6
CONTINUOUS
 62
     7
 10
-412.8803332821
 20
1552.949989886
 30
0.0
 11
-411.7453262821
 21
1551.329031886
 31
0.0
  0
ARC
  5
105
  8
1
  6
CONTINUOUS
 62
     7
 10
-388.8298032821
 20
1604.850008886
 30
0.0
 40
0.800019
 50
208.955831
 51
269.999193
  0
LINE
  5
106
  8
1
  6
CONTINUOUS
 62
     7
 10
-633.6299482821
 20
1635.049463886
 30
0.0
 11
-634.0706422821
 21
1632.549989886
 31
0.0
  0
LINE
  5
107
  8
1
  6
CONTINUOUS
 62
     7
 10
-650.1299482821
 20
1635.049472886
 30
0.0
 11
-645.1299742821
 21
1554.050552886
 31
0.0
  0
LINE
  5
108
  8
1
  6
CONTINUOUS
 62
     7
 10
-422.8160622821
 20
1636.149989886
 30
0.0
 11
-429.1298142821
 21
1637.149989886
 31
0.0
  0
ARC
  5
109
  8
1
  6
CONTINUOUS
 62
     7
 10
-511.8969352821
 20
1591.437375886
 30
0.0
 40
116.423906
 50
357.100781
 51
357.332277
  0
ARC
  5
10A
  8
1
  6
CONTINUOUS
 62
     7
 10
-383.7154372821
 20
1636.964317886
 30
0.0
 40
1.0
 50
30.0
 51
88.56790400000001
  0
LINE
  5
10B
  8
1
  6
CONTINUOUS
 62
     7
 10
-380.8621492821
 20
1553.798429886
 30
0.0
 11
-379.1298142821
 21
1553.949989886
 31
0.0
  0
ARC
  5
10C
  8
1
  6
CONTINUOUS
 62
     7
 10
-390.1298142821
 20
1603.549989886
 30
0.0
 40
4.325
 50
262.353426
 51
277.646574
  0
LINE
  5
10D
  8
1
  6
CONTINUOUS
 62
     7
 10
-628.6299742821
 20
1554.050560886
 30
0.0
 11
-633.6299482821
 21
1635.049463886
 31
0.0
  0
ARC
  5
10E
  8
1
  6
CONTINUOUS
 62
     7
 10
-388.8298142821
 20
1604.849989886
 30
0.0
 40
0.8
 50
180.0
 51
208.955024
  0
ARC
  5
10F
  8
1
  6
CONTINUOUS
 62
     7
 10
-391.4298142821
 20
1602.249989886
 30
0.0
 40
0.8
 50
0.0
 51
28.955024
  0
ARC
  5
110
  8
1
  6
CONTINUOUS
 62
     7
 10
-410.1070222821
 20
1552.476184886
 30
0.0
 40
2.0
 50
215.0
 51
271.432096
  0
ARC
  5
111
  8
1
  6
CONTINUOUS
 62
     7
 10
-390.1298142821
 20
1603.549989886
 30
0.0
 40
2.163668
 50
346.6387999999999
 51
13.3612
  0
ARC
  5
112
  8
1
  6
CONTINUOUS
 62
     7
 10
-380.7314152821
 20
1552.304137886
 30
0.0
 40
1.5
 50
95.0
 51
150.0
  0
ARC
  5
113
  8
1
  6
CONTINUOUS
 62
     7
 10
-390.1298142821
 20
1603.549989886
 30
0.0
 40
2.163668
 50
166.6388
 51
193.3612
  0
ARC
  5
114
  8
1
  6
CONTINUOUS
 62
     7
 10
-390.1298142821
 20
1603.549989886
 30
0.0
 40
4.325
 50
322.353426
 51
337.646574
  0
LINE
  5
115
  8
1
  6
CONTINUOUS
 62
     7
 10
-389.5298142821
 20
1602.637287886
 30
0.0
 11
-389.5298142821
 21
1600.197594886
 31
0.0
  0
ARC
  5
116
  8
1
  6
CONTINUOUS
 62
     7
 10
-410.1070222821
 20
1636.623794886
 30
0.0
 40
2.0
 50
88.56790400000001
 51
145.0
  0
LINE
  5
117
  8
1
  6
CONTINUOUS
 62
     7
 10
-390.7053082821
 20
1599.263448886
 30
0.0
 11
-393.5543202821
 21
1600.908327886
 31
0.0
  0
LINE
  5
118
  8
1
  6
CONTINUOUS
 62
     7
 10
-429.1298142821
 20
1637.149989886
 30
0.0
 11
-433.1298142821
 21
1637.149989886
 31
0.0
  0
LINE
  5
119
  8
1
  6
CONTINUOUS
 62
     7
 10
-422.8160622821
 20
1552.949989886
 30
0.0
 11
-412.8803332821
 21
1552.949989886
 31
0.0
  0
ARC
  5
11A
  8
1
  6
CONTINUOUS
 62
     7
 10
-390.0884732821
 20
1585.060745886
 30
0.0
 40
5.579893
 50
174.969853
 51
5.030146999999999
  0
LINE
  5
11B
  8
1
  6
CONTINUOUS
 62
     7
 10
-412.8803332821
 20
1636.149989886
 30
0.0
 11
-422.8160622821
 21
1636.149989886
 31
0.0
  0
ARC
  5
11C
  8
1
  6
CONTINUOUS
 62
     7
 10
-383.7154372821
 20
1552.135661886
 30
0.0
 40
1.0
 50
271.432096
 51
330.0
  0
ARC
  5
11D
  8
1
  6
CONTINUOUS
 62
     7
 10
-390.1298142821
 20
1603.549989886
 30
0.0
 40
4.325
 50
82.353426
 51
97.646574
  0
ARC
  5
11E
  8
1
  6
CONTINUOUS
 62
     7
 10
-380.7314152821
 20
1636.795841886
 30
0.0
 40
1.5
 50
210.0
 51
265.0
  0
LINE
  5
11F
  8
1
  6
CONTINUOUS
 62
     7
 10
-389.5543202821
 20
1607.836530886
 30
0.0
 11
-386.7053082821
 21
1606.191651886
 31
0.0
  0
ARC
  5
120
  8
1
  6
CONTINUOUS
 62
     7
 10
-388.8298142821
 20
1602.249989886
 30
0.0
 40
0.8
 50
151.044976
 51
180.0
  0
LINE
  5
121
  8
1
  6
CONTINUOUS
 62
     7
 10
-386.7053082821
 20
1600.908327886
 30
0.0
 11
-389.5543202821
 21
1599.263448886
 31
0.0
  0
LINE
  5
122
  8
1
  6
CONTINUOUS
 62
     7
 10
-386.1298142821
 20
1605.194867886
 30
0.0
 11
-386.1298142821
 21
1601.905111886
 31
0.0
  0
ARC
  5
123
  8
1
  6
CONTINUOUS
 62
     7
 10
-388.8298042821
 20
1602.249972886
 30
0.0
 40
0.800017
 50
90.000699
 51
151.044276
  0
LINE
  5
124
  8
1
  6
CONTINUOUS
 62
     7
 10
-379.1298142821
 20
1635.149989886
 30
0.0
 11
-380.8621492821
 21
1635.301549886
 31
0.0
  0
LINE
  5
125
  8
1
  6
CONTINUOUS
 62
     7
 10
-392.2349172821
 20
1603.049989886
 30
0.0
 11
-391.4298142821
 21
1603.049989886
 31
0.0
  0
LINE
  5
126
  8
1
  6
CONTINUOUS
 62
     7
 10
-663.6299482821
 20
1635.049463886
 30
0.0
 11
-664.0706422821002
 21
1632.549989886
 31
0.0
  0
ARC
  5
127
  8
1
  6
CONTINUOUS
 62
     7
 10
-390.1298142821
 20
1603.549989886
 30
0.0
 40
4.325
 50
202.353426
 51
217.646574
  0
ARC
  5
128
  8
1
  6
CONTINUOUS
 62
     7
 10
-391.4298142821
 20
1604.849989886
 30
0.0
 40
0.8
 50
331.044976
 51
0.0
  0
LINE
  5
129
  8
1
  6
CONTINUOUS
 62
     7
 10
-393.5543202821
 20
1606.191651886
 30
0.0
 11
-390.7053082821
 21
1607.836530886
 31
0.0
  0
LINE
  5
12A
  8
1
  6
CONTINUOUS
 62
     7
 10
-382.0304532821
 20
1636.045841886
 30
0.0
 11
-382.8494112821
 21
1637.464317886
 31
0.0
  0
ARC
  5
12B
  8
1
  6
CONTINUOUS
 62
     7
 10
-391.4298242821
 20
1604.850006886
 30
0.0
 40
0.800017
 50
270.000699
 51
331.0442760000001
  0
ARC
  5
12C
  8
1
  6
CONTINUOUS
 62
     7
 10
-270.5883312821
 20
1591.498914886
 30
0.0
 40
114.122097
 50
182.667723
 51
182.988713
  0
ARC
  5
12D
  8
1
  6
CONTINUOUS
 62
     7
 10
-390.1298142821
 20
1603.549989886
 30
0.0
 40
4.325
 50
142.353426
 51
157.646574
  0
LINE
  5
12E
  8
1
  6
CONTINUOUS
 62
     7
 10
-382.8494112821
 20
1551.635661886
 30
0.0
 11
-382.0304532821
 21
1553.054137886
 31
0.0
  0
LINE
  5
12F
  8
1
  6
CONTINUOUS
 62
     7
 10
-390.7298142821
 20
1600.197594886
 30
0.0
 11
-390.7298142821
 21
1602.637287886
 31
0.0
  0
LINE
  5
130
  8
1
  6
CONTINUOUS
 62
     7
 10
-390.7298142821
 20
1586.462691886
 30
0.0
 11
-390.7298142821
 21
1588.902384886
 31
0.0
  0
LINE
  5
131
  8
1
  6
CONTINUOUS
 62
     7
 10
-425.4952262821
 20
1600.076104886
 30
0.0
 11
-422.8160622821
 21
1598.913343886
 31
0.0
  0
ARC
  5
132
  8
1
  6
CONTINUOUS
 62
     7
 10
-391.4298252821
 20
1602.249970886
 30
0.0
 40
0.800019
 50
28.955831
 51
89.999193
  0
ARC
  5
133
  8
1
  6
CONTINUOUS
 62
     7
 10
-578.6994912821
 20
1594.549989886
 30
0.0
 40
183.298938
 50
357.332277
 51
359.198933
  0
ARC
  5
134
  8
1
  6
CONTINUOUS
 62
     7
 10
-390.1298142821
 20
1603.549989886
 30
0.0
 40
4.325
 50
22.353426
 51
37.646574
  0
LINE
  5
135
  8
1
  6
CONTINUOUS
 62
     7
 10
-680.1298142821
 20
1555.049989886
 30
0.0
 11
-680.1298142821
 21
1634.049989886
 31
0.0
  0
LINE
  5
136
  8
1
  6
CONTINUOUS
 62
     7
 10
-676.1298142821
 20
1555.049989886
 30
0.0
 11
-676.1298142821
 21
1634.049989886
 31
0.0
  0
LINE
  5
137
  8
1
  6
CONTINUOUS
 62
     7
 10
-583.9298142821
 20
1633.357168886
 30
0.0
 11
-604.9298142821
 21
1633.357168886
 31
0.0
  0
ARC
  5
138
  8
1
  6
CONTINUOUS
 62
     7
 10
-689.6298142821
 20
1556.549989886
 30
0.0
 40
0.4999999999999449
 50
90.0
 51
180.0
  0
LINE
  5
139
  8
1
  6
CONTINUOUS
 62
     7
 10
-673.6298142821001
 20
1632.049989886
 30
0.0
 11
-675.6298142821
 21
1632.049989886
 31
0.0
  0
LINE
  5
13A
  8
1
  6
CONTINUOUS
 62
     7
 10
-583.9298142821
 20
1647.049989886
 30
0.0
 11
-609.1953402821
 21
1647.049989886
 31
0.0
  0
ARC
  5
13B
  8
1
  6
CONTINUOUS
 62
     7
 10
-583.7066382821
 20
1558.588404886
 30
0.0
 40
2.854331999999959
 50
265.51554
 51
345.108433
  0
LINE
  5
13C
  8
1
  6
CONTINUOUS
 62
     7
 10
-609.1953402821
 20
1542.049989886
 30
0.0
 11
-583.9298142821
 21
1542.049989886
 31
0.0
  0
ARC
  5
13D
  8
1
  6
CONTINUOUS
 62
     7
 10
-680.6298142821
 20
1632.549989886
 30
0.0
 40
0.4999999999999449
 50
270.0
 51
0.0
  0
LINE
  5
13E
  8
1
  6
CONTINUOUS
 62
     7
 10
-604.9298142821
 20
1559.047111886
 30
0.0
 11
-604.9298142821
 21
1592.306594886
 31
0.0
  0
LINE
  5
13F
  8
1
  6
CONTINUOUS
 62
     7
 10
-604.9298142821
 20
1633.225507886
 30
0.0
 11
-604.9298142821
 21
1647.002036886
 31
0.0
  0
LINE
  5
140
  8
1
  6
CONTINUOUS
 62
     7
 10
-609.1953402821
 20
1542.049989886
 30
0.0
 11
-609.1953402821
 21
1647.049989886
 31
0.0
  0
LINE
  5
141
  8
1
  6
CONTINUOUS
 62
     7
 10
-568.6768640651
 20
1554.050710886
 30
0.0
 11
-565.1768640651
 21
1554.050702886
 31
0.0
  0
ARC
  5
142
  8
1
  6
CONTINUOUS
 62
     7
 10
-583.9298142821
 20
1545.049989886
 30
0.0
 40
3.000000000000003
 50
270.0
 51
0.0
  0
LINE
  5
143
  8
1
  6
CONTINUOUS
 62
     7
 10
-682.6298142821
 20
1557.049989886
 30
0.0
 11
-680.6298142821
 21
1557.049989886
 31
0.0
  0
LINE
  5
144
  8
1
  6
CONTINUOUS
 62
     7
 10
-713.1298142821
 20
1542.049989886
 30
0.0
 11
-708.1298142821
 21
1542.049989886
 31
0.0
  0
ARC
  5
145
  8
1
  6
CONTINUOUS
 62
     7
 10
-680.6298142821
 20
1556.549989886
 30
0.0
 40
0.4999999999999449
 50
0.0
 51
90.0
  0
ARC
  5
146
  8
1
  6
CONTINUOUS
 62
     7
 10
-673.6298142821001
 20
1556.549989886
 30
0.0
 40
0.4999999999999449
 50
0.0
 51
90.0
  0
ARC
  5
147
  8
1
  6
CONTINUOUS
 62
     7
 10
-583.9298142821
 20
1644.049989886
 30
0.0
 40
3.000000000000003
 50
0.0
 51
90.0
  0
LINE
  5
148
  8
1
  6
CONTINUOUS
 62
     7
 10
-664.0706422821002
 20
1632.549989886
 30
0.0
 11
-668.1298142821
 21
1632.549989886
 31
0.0
  0
LINE
  5
149
  8
1
  6
CONTINUOUS
 62
     7
 10
-658.6299742821
 20
1554.050560886
 30
0.0
 11
-663.6299482821
 21
1635.049463886
 31
0.0
  0
ARC
  5
14A
  8
1
  6
CONTINUOUS
 62
     7
 10
-583.7111062821
 20
1630.505266886
 30
0.0
 40
2.86027600000005
 50
14.990684
 51
94.38534299999999
  0
LINE
  5
14B
  8
1
  6
CONTINUOUS
 62
     7
 10
-675.6298142821
 20
1557.049989886
 30
0.0
 11
-673.6298142821001
 21
1557.049989886
 31
0.0
  0
LINE
  5
14C
  8
1
  6
CONTINUOUS
 62
     7
 10
-580.9298142821
 20
1545.049989886
 30
0.0
 11
-580.9298142821
 21
1644.049989886
 31
0.0
  0
LINE
  5
14D
  8
1
  6
CONTINUOUS
 62
     7
 10
-673.1298142821
 20
1554.049989886
 30
0.0
 11
-673.1298142821
 21
1635.049989886
 31
0.0
  0
LINE
  5
14E
  8
1
  6
CONTINUOUS
 62
     7
 10
-664.6891492821
 20
1556.549989886
 30
0.0
 11
-658.7842613101001
 21
1556.549989886
 31
0.0
  0
ARC
  5
14F
  8
1
  6
CONTINUOUS
 62
     7
 10
-713.6298142821
 20
1646.540464886
 30
0.0
 40
0.4999999999999449
 50
90.0
 51
180.0
  0
LINE
  5
150
  8
1
  6
CONTINUOUS
 62
     7
 10
-680.6298142821
 20
1632.049989886
 30
0.0
 11
-682.6298142821
 21
1632.049989886
 31
0.0
  0
LINE
  5
151
  8
1
  6
CONTINUOUS
 62
     7
 10
-708.1298142821
 20
1542.059514886
 30
0.0
 11
-695.2008090138
 21
1539.3108888131
 31
0.0
  0
ARC
  5
152
  8
1
  6
CONTINUOUS
 62
     7
 10
-673.6298142821001
 20
1632.549989886
 30
0.0
 40
0.4999999999999449
 50
270.0
 51
0.0
  0
LINE
  5
153
  8
1
  6
CONTINUOUS
 62
     7
 10
-676.1298142821
 20
1634.049989886
 30
0.0
 11
-680.1298142821
 21
1634.049989886
 31
0.0
  0
ARC
  5
154
  8
1
  6
CONTINUOUS
 62
     7
 10
-583.6091432821001
 20
1613.888819886
 30
0.0
 40
22.05626400000005
 50
269.16696
 51
275.799319
  0
LINE
  5
155
  8
1
  6
CONTINUOUS
 62
     7
 10
-604.9298142821
 20
1555.742810886
 30
0.0
 11
-583.9298142821
 21
1555.742810886
 31
0.0
  0
LINE
  5
156
  8
1
  6
CONTINUOUS
 62
     7
 10
-680.1298142821
 20
1555.049989886
 30
0.0
 11
-676.1298142821
 21
1555.049989886
 31
0.0
  0
LINE
  5
157
  8
1
  6
CONTINUOUS
 62
     7
 10
-668.1298142821
 20
1602.6475656251
 30
0.0
 11
-668.1298142821
 21
1635.049989886
 31
0.0
  0
LINE
  5
158
  8
1
  6
CONTINUOUS
 62
     7
 10
-604.9298142821
 20
1591.827960886
 30
0.0
 11
-583.9298142821
 21
1591.827960886
 31
0.0
  0
LINE
  5
159
  8
1
  6
CONTINUOUS
 62
     7
 10
-660.1299482821
 20
1635.049472886
 30
0.0
 11
-663.6299482821
 21
1635.049463886
 31
0.0
  0
ARC
  5
15A
  8
1
  6
CONTINUOUS
 62
     7
 10
-583.6289722821
 20
1574.000650886
 30
0.0
 40
23.26638700000005
 50
84.52496
 51
90.740874
  0
ARC
  5
15B
  8
1
  6
CONTINUOUS
 62
     7
 10
-675.6298142821
 20
1632.549989886
 30
0.0
 40
0.4999999999999449
 50
180.0
 51
270.0
  0
LINE
  5
15C
  8
1
  6
CONTINUOUS
 62
     7
 10
-660.1299482821
 20
1635.049472886
 30
0.0
 11
-655.1299742821
 21
1554.050552886
 31
0.0
  0
LINE
  5
15D
  8
1
  6
CONTINUOUS
 62
     7
 10
-690.1298142821
 20
1634.049989886
 30
0.0
 11
-694.1298142821
 21
1634.049989886
 31
0.0
  0
LINE
  5
15E
  8
1
  6
CONTINUOUS
 62
     7
 10
-668.1298142821
 20
1635.049989886
 30
0.0
 11
-673.1298142821
 21
1635.049989886
 31
0.0
  0
LINE
  5
15F
  8
1
  6
CONTINUOUS
 62
     7
 10
-604.9298142821
 20
1542.097943886
 30
0.0
 11
-604.9298142821
 21
1555.874472886
 31
0.0
  0
LINE
  5
160
  8
1
  6
CONTINUOUS
 62
     7
 10
-604.9298142821
 20
1596.793384886
 30
0.0
 11
-604.9298142821
 21
1630.052867886
 31
0.0
  0
LINE
  5
161
  8
1
  6
CONTINUOUS
 62
     7
 10
-583.9298142821
 20
1597.272018886
 30
0.0
 11
-604.9298142821
 21
1597.272018886
 31
0.0
  0
LINE
  5
162
  8
1
  6
CONTINUOUS
 62
     7
 10
-658.6299742821
 20
1554.050560886
 30
0.0
 11
-655.1299742821
 21
1554.050552886
 31
0.0
  0
LINE
  5
163
  8
1
  6
CENTER
 62
     5
 10
-375.3390199308
 20
1467.8592729817
 30
0.0
 11
-732.5
 21
1467.8592729817
 31
0.0
  0
LINE
  5
165
  8
1
  6
CENTER
 62
     5
 10
-375.3390199308
 20
1594.549989886
 30
0.0
 11
-732.5
 21
1594.549989886
 31
0.0
  0
LINE
  5
166
  8
0
  6
CONTINUOUS
 62
     7
 10
0.0
 20
0.0
 30
0.0
 11
420.0
 21
0.0
 31
0.0
  0
LINE
  5
167
  8
0
  6
CONTINUOUS
 62
     7
 10
420.0
 20
0.0
 30
0.0
 11
420.0
 21
297.0
 31
0.0
  0
LINE
  5
168
  8
0
  6
CONTINUOUS
 62
     7
 10
420.0
 20
297.0
 30
0.0
 11
0.0
 21
297.0
 31
0.0
  0
LINE
  5
169
  8
0
  6
CONTINUOUS
 62
     7
 10
0.0
 20
297.0
 30
0.0
 11
0.0
 21
0.0
 31
0.0
  0
LINE
  5
16A
  8
0
  6
CONTINUOUS
 62
     7
 10
10.0
 20
10.0
 30
0.0
 11
409.9999999999999
 21
10.0
 31
0.0
  0
LINE
  5
16B
  8
0
  6
CONTINUOUS
 62
     7
 10
409.9999999999999
 20
10.0
 30
0.0
 11
409.9999999999999
 21
286.9999999999999
 31
0.0
  0
LINE
  5
16C
  8
0
  6
CONTINUOUS
 62
     7
 10
409.9999999999999
 20
286.9999999999999
 30
0.0
 11
10.00000000000006
 21
286.9999999999999
 31
0.0
  0
LINE
  5
16D
  8
0
  6
CONTINUOUS
 62
     7
 10
10.0
 20
286.9999999999999
 30
0.0
 11
10.0
 21
10.00000000000001
 31
0.0
  0
LINE
  5
16E
  8
0
  6
CONTINUOUS
 62
     7
 10
210.0
 20
0.0
 30
0.0
 11
210.0
 21
10.0
 31
0.0
  0
LINE
  5
16F
  8
0
  6
CONTINUOUS
 62
     7
 10
420.0
 20
148.5
 30
0.0
 11
409.9999999999999
 21
148.5
 31
0.0
  0
LINE
  5
170
  8
0
  6
CONTINUOUS
 62
     7
 10
210.0
 20
297.0
 30
0.0
 11
210.0
 21
286.9999999999999
 31
0.0
  0
LINE
  5
171
  8
0
  6
CONTINUOUS
 62
     7
 10
0.0
 20
148.5
 30
0.0
 11
10.0
 21
148.5
 31
0.0
  0
LINE
  5
172
  8
0
  6
CONTINUOUS
 62
     7
 10
11.0
 20
152.5
 30
0.0
 11
0.0000000000000017
 21
148.5
 31
0.0
  0
LINE
  5
173
  8
0
  6
CONTINUOUS
 62
     7
 10
0.0
 20
148.5
 30
0.0
 11
11.0
 21
144.5
 31
0.0
  0
LINE
  5
174
  8
0
  6
CONTINUOUS
 62
     7
 10
11.0
 20
144.5
 30
0.0
 11
11.0
 21
152.5
 31
0.0
  0
INSERT
  5
175
  8
0
 62
     7
  2
*U2
 10
0.0
 20
0.0
 30
0.0
  0
LINE
  5
176
  8
0
  6
CONTINUOUS
 62
     7
 10
206.0
 20
11.0
 30
0.0
 11
210.0
 21
-0.0000000000000017
 31
0.0
  0
LINE
  5
177
  8
0
  6
CONTINUOUS
 62
     7
 10
210.0
 20
0.0
 30
0.0
 11
214.0
 21
11.0
 31
0.0
  0
LINE
  5
178
  8
0
  6
CONTINUOUS
 62
     7
 10
214.0
 20
11.0
 30
0.0
 11
206.0
 21
11.0
 31
0.0
  0
INSERT
  5
179
  8
0
 62
     7
  2
*U3
 10
0.0
 20
0.0
 30
0.0
  0
INSERT
  5
17A
  8
0
 62
     7
  2
*U4
 10
0.0
 20
0.0
 30
0.0
  0
LINE
  5
17B
  8
0
  6
CONTINUOUS
 62
     7
 10
367.5
 20
286.9999999999999
 30
0.0
 11
367.5
 21
292.0
 31
0.0
  0
TEXT
  5
17C
  8
0
  6
CONTINUOUS
 62
     7
 10
391.2681818181818
 20
291.6648586970114
 30
0.0
 40
3.5
  1
A
 50
270.0
  0
LINE
  5
17D
  8
0
  6
CONTINUOUS
 62
     7
 10
367.5
 20
10.0
 30
0.0
 11
367.5
 21
5.0
 31
0.0
  0
TEXT
  5
17E
  8
0
  6
CONTINUOUS
 62
     7
 10
393.1544594848068
 20
4.236363636363635
 30
0.0
 40
3.5
  1
A
  0
LINE
  5
17F
  8
0
  6
CONTINUOUS
 62
     7
 10
315.0
 20
286.9999999999999
 30
0.0
 11
315.0
 21
292.0
 31
0.0
  0
TEXT
  5
180
  8
0
  6
CONTINUOUS
 62
     7
 10
338.7681818181818
 20
291.9491215455798
 30
0.0
 40
3.5
  1
B
 50
270.0
  0
LINE
  5
181
  8
0
  6
CONTINUOUS
 62
     7
 10
315.0
 20
10.0
 30
0.0
 11
315.0
 21
5.0
 31
0.0
  0
TEXT
  5
182
  8
0
  6
CONTINUOUS
 62
     7
 10
340.3701966362385
 20
4.236363636363635
 30
0.0
 40
3.5
  1
B
  0
LINE
  5
183
  8
0
  6
CONTINUOUS
 62
     7
 10
262.5
 20
286.9999999999999
 30
0.0
 11
262.5
 21
292.0
 31
0.0
  0
TEXT
  5
184
  8
0
  6
CONTINUOUS
 62
     7
 10
286.2655558334374
 20
291.8798611979494
 30
0.0
 40
3.5
  1
C
 50
270.0
  0
LINE
  5
185
  8
0
  6
CONTINUOUS
 62
     7
 10
262.5
 20
10.0
 30
0.0
 11
262.5
 21
5.0
 31
0.0
  0
TEXT
  5
186
  8
0
  6
CONTINUOUS
 62
     7
 10
287.9394569838688
 20
4.233737651619357
 30
0.0
 40
3.5
  1
C
  0
LINE
  5
187
  8
0
  6
CONTINUOUS
 62
     7
 10
210.0
 20
286.9999999999999
 30
0.0
 11
210.0
 21
292.0
 31
0.0
  0
TEXT
  5
188
  8
0
  6
CONTINUOUS
 62
     7
 10
233.7681818181818
 20
291.9491215455796
 30
0.0
 40
3.5
  1
D
 50
270.0
  0
LINE
  5
189
  8
0
  6
CONTINUOUS
 62
     7
 10
157.5
 20
286.9999999999999
 30
0.0
 11
157.5
 21
292.0
 31
0.0
  0
TEXT
  5
18A
  8
0
  6
CONTINUOUS
 62
     7
 10
181.2655558334376
 20
292.0549268475679
 30
0.0
 40
3.5
  1
E
 50
270.0
  0
LINE
  5
18B
  8
0
  6
CONTINUOUS
 62
     7
 10
157.5
 20
10.0
 30
0.0
 11
157.5
 21
5.0
 31
0.0
  0
LINE
  5
18C
  8
0
  6
CONTINUOUS
 62
     7
 10
105.0
 20
286.9999999999999
 30
0.0
 11
105.0
 21
292.0
 31
0.0
  0
TEXT
  5
18D
  8
0
  6
CONTINUOUS
 62
     7
 10
128.7655558334375
 20
291.9849005877204
 30
0.0
 40
3.5
  1
F
 50
270.0
  0
LINE
  5
18E
  8
0
  6
CONTINUOUS
 62
     7
 10
105.0
 20
10.0
 30
0.0
 11
105.0
 21
5.0
 31
0.0
  0
TEXT
  5
18F
  8
0
  6
CONTINUOUS
 62
     7
 10
130.3344175940978
 20
4.233737651619357
 30
0.0
 40
3.5
  1
F
  0
LINE
  5
190
  8
0
  6
CONTINUOUS
 62
     7
 10
52.50000000000004
 20
286.9999999999999
 30
0.0
 11
52.50000000000004
 21
292.0
 31
0.0
  0
TEXT
  5
191
  8
0
  6
CONTINUOUS
 62
     7
 10
76.26555583343753
 20
291.8798611979493
 30
0.0
 40
3.5
  1
G
 50
270.0
  0
LINE
  5
192
  8
0
  6
CONTINUOUS
 62
     7
 10
52.50000000000004
 20
10.0
 30
0.0
 11
52.50000000000004
 21
5.0
 31
0.0
  0
TEXT
  5
193
  8
0
  6
CONTINUOUS
 62
     7
 10
77.93945698386898
 20
4.233737651619357
 30
0.0
 40
3.5
  1
G
  0
TEXT
  5
194
  8
0
  6
CONTINUOUS
 62
     7
 10
23.76555583343753
 20
291.9498874577966
 30
0.0
 40
3.5
  1
H
 50
270.0
  0
TEXT
  5
195
  8
0
  6
CONTINUOUS
 62
     7
 10
25.36943072402154
 20
4.233737651619357
 30
0.0
 40
3.5
  1
H
  0
LINE
  5
196
  8
0
  6
CONTINUOUS
 62
     7
 10
409.9999999999999
 20
74.25
 30
0.0
 11
414.9999999999999
 21
74.25
 31
0.0
  0
TEXT
  5
197
  8
0
  6
CONTINUOUS
 62
     7
 10
412.7265755908465
 20
34.64055583343754
 30
0.0
 40
3.5
  1
1
  0
LINE
  5
198
  8
0
  6
CONTINUOUS
 62
     7
 10
10.0
 20
74.25
 30
0.0
 11
5.0
 21
74.25
 31
0.0
  0
TEXT
  5
199
  8
0
  6
CONTINUOUS
 62
     7
 10
4.23373765161935
 20
38.46774259097161
 30
0.0
 40
3.5
  1
1
 50
270.0
  0
LINE
  5
19A
  8
0
  6
CONTINUOUS
 62
     7
 10
409.9999999999999
 20
148.5
 30
0.0
 11
414.9999999999999
 21
148.5
 31
0.0
  0
TEXT
  5
19B
  8
0
  6
CONTINUOUS
 62
     7
 10
413.1887489058396
 20
108.8905558334376
 30
0.0
 40
3.5
  1
2
  0
LINE
  5
19C
  8
0
  6
CONTINUOUS
 62
     7
 10
10.0
 20
148.5
 30
0.0
 11
5.0
 21
148.5
 31
0.0
  0
TEXT
  5
19D
  8
0
  6
CONTINUOUS
 62
     7
 10
4.233737651619379
 20
112.2555692759785
 30
0.0
 40
3.5
  1
2
 50
270.0
  0
LINE
  5
19E
  8
0
  6
CONTINUOUS
 62
     7
 10
409.9999999999999
 20
222.75
 30
0.0
 11
414.9999999999999
 21
222.75
 31
0.0
  0
TEXT
  5
19F
  8
0
  6
CONTINUOUS
 62
     7
 10
413.2237620357633
 20
183.1405558334376
 30
0.0
 40
3.5
  1
3
  0
LINE
  5
1A0
  8
0
  6
CONTINUOUS
 62
     7
 10
10.0
 20
222.75
 30
0.0
 11
5.0
 21
222.75
 31
0.0
  0
TEXT
  5
1A1
  8
0
  6
CONTINUOUS
 62
     7
 10
4.23373765161935
 20
186.4705561460548
 30
0.0
 40
3.5
  1
3
 50
270.0
  0
TEXT
  5
1A2
  8
0
  6
CONTINUOUS
 62
     7
 10
413.3316462423409
 20
257.3931818181817
 30
0.0
 40
3.5
  1
4
  0
TEXT
  5
1A3
  8
0
  6
CONTINUOUS
 62
     7
 10
4.23636363636362
 20
260.6126719394773
 30
0.0
 40
3.5
  1
4
 50
270.0
  0
LINE
  5
1A4
  8
0
  6
CONTINUOUS
 62
     7
 10
220.0
 20
10.0
 30
0.0
 11
220.0
 21
7.0
 31
0.0
  0
LINE
  5
1A5
  8
0
  6
CONTINUOUS
 62
     7
 10
200.0
 20
10.0
 30
0.0
 11
200.0
 21
7.0
 31
0.0
  0
LINE
  5
1A6
  8
0
  6
CONTINUOUS
 62
     7
 10
230.0
 20
10.0
 30
0.0
 11
230.0
 21
7.0
 31
0.0
  0
LINE
  5
1A7
  8
0
  6
CONTINUOUS
 62
     7
 10
190.0
 20
10.0
 30
0.0
 11
190.0
 21
7.0
 31
0.0
  0
LINE
  5
1A8
  8
0
  6
CONTINUOUS
 62
     7
 10
240.0
 20
10.0
 30
0.0
 11
240.0
 21
7.0
 31
0.0
  0
LINE
  5
1A9
  8
0
  6
CONTINUOUS
 62
     7
 10
180.0
 20
10.0
 30
0.0
 11
180.0
 21
7.0
 31
0.0
  0
LINE
  5
1AA
  8
0
  6
CONTINUOUS
 62
     7
 10
250.0
 20
10.0
 30
0.0
 11
250.0
 21
7.0
 31
0.0
  0
LINE
  5
1AB
  8
0
  6
CONTINUOUS
 62
     7
 10
170.0
 20
10.0
 30
0.0
 11
170.0
 21
7.0
 31
0.0
  0
LINE
  5
1AC
  8
0
  6
CONTINUOUS
 62
     7
 10
260.0
 20
10.0
 30
0.0
 11
260.0
 21
5.0
 31
0.0
  0
LINE
  5
1AD
  8
0
  6
CONTINUOUS
 62
     7
 10
160.0
 20
10.0
 30
0.0
 11
160.0
 21
5.0
 31
0.0
  0
LINE
  5
1AE
  8
0
  6
CONTINUOUS
 62
     7
 10
260.0
 20
10.0
 30
0.0
 11
160.0
 21
10.0
 31
0.0
  0
LINE
  5
1AF
  8
0
  6
CONTINUOUS
 62
     7
 10
260.0
 20
7.0
 30
0.0
 11
160.0
 21
7.0
 31
0.0
  0
INSERT
  5
1B0
  8
0
 62
     7
  2
*U5
 10
0.0
 20
0.0
 30
0.0
  0
INSERT
  5
1B1
  8
0
 62
     7
  2
*U6
 10
0.0
 20
0.0
 30
0.0
  0
INSERT
  5
1B2
  8
0
 62
     7
  2
*U7
 10
0.0
 20
0.0
 30
0.0
  0
INSERT
  5
1B3
  8
0
 62
     7
  2
*U8
 10
0.0
 20
0.0
 30
0.0
  0
INSERT
  5
1B4
  8
0
 62
     7
  2
*U9
 10
0.0
 20
0.0
 30
0.0
  0
INSERT
  5
1B5
  8
0
 62
     7
  2
*U10
 10
0.0
 20
0.0
 30
0.0
  0
INSERT
  5
1B6
  8
0
 62
     7
  2
*U11
 10
0.0
 20
0.0
 30
0.0
  0
INSERT
  5
1B7
  8
0
 62
     7
  2
*U12
 10
0.0
 20
0.0
 30
0.0
  0
INSERT
  5
1B8
  8
0
 62
     7
  2
*U13
 10
0.0
 20
0.0
 30
0.0
  0
INSERT
  5
1B9
  8
0
 62
     7
  2
*U14
 10
0.0
 20
0.0
 30
0.0
  0
INSERT
  5
1BA
  8
0
 62
     7
  2
*U15
 10
0.0
 20
0.0
 30
0.0
  0
INSERT
  5
1BB
  8
0
 62
     7
  2
*U16
 10
0.0
 20
0.0
 30
0.0
  0
INSERT
  5
1BC
  8
0
 62
     7
  2
*U17
 10
0.0
 20
0.0
 30
0.0
  0
INSERT
  5
1BD
  8
0
 62
     7
  2
*U18
 10
0.0
 20
0.0
 30
0.0
  0
INSERT
  5
1BE
  8
0
 62
     7
  2
*U19
 10
0.0
 20
0.0
 30
0.0
  0
INSERT
  5
1BF
  8
0
 62
     7
  2
*U20
 10
0.0
 20
0.0
 30
0.0
  0
LINE
  5
1C0
  8
1
  6
CONTINUOUS
 62
     7
 10
-618.6299742821
 20
1427.3598439817
 30
0.0
 11
-623.6299482821
 21
1508.3587469817
 31
0.0
  0
LINE
  5
1C1
  8
1
  6
CONTINUOUS
 62
     7
 10
-574.6891492821001
 20
1429.8592729817
 30
0.0
 11
-568.7842613101
 21
1429.8592729817
 31
0.0
  0
LINE
  5
1C2
  8
1
  6
CONTINUOUS
 62
     7
 10
-623.6299482821
 20
1508.3587469817
 30
0.0
 11
-624.0706422821
 21
1505.8592729817
 31
0.0
  0
LINE
  5
1C3
  8
1
  6
CONTINUOUS
 62
     7
 10
-625.1299742821001
 20
1427.3598359817
 30
0.0
 11
-624.6891722821001
 21
1429.8592729817
 31
0.0
  0
LINE
  5
1C4
  8
1
  6
CONTINUOUS
 62
     7
 10
-574.0706422821
 20
1505.8592729817
 30
0.0
 11
-579.9756579532001
 21
1505.8592729817
 31
0.0
  0
LINE
  5
1C5
  8
1
  6
CONTINUOUS
 62
     7
 10
-570.1299482821
 20
1508.3587559817
 30
0.0
 11
-565.1299742821
 21
1427.3598359817
 31
0.0
  0
LINE
  5
1C6
  8
1
  6
CONTINUOUS
 62
     7
 10
-570.1299482821
 20
1508.3587559817
 30
0.0
 11
-573.6299482821
 21
1508.3587469817
 31
0.0
  0
LINE
  5
1C7
  8
1
  6
CONTINUOUS
 62
     7
 10
-633.6299482821
 20
1508.3587469817
 30
0.0
 11
-634.0706422821
 21
1505.8592729817
 31
0.0
  0
LINE
  5
1C8
  8
1
  6
CONTINUOUS
 62
     7
 10
-568.6299742821001
 20
1427.3598439817
 30
0.0
 11
-565.1299742821
 21
1427.3598359817
 31
0.0
  0
LINE
  5
1C9
  8
1
  6
CONTINUOUS
 62
     7
 10
-604.9298142821
 20
1470.1026679817
 30
0.0
 11
-604.9298142821
 21
1503.3621509817
 31
0.0
  0
LINE
  5
1CA
  8
1
  6
CONTINUOUS
 62
     7
 10
-583.9298142821
 20
1520.3592729817
 30
0.0
 11
-609.1953402821
 21
1520.3592729817
 31
0.0
  0
ARC
  5
1CB
  8
1
  6
CONTINUOUS
 62
     7
 10
-675.6298142821
 20
1505.8592729817
 30
0.0
 40
0.4999999999999449
 50
180.0
 51
270.0
  0
ARC
  5
1CC
  8
1
  6
CONTINUOUS
 62
     7
 10
-583.7111062821
 20
1503.8145499817
 30
0.0
 40
2.86027600000005
 50
14.990684
 51
94.38534299999999
  0
LINE
  5
1CD
  8
1
  6
CONTINUOUS
 62
     7
 10
-624.6891492821
 20
1429.8592729817
 30
0.0
 11
-618.7842613101
 21
1429.8592729817
 31
0.0
  0
ARC
  5
1CE
  8
1
  6
CONTINUOUS
 62
     7
 10
-675.6298142821
 20
1429.8592729817
 30
0.0
 40
0.4999999999999449
 50
90.0
 51
180.0
  0
LINE
  5
1CF
  8
1
  6
CONTINUOUS
 62
     7
 10
-580.9298142821
 20
1429.8592729817
 30
0.0
 11
-578.7842613101
 21
1429.8592729817
 31
0.0
  0
LINE
  5
1D0
  8
1
  6
CONTINUOUS
 62
     7
 10
-580.9298142821
 20
1418.3592729817
 30
0.0
 11
-580.9298142821
 21
1517.3592729817
 31
0.0
  0
LINE
  5
1D1
  8
1
  6
CONTINUOUS
 62
     7
 10
-676.1298142821
 20
1428.3592729817
 30
0.0
 11
-676.1298142821
 21
1507.3592729817
 31
0.0
  0
LINE
  5
1D2
  8
1
  6
CONTINUOUS
 62
     7
 10
-610.1299482821
 20
1508.3587559817
 30
0.0
 11
-613.6299482821
 21
1508.3587469817
 31
0.0
  0
LINE
  5
1D3
  8
1
  6
CONTINUOUS
 62
     7
 10
-660.1299482821
 20
1508.3587559817
 30
0.0
 11
-663.6299482821
 21
1508.3587469817
 31
0.0
  0
LINE
  5
1D4
  8
1
  6
CONTINUOUS
 62
     7
 10
-568.6768640651
 20
1427.3599939817
 30
0.0
 11
-565.1768640651
 21
1427.3599859817
 31
0.0
  0
LINE
  5
1D5
  8
1
  6
CONTINUOUS
 62
     7
 10
-620.1299482821001
 20
1508.3587559817
 30
0.0
 11
-615.1299742821
 21
1427.3598359817
 31
0.0
  0
ARC
  5
1D6
  8
1
  6
CONTINUOUS
 62
     7
 10
-673.6298142821001
 20
1505.8592729817
 30
0.0
 40
0.4999999999999449
 50
270.0
 51
0.0
  0
LINE
  5
1D7
  8
1
  6
CONTINUOUS
 62
     7
 10
-668.1298142821
 20
1475.9568487208
 30
0.0
 11
-668.1298142821
 21
1508.3592729817
 31
0.0
  0
LINE
  5
1D8
  8
1
  6
CONTINUOUS
 62
     7
 10
-634.0706422821
 20
1505.8592729817
 30
0.0
 11
-639.9756579532
 21
1505.8592729817
 31
0.0
  0
LINE
  5
1D9
  8
1
  6
CONTINUOUS
 62
     7
 10
-578.6299742821
 20
1427.3598439817
 30
0.0
 11
-575.1299742821
 21
1427.3598359817
 31
0.0
  0
LINE
  5
1DA
  8
1
  6
CONTINUOUS
 62
     7
 10
-389.5543202821
 20
1589.836530886
 30
0.0
 11
-386.7053082821
 21
1588.191651886
 31
0.0
  0
LINE
  5
1DB
  8
1
  6
CONTINUOUS
 62
     7
 10
-393.5354792821
 20
1522.5623109817
 30
0.0
 11
-393.6298142821
 21
1521.4840549817
 31
0.0
  0
ARC
  5
1DC
  8
1
  6
CONTINUOUS
 62
     7
 10
-387.7203442821
 20
1522.4751549817
 30
0.0
 40
1.0
 50
5.0
 51
80.9590607153
  0
LINE
  5
1DD
  8
1
  6
CONTINUOUS
 62
     7
 10
-388.6298142821
 20
1516.2340549817
 30
0.0
 11
-388.6298142821
 21
1516.7340549817
 31
0.0
  0
ARC
  5
1DE
  8
1
  6
CONTINUOUS
 62
     7
 10
-392.5392842821
 20
1522.4751549817
 30
0.0
 40
1.0
 50
99.04093928470003
 51
175.0
  0
LINE
  5
1DF
  8
1
  6
CONTINUOUS
 62
     7
 10
-391.6298142821
 20
1516.7340549817
 30
0.0
 11
-391.6298142821
 21
1516.2340549817
 31
0.0
  0
LINE
  5
1E0
  8
1
  6
CONTINUOUS
 62
     7
 10
-391.6298142821
 20
1516.2340549817
 30
0.0
 11
-392.3798142821
 21
1515.4840549817
 31
0.0
  0
LINE
  5
1E1
  8
1
  6
CONTINUOUS
 62
     7
 10
-386.6298142821
 20
1521.4840549817
 30
0.0
 11
-386.7241492821
 21
1522.5623109817
 31
0.0
  0
ARC
  5
1E2
  8
1
  6
CONTINUOUS
 62
     7
 10
-390.1298142821
 20
1585.549989886
 30
0.0
 40
4.325
 50
82.353426
 51
97.646574
  0
LINE
  5
1E3
  8
1
  6
CONTINUOUS
 62
     7
 10
-392.6298142821
 20
1512.9840549817
 30
0.0
 11
-392.6298142821
 21
1512.9592729817
 31
0.0
  0
ARC
  5
1E4
  8
1
  6
CONTINUOUS
 62
     7
 10
-390.1298142821
 20
1507.3323958223
 30
0.0
 40
16.3332547308
 50
80.9590607153
 51
99.04093928470003
  0
LINE
  5
1E5
  8
1
  6
CONTINUOUS
 62
     7
 10
-387.6298142821
 20
1512.9592729817
 30
0.0
 11
-387.6298142821
 21
1512.9840549817
 31
0.0
  0
LINE
  5
1E6
  8
1
  6
CONTINUOUS
 62
     7
 10
-429.1298142821
 20
1551.949989886
 30
0.0
 11
-433.1298142821
 21
1551.949989886
 31
0.0
  0
LINE
  5
1E7
  8
1
  6
CONTINUOUS
 62
     7
 10
-428.5524642821
 20
1587.843381886
 30
0.0
 11
-428.5524642821
 21
1553.494156886
 31
0.0
  0
LINE
  5
1E8
  8
1
  6
CONTINUOUS
 62
     7
 10
-422.8160622821
 20
1552.949989886
 30
0.0
 11
-429.1298142821
 21
1551.949989886
 31
0.0
  0
LINE
  5
1E9
  8
1
  6
CONTINUOUS
 62
     7
 10
-393.5543202821
 20
1588.191651886
 30
0.0
 11
-390.7053082821
 21
1589.836530886
 31
0.0
  0
ARC
  5
1EA
  8
1
  6
CONTINUOUS
 62
     7
 10
-428.0441832821
 20
1587.814678886
 30
0.0
 40
0.509091
 50
101.756037
 51
176.767902
  0
LINE
  5
1EB
  8
1
  6
CONTINUOUS
 62
     7
 10
-386.1298142821
 20
1587.194867886
 30
0.0
 11
-386.1298142821
 21
1583.905111886
 31
0.0
  0
ARC
  5
1EC
  8
1
  6
CONTINUOUS
 62
     7
 10
-390.1298142821
 20
1585.549989886
 30
0.0
 40
4.325
 50
22.353426
 51
37.646574
  0
LINE
  5
1ED
  8
1
  6
CONTINUOUS
 62
     7
 10
-429.4184892821
 20
1588.3980100027
 30
0.0
 11
-429.4184892821
 21
1552.506439886
 31
0.0
  0
LINE
  5
1EE
  8
1
  6
CONTINUOUS
 62
     7
 10
-422.8160622821
 20
1590.186635886
 30
0.0
 11
-429.4184892821
 21
1588.3980100027
 31
0.0
  0
LINE
  5
1EF
  8
1
  6
CONTINUOUS
 62
     7
 10
-429.4184892821
 20
1587.9726397206
 30
0.0
 11
-425.4952262821
 21
1589.023874886
 31
0.0
  0
LINE
  5
1F0
  8
1
  6
CONTINUOUS
 62
     7
 10
-382.0304532821
 20
1509.3551239817
 30
0.0
 11
-382.8494112821
 21
1510.7736009817
 31
0.0
  0
LINE
  5
1F1
  8
1
  6
CENTER
 62
     5
 10
-340.2898168456
 20
1467.8592729817
 30
0.0
 11
-244.7716885292
 21
1467.8592729817
 31
0.0
  0
LINE
  5
1F2
  8
1
  6
CONTINUOUS
 62
     7
 10
-471.1298142821
 20
1510.8592729817
 30
0.0
 11
-471.1298142821
 21
1424.8592729817
 31
0.0
  0
LINE
  5
1F3
  8
1
  6
CONTINUOUS
 62
     7
 10
-411.7453262821
 20
1511.0802309817
 30
0.0
 11
-412.8803332821
 21
1509.4592729817
 31
0.0
  0
ARC
  5
1F4
  8
1
  6
CONTINUOUS
 62
     7
 10
-279.1888623387
 20
1511.9592729817
 30
0.0
 40
1.0
 50
15.0
 51
90.0
  0
LINE
  5
1F5
  8
1
  6
CONTINUOUS
 62
     7
 10
-385.8971412821
 20
1512.9592729817
 30
0.0
 11
-394.3624872821
 21
1512.9592729817
 31
0.0
  0
ARC
  5
1F6
  8
1
  6
CONTINUOUS
 62
     7
 10
-395.8630172821
 20
1512.0777589817
 30
0.0
 40
0.5
 50
268.567904
 51
313.288687
  0
LINE
  5
1F7
  8
1
  6
CONTINUOUS
 62
     7
 10
-429.4184892821
 20
1474.011252865
 30
0.0
 11
-429.4184892821
 21
1509.9028229817
 31
0.0
  0
LINE
  5
1F8
  8
1
  6
CONTINUOUS
 62
     7
 10
-543.1298142821
 20
1424.8592729817
 30
0.0
 11
-543.1298142821
 21
1510.8592729817
 31
0.0
  0
LINE
  5
1F9
  8
1
  6
CONTINUOUS
 62
     7
 10
-422.8160622821
 20
1426.2592729817
 30
0.0
 11
-412.8803332821
 21
1426.2592729817
 31
0.0
  0
ARC
  5
1FA
  8
1
  6
CONTINUOUS
 62
     7
 10
-380.7314152821
 20
1425.6134209817
 30
0.0
 40
1.5
 50
95.0
 51
150.0
  0
ARC
  5
1FB
  8
1
  6
CONTINUOUS
 62
     7
 10
-383.7154372821
 20
1510.2736009817
 30
0.0
 40
1.0
 50
30.0
 51
88.56790400000001
  0
LINE
  5
1FC
  8
1
  6
CONTINUOUS
 62
     7
 10
-422.8160622821
 20
1463.4959189817
 30
0.0
 11
-422.8160622821
 21
1472.2226269817
 31
0.0
  0
ARC
  5
1FD
  8
1
  6
CONTINUOUS
 62
     7
 10
-292.4215353387
 20
1467.8592729817
 30
0.0
 40
44.073181
 50
109.867373
 51
70.132627
  0
ARC
  5
1FE
  8
1
  6
CONTINUOUS
 62
     7
 10
-297.8758913387
 20
1502.9592729817
 30
0.0
 40
10.0
 50
79.524686
 51
90.0
  0
ARC
  5
1FF
  8
1
  6
CONTINUOUS
 62
     7
 10
-292.4215353387
 20
1467.8592729817
 30
0.0
 40
44.073805
 50
109.866807
 51
70.133193
  0
LINE
  5
200
  8
1
  6
CONTINUOUS
 62
     7
 10
-412.8803332821
 20
1426.2592729817
 30
0.0
 11
-411.7453262821
 21
1424.6383149817
 31
0.0
  0
ARC
  5
201
  8
1
  6
CONTINUOUS
 62
     7
 10
-380.7314152821
 20
1510.1051239817
 30
0.0
 40
1.5
 50
210.0
 51
265.0
  0
LINE
  5
202
  8
1
  6
CONTINUOUS
 62
     7
 10
-412.8803332821
 20
1509.4592729817
 30
0.0
 11
-422.8160622821
 21
1509.4592729817
 31
0.0
  0
ARC
  5
203
  8
1
  6
CONTINUOUS
 62
     7
 10
-384.2985082821
 20
1511.7886459817
 30
0.0
 40
0.5
 50
195.0
 51
268.567904
  0
LINE
  5
204
  8
1
  6
CONTINUOUS
 62
     7
 10
-433.1298142821
 20
1424.8592729817
 30
0.0
 11
-543.1298142821
 21
1424.8592729817
 31
0.0
  0
ARC
  5
205
  8
1
  6
CONTINUOUS
 62
     7
 10
-286.3764673387
 20
1448.1815049817
 30
0.0
 40
64.323731
 50
103.526559
 51
109.025421
  0
CIRCLE
  5
206
  8
1
  6
CONTINUOUS
 62
     7
 10
-292.4215353387
 20
1467.8592729817
 30
0.0
 40
38.094152
  0
LINE
  5
207
  8
1
  6
CONTINUOUS
 62
     7
 10
-545.1299742821
 20
1427.3598359817
 30
0.0
 11
-544.6891722821
 21
1429.8592729817
 31
0.0
  0
LINE
  5
208
  8
1
  6
CONTINUOUS
 62
     7
 10
-383.6904442821
 20
1511.2732889817
 30
0.0
 11
-384.3088062821
 21
1511.2887479817
 31
0.0
  0
ARC
  5
209
  8
1
  6
CONTINUOUS
 62
     7
 10
-410.1070222821
 20
1425.7854669817
 30
0.0
 40
2.0
 50
215.0
 51
271.432096
  0
LINE
  5
20A
  8
1
  6
CONTINUOUS
 62
     7
 10
-555.1299742821
 20
1427.3598359817
 30
0.0
 11
-554.6891722821
 21
1429.8592729817
 31
0.0
  0
LINE
  5
20B
  8
1
  6
CONTINUOUS
 62
     7
 10
-560.1299482821
 20
1635.049472886
 30
0.0
 11
-555.1299742821
 21
1554.050552886
 31
0.0
  0
LINE
  5
20C
  8
1
  6
CONTINUOUS
 62
     7
 10
-558.6299742821001
 20
1554.050560886
 30
0.0
 11
-563.6299482821
 21
1635.049463886
 31
0.0
  0
LINE
  5
20D
  8
1
  6
CONTINUOUS
 62
     7
 10
-395.721093543
 20
1510.7525903181
 30
0.0
 11
-395.3284132821
 21
1512.2180919817
 31
0.0
  0
ARC
  5
20E
  8
1
  6
CONTINUOUS
 62
     7
 10
-286.9671793387
 20
1502.9592729817
 30
0.0
 40
10.0
 50
90.0
 51
100.475314
  0
LINE
  5
20F
  8
1
  6
CONTINUOUS
 62
     7
 10
-471.1298142821
 20
1485.6704561637
 30
0.0
 11
-433.1298142821
 21
1485.6704561637
 31
0.0
  0
ARC
  5
210
  8
1
  6
CONTINUOUS
 62
     7
 10
-300.5820833387
 20
1440.4607289817
 30
0.0
 40
72.325582
 50
71.290847
 51
76.274647
  0
ARC
  5
211
  8
1
  6
CONTINUOUS
 62
     7
 10
-410.1070222821
 20
1509.9330779817
 30
0.0
 40
2.0
 50
88.56790400000001
 51
145.0
  0
LINE
  5
212
  8
1
  6
CONTINUOUS
 62
     7
 10
-563.6299482821
 20
1508.3587469817
 30
0.0
 11
-564.0706422821
 21
1505.8592729817
 31
0.0
  0
LINE
  5
213
  8
1
  6
CONTINUOUS
 62
     7
 10
-560.1299482821
 20
1635.049472886
 30
0.0
 11
-563.6299482821
 21
1635.049463886
 31
0.0
  0
LINE
  5
214
  8
1
  6
CONTINUOUS
 62
     7
 10
-553.6299482821
 20
1508.3587469817
 30
0.0
 11
-554.0706422821
 21
1505.8592729817
 31
0.0
  0
LINE
  5
215
  8
1
  6
CONTINUOUS
 62
     7
 10
-429.4184892821
 20
1474.4366231471
 30
0.0
 11
-425.4952262821
 21
1473.3853879817
 31
0.0
  0
LINE
  5
216
  8
1
  6
CONTINUOUS
 62
     7
 10
-554.0706422821
 20
1505.8592729817
 30
0.0
 11
-559.9756579532
 21
1505.8592729817
 31
0.0
  0
LINE
  5
217
  8
1
  6
CONTINUOUS
 62
     7
 10
-560.1299482821
 20
1508.3587559817
 30
0.0
 11
-563.6299482821
 21
1508.3587469817
 31
0.0
  0
ARC
  5
218
  8
1
  6
CONTINUOUS
 62
     7
 10
-292.4215353387
 20
1468.0244869817
 30
0.0
 40
43.63475
 50
78.096873
 51
101.903127
  0
LINE
  5
219
  8
1
  6
CONTINUOUS
 62
     7
 10
-560.1299482821
 20
1508.3587559817
 30
0.0
 11
-555.1299742821
 21
1427.3598359817
 31
0.0
  0
ARC
  5
21A
  8
1
  6
CONTINUOUS
 62
     7
 10
-428.0441832821
 20
1474.5945839817
 30
0.0
 40
0.509091
 50
183.232098
 51
258.243963
  0
LINE
  5
21B
  8
1
  6
CONTINUOUS
 62
     7
 10
-558.6768640651
 20
1427.3599939817
 30
0.0
 11
-555.1768640651
 21
1427.3599859817
 31
0.0
  0
LINE
  5
21C
  8
1
  6
CONTINUOUS
 62
     7
 10
-306.6201343387
 20
1512.2180919817
 30
0.0
 11
-307.4902663387
 21
1508.9707119817
 31
0.0
  0
ARC
  5
21D
  8
1
  6
CONTINUOUS
 62
     7
 10
-394.3624872821
 20
1511.9592729817
 30
0.0
 40
1.0
 50
90.0
 51
165.0
  0
LINE
  5
21E
  8
1
  6
CONTINUOUS
 62
     7
 10
-543.1298142821
 20
1510.8592729817
 30
0.0
 11
-433.1298142821
 21
1510.8592729817
 31
0.0
  0
LINE
  5
21F
  8
1
  6
CONTINUOUS
 62
     7
 10
-297.8758913387
 20
1512.9592729817
 30
0.0
 11
-305.6542083387
 21
1512.9592729817
 31
0.0
  0
LINE
  5
220
  8
1
  6
CONTINUOUS
 62
     7
 10
-550.1299482821
 20
1508.3587559817
 30
0.0
 11
-553.6299482821
 21
1508.3587469817
 31
0.0
  0
LINE
  5
221
  8
1
  6
CONTINUOUS
 62
     7
 10
-433.1298142821
 20
1510.8592729817
 30
0.0
 11
-433.1298142821
 21
1424.8592729817
 31
0.0
  0
LINE
  5
222
  8
1
  6
CONTINUOUS
 62
     7
 10
-558.6299742821001
 20
1427.3598439817
 30
0.0
 11
-563.6299482821
 21
1508.3587469817
 31
0.0
  0
LINE
  5
223
  8
1
  6
CONTINUOUS
 62
     7
 10
-382.8494112821
 20
1424.9449449817
 30
0.0
 11
-382.0304532821
 21
1426.3634209817
 31
0.0
  0
LINE
  5
224
  8
1
  6
CENTER
 62
     5
 10
-292.4215353387
 20
1517.4169117616
 30
0.0
 11
-292.4215353387
 21
1418.8664619113
 31
0.0
  0
LINE
  5
225
  8
1
  6
CONTINUOUS
 62
     7
 10
-471.1298142821
 20
1450.0480897997
 30
0.0
 11
-433.1298142821
 21
1450.0480897997
 31
0.0
  0
LINE
  5
226
  8
1
  6
CONTINUOUS
 62
     7
 10
-384.5300702821
 20
1510.7209979817
 30
0.0
 11
-384.9312152821
 21
1512.2180919817
 31
0.0
  0
LINE
  5
227
  8
1
  6
CONTINUOUS
 62
     7
 10
-550.1299482821
 20
1508.3587559817
 30
0.0
 11
-545.1299742821
 21
1427.3598359817
 31
0.0
  0
LINE
  5
228
  8
1
  6
CONTINUOUS
 62
     7
 10
-554.6891492821
 20
1429.8592729817
 30
0.0
 11
-548.7842613101
 21
1429.8592729817
 31
0.0
  0
ARC
  5
229
  8
1
  6
CONTINUOUS
 62
     7
 10
-389.8182992821
 20
1519.2003959817
 30
0.0
 40
10.305746
 50
235.0565760191
 51
299.5627720000001
  0
LINE
  5
22A
  8
1
  6
CONTINUOUS
 62
     7
 10
-563.6299482821
 20
1635.049463886
 30
0.0
 11
-564.0706422821
 21
1632.549989886
 31
0.0
  0
LINE
  5
22B
  8
1
  6
CONTINUOUS
 62
     7
 10
-379.1298142821
 20
1427.2592729817
 30
0.0
 11
-379.1298142821
 21
1508.4592729817
 31
0.0
  0
LINE
  5
22C
  8
1
  6
CONTINUOUS
 62
     7
 10
-564.6891492821
 20
1429.8592729817
 30
0.0
 11
-558.7842613101
 21
1429.8592729817
 31
0.0
  0
LINE
  5
22D
  8
1
  6
CONTINUOUS
 62
     7
 10
-548.6768640651
 20
1554.050710886
 30
0.0
 11
-545.1768640651
 21
1554.050702886
 31
0.0
  0
LINE
  5
22E
  8
1
  6
CONTINUOUS
 62
     7
 10
-410.0570372821
 20
1423.7860919817
 30
0.0
 11
-383.6904442821
 21
1424.4452569817
 31
0.0
  0
LINE
  5
22F
  8
1
  6
CONTINUOUS
 62
     7
 10
-548.6768640651
 20
1427.3599939817
 30
0.0
 11
-545.1768640651
 21
1427.3599859817
 31
0.0
  0
LINE
  5
230
  8
1
  6
CONTINUOUS
 62
     7
 10
-379.1298142821
 20
1508.4592729817
 30
0.0
 11
-380.8621492821
 21
1508.6108319817
 31
0.0
  0
ARC
  5
231
  8
1
  6
CONTINUOUS
 62
     7
 10
-385.8971412821
 20
1511.9592729817
 30
0.0
 40
1.0
 50
15.0
 51
90.0
  0
LINE
  5
232
  8
1
  6
CONTINUOUS
 62
     7
 10
-564.0706422821
 20
1632.549989886
 30
0.0
 11
-569.9756579532001
 21
1632.549989886
 31
0.0
  0
LINE
  5
233
  8
1
  6
CONTINUOUS
 62
     7
 10
-548.6299742821
 20
1427.3598439817
 30
0.0
 11
-553.6299482821
 21
1508.3587469817
 31
0.0
  0
CIRCLE
  5
234
  8
1
  6
CONTINUOUS
 62
     7
 10
-292.4215353387
 20
1467.8592729817
 30
0.0
 40
40.6
  0
LINE
  5
235
  8
1
  6
CONTINUOUS
 62
     7
 10
-412.8803332821
 20
1426.2592729817
 30
0.0
 11
-412.8803332821
 21
1509.4592729817
 31
0.0
  0
LINE
  5
236
  8
1
  6
CONTINUOUS
 62
     7
 10
-564.0706422821
 20
1505.8592729817
 30
0.0
 11
-569.9756579532001
 21
1505.8592729817
 31
0.0
  0
ARC
  5
237
  8
1
  6
CONTINUOUS
 62
     7
 10
-385.0252822821
 20
1510.6439089817
 30
0.0
 40
0.501176
 50
305.579322
 51
8.848209999999996
  0
LINE
  5
238
  8
1
  6
CONTINUOUS
 62
     7
 10
-277.3528083387
 20
1508.9707279817
 30
0.0
 11
-278.2229363387
 21
1512.2180919817
 31
0.0
  0
LINE
  5
239
  8
1
  6
CONTINUOUS
 62
     7
 10
-286.9671793387
 20
1512.9592729817
 30
0.0
 11
-279.1888623387
 21
1512.9592729817
 31
0.0
  0
LINE
  5
23A
  8
1
  6
CONTINUOUS
 62
     7
 10
-380.8621492821
 20
1427.1077129817
 30
0.0
 11
-379.1298142821
 21
1427.2592729817
 31
0.0
  0
ARC
  5
23B
  8
1
  6
CONTINUOUS
 62
     7
 10
-292.4215353387
 20
1532.4592729817
 30
0.0
 40
20.0
 50
259.524686
 51
280.475314
  0
CIRCLE
  5
23C
  8
1
  6
CONTINUOUS
 62
     7
 10
-292.4215353387
 20
1467.8592729817
 30
0.0
 40
32.5
  0
ARC
  5
23D
  8
1
  6
CONTINUOUS
 62
     7
 10
-383.7154372821
 20
1425.4449449817
 30
0.0
 40
1.0
 50
271.432096
 51
330.0
  0
LINE
  5
23E
  8
1
  6
CONTINUOUS
 62
     7
 10
-395.8795772821
 20
1511.5780169817
 30
0.0
 11
-410.0570372821
 21
1511.9324529817
 31
0.0
  0
LINE
  5
23F
  8
1
  6
CONTINUOUS
 62
     7
 10
-395.4351652821
 20
1511.8191099817
 30
0.0
 11
-395.5201802821
 21
1511.7138049817
 31
0.0
  0
ARC
  5
240
  8
1
  6
CONTINUOUS
 62
     7
 10
-305.6542083387
 20
1511.9592729817
 30
0.0
 40
1.0
 50
90.0
 51
165.0
  0
LINE
  5
241
  8
1
  6
CONTINUOUS
 62
     7
 10
-422.8160622821
 20
1472.2226269817
 30
0.0
 11
-429.4184892821
 21
1474.011252865
 31
0.0
  0
LINE
  5
242
  8
1
  6
CONTINUOUS
 62
     7
 10
-564.6891492821
 20
1556.549989886
 30
0.0
 11
-558.7842613101
 21
1556.549989886
 31
0.0
  0
LINE
  5
243
  8
1
  6
CONTINUOUS
 62
     7
 10
-422.8160622821
 20
1590.186635886
 30
0.0
 11
-422.8160622821
 21
1598.913343886
 31
0.0
  0
ARC
  5
244
  8
1
  6
CONTINUOUS
 62
     7
 10
-428.0441832821
 20
1601.285300886
 30
0.0
 40
0.509091
 50
183.232098
 51
258.243963
  0
LINE
  5
245
  8
1
  6
CONTINUOUS
 62
     7
 10
-412.8803332821
 20
1552.949989886
 30
0.0
 11
-412.8803332821
 21
1636.149989886
 31
0.0
  0
LINE
  5
246
  8
1
  6
CONTINUOUS
 62
     7
 10
-395.4203342821
 20
1597.112627886
 30
0.0
 11
-395.4203342821
 21
1591.987351886
 31
0.0
  0
LINE
  5
247
  8
1
  6
CONTINUOUS
 62
     7
 10
-428.5524642821
 20
1601.256597886
 30
0.0
 11
-428.5524642821
 21
1635.605822886
 31
0.0
  0
LINE
  5
248
  8
1
  6
CONTINUOUS
 62
     7
 10
-379.1298142821
 20
1553.949989886
 30
0.0
 11
-379.1298142821
 21
1635.149989886
 31
0.0
  0
LINE
  5
249
  8
1
  6
CONTINUOUS
 62
     7
 10
-433.1298142821
 20
1637.549989886
 30
0.0
 11
-433.1298142821
 21
1551.549989886
 31
0.0
  0
ARC
  5
24A
  8
1
  6
CONTINUOUS
 62
     7
 10
-270.5883312821
 20
1597.601064886
 30
0.0
 40
114.122097
 50
177.011287
 51
177.332277
  0
LINE
  5
24B
  8
1
  6
CONTINUOUS
 62
     7
 10
-389.5298142821
 20
1588.902384886
 30
0.0
 11
-389.5298142821
 21
1586.462691886
 31
0.0
  0
LINE
  5
24C
  8
1
  6
CONTINUOUS
 62
     7
 10
-548.6299742821
 20
1554.050560886
 30
0.0
 11
-553.6299482821
 21
1635.049463886
 31
0.0
  0
LINE
  5
24D
  8
1
  6
CONTINUOUS
 62
     7
 10
-383.6904442821
 20
1637.964005886
 30
0.0
 11
-410.0570372821
 21
1638.623170886
 31
0.0
  0
LINE
  5
24E
  8
1
  6
CONTINUOUS
 62
     7
 10
-553.6299482821
 20
1635.049463886
 30
0.0
 11
-554.0706422821
 21
1632.549989886
 31
0.0
  0
ARC
  5
24F
  8
1
  6
CONTINUOUS
 62
     7
 10
-390.0884732821
 20
1604.039233886
 30
0.0
 40
5.579893
 50
354.969853
 51
185.0301469999999
  0
LINE
  5
250
  8
1
  6
CONTINUOUS
 62
     7
 10
-429.4184892821
 20
1601.1273400514
 30
0.0
 11
-425.4952262821
 21
1600.076104886
 31
0.0
  0
ARC
  5
251
  8
1
  6
CONTINUOUS
 62
     7
 10
-388.8298142821
 20
1586.849989886
 30
0.0
 40
0.8
 50
180.0
 51
208.955024
  0
ARC
  5
252
  8
1
  6
CONTINUOUS
 62
     7
 10
-511.8969352821
 20
1597.662603886
 30
0.0
 40
116.423906
 50
2.667723
 51
2.899218999999999
  0
LINE
  5
253
  8
1
  6
CONTINUOUS
 62
     7
 10
-410.0570372821
 20
1550.476808886
 30
0.0
 11
-383.6904442821
 21
1551.135973886
 31
0.0
  0
LINE
  5
254
  8
1
  6
CONTINUOUS
 62
     7
 10
-550.1299482821
 20
1635.049472886
 30
0.0
 11
-545.1299742821
 21
1554.050552886
 31
0.0
  0
LINE
  5
255
  8
1
  6
CONTINUOUS
 62
     7
 10
-555.1299742821
 20
1554.050552886
 30
0.0
 11
-554.6891722821
 21
1556.549989886
 31
0.0
  0
LINE
  5
256
  8
1
  6
CONTINUOUS
 62
     7
 10
-471.1298142821
 20
1612.361173068
 30
0.0
 11
-433.1298142821
 21
1612.361173068
 31
0.0
  0
LINE
  5
257
  8
1
  6
CONTINUOUS
 62
     7
 10
-554.6891492821
 20
1556.549989886
 30
0.0
 11
-548.7842613101
 21
1556.549989886
 31
0.0
  0
LINE
  5
258
  8
1
  6
CONTINUOUS
 62
     7
 10
-471.1298142821
 20
1637.549989886
 30
0.0
 11
-471.1298142821
 21
1551.549989886
 31
0.0
  0
LINE
  5
259
  8
1
  6
CONTINUOUS
 62
     7
 10
-554.0706422821
 20
1632.549989886
 30
0.0
 11
-559.9756579532
 21
1632.549989886
 31
0.0
  0
ARC
  5
25A
  8
1
  6
CONTINUOUS
 62
     7
 10
-205.1065242821
 20
1594.549989886
 30
0.0
 40
179.674947
 50
177.332277
 51
182.667723
  0
LINE
  5
25B
  8
1
  6
CONTINUOUS
 62
     7
 10
-471.1298142821
 20
1576.738806704
 30
0.0
 11
-433.1298142821
 21
1576.738806704
 31
0.0
  0
LINE
  5
25C
  8
1
  6
CONTINUOUS
 62
     7
 10
-543.1298142821
 20
1637.549989886
 30
0.0
 11
-433.1298142821
 21
1637.549989886
 31
0.0
  0
LINE
  5
25D
  8
1
  6
CONTINUOUS
 62
     7
 10
-550.1299482821
 20
1635.049472886
 30
0.0
 11
-553.6299482821
 21
1635.049463886
 31
0.0
  0
LINE
  5
25E
  8
1
  6
CONTINUOUS
 62
     7
 10
-558.6768640651
 20
1554.050710886
 30
0.0
 11
-555.1768640651
 21
1554.050702886
 31
0.0
  0
LINE
  5
25F
  8
1
  6
CONTINUOUS
 62
     7
 10
-429.4184892821
 20
1600.7019697693
 30
0.0
 11
-429.4184892821
 21
1636.593539886
 31
0.0
  0
LINE
  5
260
  8
1
  6
CONTINUOUS
 62
     7
 10
-545.1299742821
 20
1554.050552886
 30
0.0
 11
-544.6891722821
 21
1556.549989886
 31
0.0
  0
ARC
  5
261
  8
1
  6
CONTINUOUS
 62
     7
 10
-578.6994912821
 20
1594.549989886
 30
0.0
 40
183.298938
 50
0.8010669999999999
 51
2.667723
  0
LINE
  5
262
  8
1
  6
CONTINUOUS
 62
     7
 10
-433.1298142821
 20
1551.549989886
 30
0.0
 11
-543.1298142821
 21
1551.549989886
 31
0.0
  0
LINE
  5
263
  8
1
  6
CONTINUOUS
 62
     7
 10
-422.8160622821
 20
1598.913343886
 30
0.0
 11
-429.4184892821
 21
1600.7019697693
 31
0.0
  0
LINE
  5
264
  8
1
  6
CONTINUOUS
 62
     7
 10
-543.1298142821
 20
1551.549989886
 30
0.0
 11
-543.1298142821
 21
1637.549989886
 31
0.0
  0
ARC
  5
265
  8
1
  6
CONTINUOUS
 62
     7
 10
-297.9215353387
 20
1519.3090549817
 30
0.0
 40
0.825
 50
270.0
 51
307.305183
  0
LINE
  5
266
  8
1
  6
CONTINUOUS
 62
     7
 10
-284.9215353387
 20
1516.7340549817
 30
0.0
 11
-284.9215353387
 21
1516.2340549817
 31
0.0
  0
LINE
  5
267
  8
1
  6
CONTINUOUS
 62
     7
 10
-297.9215353387
 20
1521.4840549817
 30
0.0
 11
-298.0158703387
 21
1522.5623109817
 31
0.0
  0
LINE
  5
268
  8
1
  6
CONTINUOUS
 62
     7
 10
-387.8798142821
 20
1515.4840549817
 30
0.0
 11
-387.4187422821
 21
1514.9840549817
 31
0.0
  0
LINE
  5
269
  8
1
  6
CONTINUOUS
 62
     7
 10
-393.6298142821
 20
1521.4840549817
 30
0.0
 11
-386.6298142821
 21
1521.4840549817
 31
0.0
  0
ARC
  5
26A
  8
1
  6
CONTINUOUS
 62
     7
 10
-281.0120653387
 20
1522.4751549817
 30
0.0
 40
1.0
 50
5.0
 51
80.9590607153
  0
LINE
  5
26B
  8
1
  6
CONTINUOUS
 62
     7
 10
-387.4187422821
 20
1514.9840549817
 30
0.0
 11
-387.4187422821
 21
1513.4840549817
 31
0.0
  0
LINE
  5
26C
  8
1
  6
CONTINUOUS
 62
     7
 10
-298.6715353387
 20
1517.9840549817
 30
0.0
 11
-298.6715353387
 21
1518.4840549817
 31
0.0
  0
ARC
  5
26D
  8
1
  6
CONTINUOUS
 62
     7
 10
-393.6298142821
 20
1519.3090549817
 30
0.0
 40
0.825
 50
232.694817
 51
270.0
  0
LINE
  5
26E
  8
1
  6
CONTINUOUS
 62
     7
 10
-304.9215353387
 20
1518.4840549817
 30
0.0
 11
-297.9215353387
 21
1518.4840549817
 31
0.0
  0
ARC
  5
26F
  8
1
  6
CONTINUOUS
 62
     7
 10
-386.6298142821
 20
1519.3090549817
 30
0.0
 40
0.825
 50
270.0
 51
307.305183
  0
ARC
  5
270
  8
1
  6
CONTINUOUS
 62
     7
 10
-283.4215353387
 20
1507.3323958223
 30
0.0
 40
16.3332547308
 50
80.9590607153
 51
99.04093928470003
  0
LINE
  5
271
  8
1
  6
CONTINUOUS
 62
     7
 10
-299.1715353387
 20
1515.4840549817
 30
0.0
 11
-298.7104633387
 21
1514.9840549817
 31
0.0
  0
LINE
  5
272
  8
1
  6
CONTINUOUS
 62
     7
 10
-298.9215353387
 20
1512.9840549817
 30
0.0
 11
-303.9215353387
 21
1512.9840549817
 31
0.0
  0
ARC
  5
273
  8
1
  6
CONTINUOUS
 62
     7
 10
-393.6298142821
 20
1520.6590549817
 30
0.0
 40
0.825
 50
90.0
 51
127.305183
  0
LINE
  5
274
  8
1
  6
CONTINUOUS
 62
     7
 10
-280.6715353387
 20
1517.9840549817
 30
0.0
 11
-280.6715353387
 21
1518.4840549817
 31
0.0
  0
LINE
  5
275
  8
1
  6
CONTINUOUS
 62
     7
 10
-299.9215353387
 20
1516.7340549817
 30
0.0
 11
-302.9215353387
 21
1516.7340549817
 31
0.0
  0
LINE
  5
276
  8
1
  6
CONTINUOUS
 62
     7
 10
-387.6298142821
 20
1512.9840549817
 30
0.0
 11
-392.6298142821
 21
1512.9840549817
 31
0.0
  0
LINE
  5
277
  8
1
  6
CONTINUOUS
 62
     7
 10
-279.9215353387
 20
1521.4840549817
 30
0.0
 11
-280.0158703387
 21
1522.5623109817
 31
0.0
  0
ARC
  5
278
  8
1
  6
CONTINUOUS
 62
     7
 10
-297.9215353387
 20
1520.6590549817
 30
0.0
 40
0.825
 50
52.694817
 51
90.0
  0
LINE
  5
279
  8
1
  6
CONTINUOUS
 62
     7
 10
-286.1326073387
 20
1513.4840549817
 30
0.0
 11
-286.1326073387
 21
1514.9840549817
 31
0.0
  0
LINE
  5
27A
  8
1
  6
CONTINUOUS
 62
     7
 10
-304.8272003387
 20
1522.5623109817
 30
0.0
 11
-304.9215353387
 21
1521.4840549817
 31
0.0
  0
LINE
  5
27B
  8
1
  6
CONTINUOUS
 62
     7
 10
-286.8272003387
 20
1522.5623109817
 30
0.0
 11
-286.9215353387
 21
1521.4840549817
 31
0.0
  0
ARC
  5
27C
  8
1
  6
CONTINUOUS
 62
     7
 10
-304.9215353387
 20
1519.3090549817
 30
0.0
 40
0.825
 50
232.694817
 51
270.0
  0
LINE
  5
27D
  8
1
  6
CONTINUOUS
 62
     7
 10
-286.1715353387
 20
1518.4840549817
 30
0.0
 11
-286.1715353387
 21
1517.9840549817
 31
0.0
  0
LINE
  5
27E
  8
1
  6
CONTINUOUS
 62
     7
 10
-387.6412252821
 20
1512.9840549817
 30
0.0
 11
-387.4187422821
 21
1513.4840549817
 31
0.0
  0
LINE
  5
27F
  8
1
  6
CONTINUOUS
 62
     7
 10
-393.6298142821
 20
1518.4840549817
 30
0.0
 11
-386.6298142821
 21
1518.4840549817
 31
0.0
  0
LINE
  5
280
  8
1
  6
CONTINUOUS
 62
     7
 10
-303.9215353387
 20
1512.9840549817
 30
0.0
 11
-303.9215353387
 21
1512.9592729817
 31
0.0
  0
LINE
  5
281
  8
1
  6
CONTINUOUS
 62
     7
 10
-286.1326073387
 20
1513.4840549817
 30
0.0
 11
-285.9101243387
 21
1512.9840549817
 31
0.0
  0
LINE
  5
282
  8
1
  6
CONTINUOUS
 62
     7
 10
-425.4952262821
 20
1473.3853879817
 30
0.0
 11
-422.8160622821
 21
1472.2226269817
 31
0.0
  0
LINE
  5
283
  8
1
  6
CONTINUOUS
 62
     7
 10
-429.4184892821
 20
1461.7072930984
 30
0.0
 11
-429.4184892821
 21
1425.8157229817
 31
0.0
  0
LINE
  5
284
  8
1
  6
CONTINUOUS
 62
     7
 10
-286.1715353387
 20
1517.9840549817
 30
0.0
 11
-284.9215353387
 21
1516.7340549817
 31
0.0
  0
LINE
  5
285
  8
1
  6
CONTINUOUS
 62
     7
 10
-298.6715353387
 20
1517.9840549817
 30
0.0
 11
-304.1715353387
 21
1517.9840549817
 31
0.0
  0
LINE
  5
286
  8
1
  6
CONTINUOUS
 62
     7
 10
-281.9215353387
 20
1516.7340549817
 30
0.0
 11
-280.6715353387
 21
1517.9840549817
 31
0.0
  0
LINE
  5
287
  8
1
  6
CONTINUOUS
 62
     7
 10
-281.1715353387
 20
1515.4840549817
 30
0.0
 11
-280.7104633387
 21
1514.9840549817
 31
0.0
  0
LINE
  5
288
  8
1
  6
CONTINUOUS
 62
     7
 10
-392.8798142821
 20
1517.9840549817
 30
0.0
 11
-391.6298142821
 21
1516.7340549817
 31
0.0
  0
ARC
  5
289
  8
1
  6
CONTINUOUS
 62
     7
 10
-286.9215353387
 20
1519.3090549817
 30
0.0
 40
0.825
 50
232.694817
 51
270.0
  0
LINE
  5
28A
  8
1
  6
CONTINUOUS
 62
     7
 10
-304.9215353387
 20
1521.4840549817
 30
0.0
 11
-297.9215353387
 21
1521.4840549817
 31
0.0
  0
LINE
  5
28B
  8
1
  6
CONTINUOUS
 62
     7
 10
-428.5524642821
 20
1461.1526649817
 30
0.0
 11
-428.5524642821
 21
1426.8034399817
 31
0.0
  0
LINE
  5
28C
  8
1
  6
CONTINUOUS
 62
     7
 10
-287.4215353387
 20
1518.6528339817
 30
0.0
 11
-287.4215353387
 21
1521.3152749817
 31
0.0
  0
ARC
  5
28D
  8
1
  6
CONTINUOUS
 62
     7
 10
-301.4215353387
 20
1507.3323958223
 30
0.0
 40
16.3332547308
 50
80.9590607153
 51
99.04093928470003
  0
ARC
  5
28E
  8
1
  6
CONTINUOUS
 62
     7
 10
-279.9215353387
 20
1520.6590549817
 30
0.0
 40
0.825
 50
52.694817
 51
90.0
  0
ARC
  5
28F
  8
1
  6
CONTINUOUS
 62
     7
 10
-428.0441832821
 20
1461.1239619817
 30
0.0
 40
0.509091
 50
101.756037
 51
176.767902
  0
LINE
  5
290
  8
1
  6
CONTINUOUS
 62
     7
 10
-281.1715353387
 20
1515.4840549817
 30
0.0
 11
-281.9215353387
 21
1516.2340549817
 31
0.0
  0
ARC
  5
291
  8
1
  6
CONTINUOUS
 62
     7
 10
-286.9215353387
 20
1520.6590549817
 30
0.0
 40
0.825
 50
90.0
 51
127.305183
  0
LINE
  5
292
  8
1
  6
CONTINUOUS
 62
     7
 10
-392.8408862821
 20
1514.9840549817
 30
0.0
 11
-392.3798142821
 21
1515.4840549817
 31
0.0
  0
LINE
  5
293
  8
1
  6
CONTINUOUS
 62
     7
 10
-392.8798142821
 20
1518.4840549817
 30
0.0
 11
-392.8798142821
 21
1517.9840549817
 31
0.0
  0
LINE
  5
294
  8
1
  6
CONTINUOUS
 62
     7
 10
-281.9215353387
 20
1516.2340549817
 30
0.0
 11
-281.9215353387
 21
1516.7340549817
 31
0.0
  0
LINE
  5
295
  8
1
  6
CONTINUOUS
 62
     7
 10
-299.1715353387
 20
1515.4840549817
 30
0.0
 11
-299.9215353387
 21
1516.2340549817
 31
0.0
  0
ARC
  5
296
  8
1
  6
CONTINUOUS
 62
     7
 10
-299.0120653387
 20
1522.4751549817
 30
0.0
 40
1.0
 50
5.0
 51
80.9590607153
  0
LINE
  5
297
  8
1
  6
CONTINUOUS
 62
     7
 10
-388.6298142821
 20
1516.7340549817
 30
0.0
 11
-387.3798142821
 21
1517.9840549817
 31
0.0
  0
LINE
  5
298
  8
1
  6
CONTINUOUS
 62
     7
 10
-386.1298142821
 20
1521.3152749817
 30
0.0
 11
-386.1298142821
 21
1518.6528339817
 31
0.0
  0
ARC
  5
299
  8
1
  6
CONTINUOUS
 62
     7
 10
-386.6298142821
 20
1520.6590549817
 30
0.0
 40
0.825
 50
52.694817
 51
90.0
  0
ARC
  5
29A
  8
1
  6
CONTINUOUS
 62
     7
 10
-303.8310053387
 20
1522.4751549817
 30
0.0
 40
1.0
 50
99.04093928470003
 51
175.0
  0
LINE
  5
29B
  8
1
  6
CONTINUOUS
 62
     7
 10
-299.9215353387
 20
1516.2340549817
 30
0.0
 11
-302.9215353387
 21
1516.2340549817
 31
0.0
  0
LINE
  5
29C
  8
1
  6
CONTINUOUS
 62
     7
 10
-281.9215353387
 20
1516.7340549817
 30
0.0
 11
-284.9215353387
 21
1516.7340549817
 31
0.0
  0
LINE
  5
29D
  8
1
  6
CONTINUOUS
 62
     7
 10
-281.9215353387
 20
1516.2340549817
 30
0.0
 11
-284.9215353387
 21
1516.2340549817
 31
0.0
  0
LINE
  5
29E
  8
1
  6
CONTINUOUS
 62
     7
 10
-304.1715353387
 20
1518.4840549817
 30
0.0
 11
-304.1715353387
 21
1517.9840549817
 31
0.0
  0
LINE
  5
29F
  8
1
  6
CONTINUOUS
 62
     7
 10
-429.1298142821
 20
1425.2592729817
 30
0.0
 11
-433.1298142821
 21
1425.2592729817
 31
0.0
  0
LINE
  5
2A0
  8
1
  6
CONTINUOUS
 62
     7
 10
-298.9329463387
 20
1512.9840549817
 30
0.0
 11
-298.7104633387
 21
1513.4840549817
 31
0.0
  0
LINE
  5
2A1
  8
1
  6
CONTINUOUS
 62
     7
 10
-387.8798142821
 20
1515.4840549817
 30
0.0
 11
-388.6298142821
 21
1516.2340549817
 31
0.0
  0
LINE
  5
2A2
  8
1
  6
CONTINUOUS
 62
     7
 10
-285.9215353387
 20
1512.9840549817
 30
0.0
 11
-285.9215353387
 21
1512.9592729817
 31
0.0
  0
LINE
  5
2A3
  8
1
  6
CONTINUOUS
 62
     7
 10
-280.7104633387
 20
1514.9840549817
 30
0.0
 11
-280.7104633387
 21
1513.4840549817
 31
0.0
  0
LINE
  5
2A4
  8
1
  6
CONTINUOUS
 62
     7
 10
-428.5524642821
 20
1426.8034399817
 30
0.0
 11
-422.8160622821
 21
1426.2592729817
 31
0.0
  0
LINE
  5
2A5
  8
1
  6
CONTINUOUS
 62
     7
 10
-387.3798142821
 20
1517.9840549817
 30
0.0
 11
-387.3798142821
 21
1518.4840549817
 31
0.0
  0
LINE
  5
2A6
  8
1
  6
CONTINUOUS
 62
     7
 10
-394.1298142821
 20
1518.6528339817
 30
0.0
 11
-394.1298142821
 21
1521.3152749817
 31
0.0
  0
LINE
  5
2A7
  8
1
  6
CONTINUOUS
 62
     7
 10
-304.1326073387
 20
1513.4840549817
 30
0.0
 11
-303.9101243387
 21
1512.9840549817
 31
0.0
  0
LINE
  5
2A8
  8
1
  6
CONTINUOUS
 62
     7
 10
-302.9215353387
 20
1516.7340549817
 30
0.0
 11
-302.9215353387
 21
1516.2340549817
 31
0.0
  0
LINE
  5
2A9
  8
1
  6
CONTINUOUS
 62
     7
 10
-280.9329463387
 20
1512.9840549817
 30
0.0
 11
-280.7104633387
 21
1513.4840549817
 31
0.0
  0
ARC
  5
2AA
  8
1
  6
CONTINUOUS
 62
     7
 10
-279.9215353387
 20
1519.3090549817
 30
0.0
 40
0.825
 50
270.0
 51
307.305183
  0
LINE
  5
2AB
  8
1
  6
CONTINUOUS
 62
     7
 10
-392.8408862821
 20
1513.4840549817
 30
0.0
 11
-392.8408862821
 21
1514.9840549817
 31
0.0
  0
LINE
  5
2AC
  8
1
  6
CONTINUOUS
 62
     7
 10
-299.9215353387
 20
1516.7340549817
 30
0.0
 11
-298.6715353387
 21
1517.9840549817
 31
0.0
  0
LINE
  5
2AD
  8
1
  6
CONTINUOUS
 62
     7
 10
-304.1326073387
 20
1513.4840549817
 30
0.0
 11
-304.1326073387
 21
1514.9840549817
 31
0.0
  0
LINE
  5
2AE
  8
1
  6
CONTINUOUS
 62
     7
 10
-280.6715353387
 20
1517.9840549817
 30
0.0
 11
-286.1715353387
 21
1517.9840549817
 31
0.0
  0
LINE
  5
2AF
  8
1
  6
CONTINUOUS
 62
     7
 10
-422.8160622821
 20
1509.4592729817
 30
0.0
 11
-429.1298142821
 21
1510.4592729817
 31
0.0
  0
ARC
  5
2B0
  8
1
  6
CONTINUOUS
 62
     7
 10
-388.8298142821
 20
1584.249989886
 30
0.0
 40
0.8
 50
151.044976
 51
180.0
  0
ARC
  5
2B1
  8
1
  6
CONTINUOUS
 62
     7
 10
-391.4298142821
 20
1584.249989886
 30
0.0
 40
0.8
 50
0.0
 51
28.955024
  0
LINE
  5
2B2
  8
1
  6
CONTINUOUS
 62
     7
 10
-697.1298142821
 20
1428.3592729817
 30
0.0
 11
-697.1298142821
 21
1465.4698402716
 31
0.0
  0
ARC
  5
2B3
  8
1
  6
CONTINUOUS
 62
     7
 10
-390.1298142821
 20
1585.549989886
 30
0.0
 40
4.325
 50
262.353426
 51
277.646574
  0
LINE
  5
2B4
  8
1
  6
CONTINUOUS
 62
     7
 10
-698.3720197507
 20
1428.3592729817
 30
0.0
 11
-697.1298142821
 21
1428.3592729817
 31
0.0
  0
LINE
  5
2B5
  8
1
  6
CONTINUOUS
 62
     7
 10
-573.6299482821
 20
1508.3587469817
 30
0.0
 11
-574.0706422821
 21
1505.8592729817
 31
0.0
  0
LINE
  5
2B6
  8
1
  6
CONTINUOUS
 62
     7
 10
-565.1299742821
 20
1427.3598359817
 30
0.0
 11
-564.6891722821
 21
1429.8592729817
 31
0.0
  0
ARC
  5
2B7
  8
1
  6
CONTINUOUS
 62
     7
 10
-694.6298142821
 20
1505.8592729817
 30
0.0
 40
0.4999999999999449
 50
270.0
 51
0.0
  0
LINE
  5
2B8
  8
1
  6
CONTINUOUS
 62
     7
 10
-544.6891462821
 20
1429.8592729817
 30
0.0
 11
-543.1298142821
 21
1429.8592729817
 31
0.0
  0
LINE
  5
2B9
  8
1
  6
CONTINUOUS
 62
     7
 10
-668.6299742821
 20
1427.3598439817
 30
0.0
 11
-665.1299742821
 21
1427.3598359817
 31
0.0
  0
ARC
  5
2BA
  8
1
  6
CONTINUOUS
 62
     7
 10
-391.4298142821
 20
1586.849989886
 30
0.0
 40
0.8
 50
331.044976
 51
0.0
  0
LINE
  5
2BB
  8
1
  6
CONTINUOUS
 62
     7
 10
-543.1298142821
 20
1632.549989886
 30
0.0
 11
-549.9756579532
 21
1632.549989886
 31
0.0
  0
LINE
  5
2BC
  8
1
  6
CONTINUOUS
 62
     7
 10
-304.1326073387
 20
1514.9840549817
 30
0.0
 11
-303.6715353387
 21
1515.4840549817
 31
0.0
  0
LINE
  5
2BD
  8
1
  6
CONTINUOUS
 62
     7
 10
-298.7104633387
 20
1514.9840549817
 30
0.0
 11
-298.7104633387
 21
1513.4840549817
 31
0.0
  0
ARC
  5
2BE
  8
1
  6
CONTINUOUS
 62
     7
 10
-388.8298032821
 20
1586.850008886
 30
0.0
 40
0.800019
 50
208.955831
 51
269.999193
  0
CIRCLE
  5
2BF
  8
1
  6
CONTINUOUS
 62
     7
 10
-390.1298142821
 20
1585.549989886
 30
0.0
 40
3.5
  0
ARC
  5
2C0
  8
1
  6
CONTINUOUS
 62
     7
 10
-694.6298142821
 20
1429.8592729817
 30
0.0
 40
0.4999999999999449
 50
0.0
 51
90.0
  0
LINE
  5
2C1
  8
1
  6
CONTINUOUS
 62
     7
 10
-609.1953402821
 20
1505.8592729817
 30
0.0
 11
-609.9756579532
 21
1505.8592729817
 31
0.0
  0
LINE
  5
2C2
  8
1
  6
CONTINUOUS
 62
     7
 10
-668.1298142821
 20
1475.9568487208
 30
0.0
 11
-665.1299742821
 21
1427.3598359817
 31
0.0
  0
LINE
  5
2C3
  8
1
  6
CONTINUOUS
 62
     7
 10
-694.6298142821
 20
1505.3592729817
 30
0.0
 11
-695.794591593
 21
1505.3592729817
 31
0.0
  0
LINE
  5
2C4
  8
1
  6
CONTINUOUS
 62
     7
 10
-543.1298142821
 20
1505.8592729817
 30
0.0
 11
-549.9756579532
 21
1505.8592729817
 31
0.0
  0
LINE
  5
2C5
  8
1
  6
CONTINUOUS
 62
     7
 10
-696.6298142821
 20
1430.3592729817
 30
0.0
 11
-694.6298142821
 21
1430.3592729817
 31
0.0
  0
ARC
  5
2C6
  8
1
  6
CONTINUOUS
 62
     7
 10
-696.6298142821
 20
1429.8592729817
 30
0.0
 40
0.4999999999999449
 50
90.0
 51
180.0
  0
LINE
  5
2C7
  8
1
  6
CONTINUOUS
 62
     7
 10
-544.6891462821
 20
1556.549989886
 30
0.0
 11
-543.1298142821
 21
1556.549989886
 31
0.0
  0
LINE
  5
2C8
  8
1
  6
CONTINUOUS
 62
     7
 10
-302.9215353387
 20
1516.2340549817
 30
0.0
 11
-303.6715353387
 21
1515.4840549817
 31
0.0
  0
LINE
  5
2C9
  8
1
  6
CONTINUOUS
 62
     7
 10
-299.9215353387
 20
1516.2340549817
 30
0.0
 11
-299.9215353387
 21
1516.7340549817
 31
0.0
  0
LINE
  5
2CA
  8
1
  6
CONTINUOUS
 62
     7
 10
-388.6298142821
 20
1516.2340549817
 30
0.0
 11
-391.6298142821
 21
1516.2340549817
 31
0.0
  0
LINE
  5
2CB
  8
1
  6
CONTINUOUS
 62
     7
 10
-387.3798142821
 20
1517.9840549817
 30
0.0
 11
-392.8798142821
 21
1517.9840549817
 31
0.0
  0
LINE
  5
2CC
  8
1
  6
CONTINUOUS
 62
     7
 10
-665.1299742821
 20
1427.3598359817
 30
0.0
 11
-664.6891722821
 21
1429.8592729817
 31
0.0
  0
LINE
  5
2CD
  8
1
  6
CONTINUOUS
 62
     7
 10
-392.8408862821
 20
1513.4840549817
 30
0.0
 11
-392.6184032821
 21
1512.9840549817
 31
0.0
  0
ARC
  5
2CE
  8
1
  6
CONTINUOUS
 62
     7
 10
-388.8298042821
 20
1584.249972886
 30
0.0
 40
0.800017
 50
90.000699
 51
151.044276
  0
LINE
  5
2CF
  8
1
  6
CONTINUOUS
 62
     7
 10
-695.2008090138
 20
1523.0983740546
 30
0.0
 11
-698.8730312821
 21
1413.3916829817
 31
0.0
  0
LINE
  5
2D0
  8
1
  6
CONTINUOUS
 62
     7
 10
-305.4215353387
 20
1518.6528339817
 30
0.0
 11
-305.4215353387
 21
1521.3152749817
 31
0.0
  0
LINE
  5
2D1
  8
1
  6
CONTINUOUS
 62
     7
 10
-297.4215353387
 20
1521.3152749817
 30
0.0
 11
-297.4215353387
 21
1518.6528339817
 31
0.0
  0
ARC
  5
2D2
  8
1
  6
CONTINUOUS
 62
     7
 10
-304.9215353387
 20
1520.6590549817
 30
0.0
 40
0.825
 50
90.0
 51
127.305183
  0
LINE
  5
2D3
  8
1
  6
CONTINUOUS
 62
     7
 10
-298.9215353387
 20
1512.9592729817
 30
0.0
 11
-298.9215353387
 21
1512.9840549817
 31
0.0
  0
LINE
  5
2D4
  8
1
  6
CONTINUOUS
 62
     7
 10
-388.6298142821
 20
1516.7340549817
 30
0.0
 11
-391.6298142821
 21
1516.7340549817
 31
0.0
  0
ARC
  5
2D5
  8
1
  6
CONTINUOUS
 62
     7
 10
-285.8310053387
 20
1522.4751549817
 30
0.0
 40
1.0
 50
99.04093928470003
 51
175.0
  0
LINE
  5
2D6
  8
1
  6
CONTINUOUS
 62
     7
 10
-304.1715353387
 20
1517.9840549817
 30
0.0
 11
-302.9215353387
 21
1516.7340549817
 31
0.0
  0
ARC
  5
2D7
  8
1
  6
CONTINUOUS
 62
     7
 10
-390.1298142821
 20
1585.549989886
 30
0.0
 40
4.325
 50
142.353426
 51
157.646574
  0
ARC
  5
2D8
  8
1
  6
CONTINUOUS
 62
     7
 10
-390.1298142821
 20
1585.549989886
 30
0.0
 40
4.325
 50
202.353426
 51
217.646574
  0
LINE
  5
2D9
  8
1
  6
CENTER
 62
     5
 10
-866.3099398499
 20
1467.8592729817
 30
0.0
 11
-757.3099398499
 21
1467.8592729817
 31
0.0
  0
LINE
  5
2DA
  8
1
  6
CONTINUOUS
 62
     7
 10
-580.1299482821
 20
1508.3587559817
 30
0.0
 11
-575.1299742821
 21
1427.3598359817
 31
0.0
  0
LINE
  5
2DB
  8
1
  6
CONTINUOUS
 62
     7
 10
-428.5524642821
 20
1635.605822886
 30
0.0
 11
-422.8160622821
 21
1636.149989886
 31
0.0
  0
ARC
  5
2DC
  8
1
  6
CONTINUOUS
 62
     7
 10
-390.1298142821
 20
1585.549989886
 30
0.0
 40
4.325
 50
322.353426
 51
337.646574
  0
LINE
  5
2DD
  8
1
  6
CONTINUOUS
 62
     7
 10
-634.6891492821
 20
1429.8592729817
 30
0.0
 11
-628.7842613101
 21
1429.8592729817
 31
0.0
  0
LINE
  5
2DE
  8
1
  6
CONTINUOUS
 62
     7
 10
-630.1299482821001
 20
1508.3587559817
 30
0.0
 11
-625.1299742821001
 21
1427.3598359817
 31
0.0
  0
ARC
  5
2DF
  8
1
  6
CONTINUOUS
 62
     7
 10
-390.1298142821
 20
1585.549989886
 30
0.0
 40
2.163668
 50
166.6388
 51
193.3612
  0
CIRCLE
  5
2E0
  8
1
  6
CONTINUOUS
 62
     7
 10
-390.1298142821
 20
1603.549989886
 30
0.0
 40
3.5
  0
ARC
  5
2E1
  8
1
  6
CONTINUOUS
 62
     7
 10
-391.4298252821
 20
1584.249970886
 30
0.0
 40
0.800019
 50
28.955831
 51
89.999193
  0
LINE
  5
2E2
  8
1
  6
CENTER
 62
     5
 10
-811.8099398499
 20
1413.3592729817
 30
0.0
 11
-811.8099398499
 21
1522.3592729817
 31
0.0
  0
LINE
  5
2E3
  8
1
  6
CONTINUOUS
 62
     7
 10
-620.1299482821001
 20
1508.3587559817
 30
0.0
 11
-623.6299482821
 21
1508.3587469817
 31
0.0
  0
LINE
  5
2E4
  8
1
  6
CONTINUOUS
 62
     7
 10
-389.5298142821
 20
1606.902384886
 30
0.0
 11
-389.5298142821
 21
1604.462691886
 31
0.0
  0
LINE
  5
2E5
  8
1
  6
CONTINUOUS
 62
     7
 10
-610.1299482821
 20
1508.3587559817
 30
0.0
 11
-609.1953402821
 21
1493.2182295263
 31
0.0
  0
LINE
  5
2E6
  8
1
  6
CONTINUOUS
 62
     7
 10
-575.1299742821
 20
1427.3598359817
 30
0.0
 11
-574.6891722821
 21
1429.8592729817
 31
0.0
  0
LINE
  5
2E7
  8
1
  6
CONTINUOUS
 62
     7
 10
-425.4952262821
 20
1589.023874886
 30
0.0
 11
-422.8160622821
 21
1590.186635886
 31
0.0
  0
LINE
  5
2E8
  8
1
  6
CONTINUOUS
 62
     7
 10
-392.2349172821
 20
1585.049989886
 30
0.0
 11
-391.4298142821
 21
1585.049989886
 31
0.0
  0
CIRCLE
  5
2E9
  8
1
  6
CONTINUOUS
 62
     7
 10
-811.8059258499
 20
1468.2461929817
 30
0.0
 40
54.856486
  0
LINE
  5
2EA
  8
1
  6
CONTINUOUS
 62
     7
 10
-628.6299742821
 20
1427.3598439817
 30
0.0
 11
-633.6299482821
 21
1508.3587469817
 31
0.0
  0
LINE
  5
2EB
  8
1
  6
CONTINUOUS
 62
     7
 10
-578.6299742821
 20
1427.3598439817
 30
0.0
 11
-580.9298142821
 21
1464.6169411337
 31
0.0
  0
LINE
  5
2EC
  8
1
  6
CONTINUOUS
 62
     7
 10
-390.7298142821
 20
1604.462691886
 30
0.0
 11
-390.7298142821
 21
1606.902384886
 31
0.0
  0
LINE
  5
2ED
  8
1
  6
CONTINUOUS
 62
     7
 10
-394.1298142821
 20
1601.905111886
 30
0.0
 11
-394.1298142821
 21
1605.194867886
 31
0.0
  0
LINE
  5
2EE
  8
1
  6
CONTINUOUS
 62
     7
 10
-609.1953402821
 20
1436.5186967665
 30
0.0
 11
-613.6299482821
 21
1508.3587469817
 31
0.0
  0
LINE
  5
2EF
  8
1
  6
CONTINUOUS
 62
     7
 10
-613.6299482821
 20
1508.3587469817
 30
0.0
 11
-614.0706422821
 21
1505.8592729817
 31
0.0
  0
LINE
  5
2F0
  8
1
  6
CONTINUOUS
 62
     7
 10
-390.7298142821
 20
1582.197594886
 30
0.0
 11
-390.7298142821
 21
1584.637287886
 31
0.0
  0
LINE
  5
2F1
  8
1
  6
CONTINUOUS
 62
     7
 10
-568.6299742821001
 20
1427.3598439817
 30
0.0
 11
-573.6299482821
 21
1508.3587469817
 31
0.0
  0
LINE
  5
2F2
  8
1
  6
CONTINUOUS
 62
     7
 10
-388.0247112821
 20
1586.049989886
 30
0.0
 11
-388.8298142821
 21
1586.049989886
 31
0.0
  0
CIRCLE
  5
2F3
  8
1
  6
CONTINUOUS
 62
     7
 10
-811.8099398499
 20
1467.8592729817
 30
0.0
 40
33.280273
  0
LINE
  5
2F4
  8
1
  6
CONTINUOUS
 62
     7
 10
-618.6299742821
 20
1427.3598439817
 30
0.0
 11
-615.1299742821
 21
1427.3598359817
 31
0.0
  0
LINE
  5
2F5
  8
1
  6
CONTINUOUS
 62
     7
 10
-624.0706422821
 20
1505.8592729817
 30
0.0
 11
-629.9756579532
 21
1505.8592729817
 31
0.0
  0
LINE
  5
2F6
  8
1
  6
CONTINUOUS
 62
     7
 10
-411.7453262821
 20
1637.770947886
 30
0.0
 11
-412.8803332821
 21
1636.149989886
 31
0.0
  0
LINE
  5
2F7
  8
1
  6
CONTINUOUS
 62
     7
 10
-429.4184892821
 20
1636.593539886
 30
0.0
 11
-428.5524642821
 21
1635.605822886
 31
0.0
  0
LINE
  5
2F8
  8
1
  6
CONTINUOUS
 62
     7
 10
-388.8298142821
 20
1603.049989886
 30
0.0
 11
-388.0247112821
 21
1603.049989886
 31
0.0
  0
LINE
  5
2F9
  8
1
  6
CONTINUOUS
 62
     7
 10
-614.0706422821
 20
1505.8592729817
 30
0.0
 11
-619.9756579532
 21
1505.8592729817
 31
0.0
  0
LINE
  5
2FA
  8
1
  6
CONTINUOUS
 62
     7
 10
-391.4298142821
 20
1586.049989886
 30
0.0
 11
-392.2349172821
 21
1586.049989886
 31
0.0
  0
ARC
  5
2FB
  8
1
  6
CONTINUOUS
 62
     7
 10
-811.8099398499
 20
1467.8592729817
 30
0.0
 40
52.5
 50
91.091414
 51
88.90858600000003
  0
LINE
  5
2FC
  8
1
  6
CONTINUOUS
 62
     7
 10
-615.1299742821
 20
1427.3598359817
 30
0.0
 11
-614.6891722821
 21
1429.8592729817
 31
0.0
  0
LINE
  5
2FD
  8
1
  6
CONTINUOUS
 62
     7
 10
-614.6891492821
 20
1429.8592729817
 30
0.0
 11
-609.1953402821
 21
1429.8592729817
 31
0.0
  0
LINE
  5
2FE
  8
1
  6
CONTINUOUS
 62
     7
 10
-580.1299482821
 20
1508.3587559817
 30
0.0
 11
-580.9298142821
 21
1508.3587539249
 31
0.0
  0
LINE
  5
2FF
  8
1
  6
CONTINUOUS
 62
     7
 10
-388.8298142821
 20
1585.049989886
 30
0.0
 11
-388.0247112821
 21
1585.049989886
 31
0.0
  0
LINE
  5
300
  8
1
  6
CONTINUOUS
 62
     7
 10
-390.7053082821
 20
1581.263448886
 30
0.0
 11
-393.5543202821
 21
1582.908327886
 31
0.0
  0
ARC
  5
301
  8
1
  6
CONTINUOUS
 62
     7
 10
-390.1298142821
 20
1585.549989886
 30
0.0
 40
2.163668
 50
346.6387999999999
 51
13.3612
  0
LINE
  5
302
  8
1
  6
CONTINUOUS
 62
     7
 10
-389.5298142821
 20
1584.637287886
 30
0.0
 11
-389.5298142821
 21
1582.197594886
 31
0.0
  0
LINE
  5
303
  8
1
  6
CONTINUOUS
 62
     7
 10
-388.0247112821
 20
1604.049989886
 30
0.0
 11
-388.8298142821
 21
1604.049989886
 31
0.0
  0
ARC
  5
304
  8
1
  6
CONTINUOUS
 62
     7
 10
-391.4298242821
 20
1586.850006886
 30
0.0
 40
0.800017
 50
270.000699
 51
331.0442760000001
  0
LINE
  5
305
  8
1
  6
CONTINUOUS
 62
     7
 10
-386.7053082821
 20
1582.908327886
 30
0.0
 11
-389.5543202821
 21
1581.263448886
 31
0.0
  0
LINE
  5
306
  8
1
  6
CONTINUOUS
 62
     7
 10
-394.1298142821
 20
1583.905111886
 30
0.0
 11
-394.1298142821
 21
1587.194867886
 31
0.0
  0
LINE
  5
307
  8
1
  6
CONTINUOUS
 62
     7
 10
-428.5524642821
 20
1553.494156886
 30
0.0
 11
-422.8160622821
 21
1552.949989886
 31
0.0
  0
LINE
  5
308
  8
1
  6
CONTINUOUS
 62
     7
 10
-429.4184892821
 20
1552.506439886
 30
0.0
 11
-428.5524642821
 21
1553.494156886
 31
0.0
  0
LINE
  5
309
  8
1
  6
CONTINUOUS
 62
     7
 10
-578.6299742821
 20
1554.050560886
 30
0.0
 11
-580.9298142821
 21
1591.307658038
 31
0.0
  0
LINE
  5
30A
  8
1
  6
CONTINUOUS
 62
     7
 10
-624.0706422821
 20
1632.549989886
 30
0.0
 11
-629.9756579532
 21
1632.549989886
 31
0.0
  0
LINE
  5
30B
  8
1
  6
CONTINUOUS
 62
     7
 10
-578.6299742821
 20
1554.050560886
 30
0.0
 11
-575.1299742821
 21
1554.050552886
 31
0.0
  0
LINE
  5
30C
  8
1
  6
CONTINUOUS
 62
     7
 10
-609.1953402821
 20
1632.549989886
 30
0.0
 11
-609.9756579532
 21
1632.549989886
 31
0.0
  0
LINE
  5
30D
  8
1
  6
CONTINUOUS
 62
     7
 10
-610.1299482821
 20
1635.049472886
 30
0.0
 11
-613.6299482821
 21
1635.049463886
 31
0.0
  0
LINE
  5
30E
  8
1
  6
CONTINUOUS
 62
     7
 10
-286.9215353387
 20
1521.4840549817
 30
0.0
 11
-279.9215353387
 21
1521.4840549817
 31
0.0
  0
LINE
  5
30F
  8
1
  6
CONTINUOUS
 62
     7
 10
-570.1299482821
 20
1635.049472886
 30
0.0
 11
-573.6299482821
 21
1635.049463886
 31
0.0
  0
LINE
  5
310
  8
1
  6
CONTINUOUS
 62
     7
 10
-687.1298142821
 20
1428.3592729817
 30
0.0
 11
-687.1298142821
 21
1507.3592729817
 31
0.0
  0
LINE
  5
311
  8
1
  6
CONTINUOUS
 62
     7
 10
-574.6891492821001
 20
1556.549989886
 30
0.0
 11
-568.7842613101
 21
1556.549989886
 31
0.0
  0
LINE
  5
312
  8
1
  6
CONTINUOUS
 62
     7
 10
-429.4184892821
 20
1509.9028229817
 30
0.0
 11
-428.5524642821
 21
1508.9151059817
 31
0.0
  0
ARC
  5
313
  8
1
  6
CONTINUOUS
 62
     7
 10
-682.6298142821
 20
1429.8592729817
 30
0.0
 40
0.4999999999999449
 50
90.0
 51
180.0
  0
LINE
  5
314
  8
1
  6
CONTINUOUS
 62
     7
 10
-690.1298142821
 20
1428.3592729817
 30
0.0
 11
-690.1298142821
 21
1507.3592729817
 31
0.0
  0
LINE
  5
315
  8
1
  6
CONTINUOUS
 62
     7
 10
-615.1299742821
 20
1554.050552886
 30
0.0
 11
-614.6891722821
 21
1556.549989886
 31
0.0
  0
LINE
  5
316
  8
1
  6
CONTINUOUS
 62
     7
 10
-565.1299742821
 20
1554.050552886
 30
0.0
 11
-564.6891722821
 21
1556.549989886
 31
0.0
  0
ARC
  5
317
  8
1
  6
CONTINUOUS
 62
     7
 10
-680.6298142821
 20
1505.8592729817
 30
0.0
 40
0.4999999999999449
 50
270.0
 51
0.0
  0
LINE
  5
318
  8
1
  6
CONTINUOUS
 62
     7
 10
-624.6891492821
 20
1556.549989886
 30
0.0
 11
-618.7842613101
 21
1556.549989886
 31
0.0
  0
LINE
  5
319
  8
1
  6
CONTINUOUS
 62
     7
 10
-568.6299742821001
 20
1554.050560886
 30
0.0
 11
-565.1299742821
 21
1554.050552886
 31
0.0
  0
LINE
  5
31A
  8
1
  6
CONTINUOUS
 62
     7
 10
-429.4184892821
 20
1425.8157229817
 30
0.0
 11
-428.5524642821
 21
1426.8034399817
 31
0.0
  0
LINE
  5
31B
  8
1
  6
CONTINUOUS
 62
     7
 10
-580.9298142821
 20
1556.549989886
 30
0.0
 11
-578.7842613101
 21
1556.549989886
 31
0.0
  0
LINE
  5
31C
  8
1
  6
CONTINUOUS
 62
     7
 10
-614.0706422821
 20
1632.549989886
 30
0.0
 11
-619.9756579532
 21
1632.549989886
 31
0.0
  0
LINE
  5
31D
  8
1
  6
CONTINUOUS
 62
     7
 10
-668.6299742821
 20
1554.050560886
 30
0.0
 11
-665.1299742821
 21
1554.050552886
 31
0.0
  0
LINE
  5
31E
  8
1
  6
CONTINUOUS
 62
     7
 10
-575.1299742821
 20
1554.050552886
 30
0.0
 11
-574.6891722821
 21
1556.549989886
 31
0.0
  0
LINE
  5
31F
  8
1
  6
CONTINUOUS
 62
     7
 10
-570.1299482821
 20
1635.049472886
 30
0.0
 11
-565.1299742821
 21
1554.050552886
 31
0.0
  0
LINE
  5
320
  8
1
  6
CONTINUOUS
 62
     7
 10
-708.1298142821
 20
1415.3687979817
 30
0.0
 11
-698.8727261527
 21
1413.4007986451
 31
0.0
  0
LINE
  5
321
  8
1
  6
CONTINUOUS
 62
     7
 10
-286.9215353387
 20
1518.4840549817
 30
0.0
 11
-279.9215353387
 21
1518.4840549817
 31
0.0
  0
LINE
  5
322
  8
1
  6
CONTINUOUS
 62
     7
 10
-422.8160622821
 20
1463.4959189817
 30
0.0
 11
-429.4184892821
 21
1461.7072930984
 31
0.0
  0
LINE
  5
323
  8
1
  6
CONTINUOUS
 62
     7
 10
-613.6299482821
 20
1635.049463886
 30
0.0
 11
-614.0706422821
 21
1632.549989886
 31
0.0
  0
LINE
  5
324
  8
1
  6
CONTINUOUS
 62
     7
 10
-422.8160622821
 20
1426.2592729817
 30
0.0
 11
-429.1298142821
 21
1425.2592729817
 31
0.0
  0
LINE
  5
325
  8
1
  6
CONTINUOUS
 62
     7
 10
-620.1299482821001
 20
1635.049472886
 30
0.0
 11
-623.6299482821
 21
1635.049463886
 31
0.0
  0
LINE
  5
326
  8
1
  6
CONTINUOUS
 62
     7
 10
-687.1298142821
 20
1428.3592729817
 30
0.0
 11
-683.1298142821
 21
1428.3592729817
 31
0.0
  0
LINE
  5
327
  8
1
  6
CONTINUOUS
 62
     7
 10
-708.1298142821
 20
1520.3497479817
 30
0.0
 11
-695.2008090138
 21
1523.0983740546
 31
0.0
  0
LINE
  5
328
  8
1
  6
CONTINUOUS
 62
     7
 10
-429.1298142821
 20
1510.4592729817
 30
0.0
 11
-433.1298142821
 21
1510.4592729817
 31
0.0
  0
LINE
  5
329
  8
1
  6
CONTINUOUS
 62
     7
 10
-280.9215353387
 20
1512.9840549817
 30
0.0
 11
-285.9215353387
 21
1512.9840549817
 31
0.0
  0
LINE
  5
32A
  8
1
  6
CONTINUOUS
 62
     7
 10
-580.1299482821
 20
1635.049472886
 30
0.0
 11
-580.9298142821
 21
1635.0494708292
 31
0.0
  0
LINE
  5
32B
  8
1
  6
CONTINUOUS
 62
     7
 10
-708.1298142821
 20
1520.3497479817
 30
0.0
 11
-713.6298142821
 21
1520.3497479817
 31
0.0
  0
LINE
  5
32C
  8
1
  6
CONTINUOUS
 62
     7
 10
-694.1298142821
 20
1428.3592729817
 30
0.0
 11
-690.1298142821
 21
1428.3592729817
 31
0.0
  0
LINE
  5
32D
  8
1
  6
CONTINUOUS
 62
     7
 10
-279.4215353387
 20
1521.3152749817
 30
0.0
 11
-279.4215353387
 21
1518.6528339817
 31
0.0
  0
LINE
  5
32E
  8
1
  6
CONTINUOUS
 62
     7
 10
-428.5524642821
 20
1474.5658809817
 30
0.0
 11
-428.5524642821
 21
1508.9151059817
 31
0.0
  0
ARC
  5
32F
  8
1
  6
CONTINUOUS
 62
     7
 10
-689.6298142821
 20
1429.8592729817
 30
0.0
 40
0.4999999999999449
 50
90.0
 51
180.0
  0
LINE
  5
330
  8
1
  6
CONTINUOUS
 62
     7
 10
-682.6298142821
 20
1430.3592729817
 30
0.0
 11
-680.6298142821
 21
1430.3592729817
 31
0.0
  0
LINE
  5
331
  8
1
  6
CONTINUOUS
 62
     7
 10
-425.4952262821
 20
1462.3331579817
 30
0.0
 11
-422.8160622821
 21
1463.4959189817
 31
0.0
  0
LINE
  5
332
  8
1
  6
CONTINUOUS
 62
     7
 10
-580.1299482821
 20
1635.049472886
 30
0.0
 11
-575.1299742821
 21
1554.050552886
 31
0.0
  0
LINE
  5
333
  8
1
  6
CONTINUOUS
 62
     7
 10
-573.6299482821
 20
1635.049463886
 30
0.0
 11
-574.0706422821
 21
1632.549989886
 31
0.0
  0
LINE
  5
334
  8
1
  6
CONTINUOUS
 62
     7
 10
-623.6299482821
 20
1635.049463886
 30
0.0
 11
-624.0706422821
 21
1632.549989886
 31
0.0
  0
ARC
  5
335
  8
1
  6
CONTINUOUS
 62
     7
 10
-680.6298142821
 20
1429.8592729817
 30
0.0
 40
0.4999999999999449
 50
0.0
 51
90.0
  0
LINE
  5
336
  8
1
  6
CONTINUOUS
 62
     7
 10
-680.6298142821
 20
1505.3592729817
 30
0.0
 11
-682.6298142821
 21
1505.3592729817
 31
0.0
  0
LINE
  5
337
  8
1
  6
CONTINUOUS
 62
     7
 10
-429.4184892821
 20
1461.2819228163
 30
0.0
 11
-425.4952262821
 21
1462.3331579817
 31
0.0
  0
LINE
  5
338
  8
1
  6
CONTINUOUS
 62
     7
 10
-284.9215353387
 20
1516.2340549817
 30
0.0
 11
-285.6715353387
 21
1515.4840549817
 31
0.0
  0
LINE
  5
339
  8
1
  6
CONTINUOUS
 62
     7
 10
-614.6891492821
 20
1556.549989886
 30
0.0
 11
-609.1953402821
 21
1556.549989886
 31
0.0
  0
LINE
  5
33A
  8
1
  6
CONTINUOUS
 62
     7
 10
-609.1953402821
 20
1563.2094136708
 30
0.0
 11
-613.6299482821
 21
1635.049463886
 31
0.0
  0
ARC
  5
33B
  8
1
  6
CONTINUOUS
 62
     7
 10
-713.1298142821
 20
1416.3592729817
 30
0.0
 40
1.000000000000001
 50
180.0
 51
270.0
  0
LINE
  5
33C
  8
1
  6
CONTINUOUS
 62
     7
 10
-680.1298142821
 20
1428.3592729817
 30
0.0
 11
-680.1298142821
 21
1507.3592729817
 31
0.0
  0
LINE
  5
33D
  8
1
  6
CONTINUOUS
 62
     7
 10
-673.1298142821
 20
1427.3592729817
 30
0.0
 11
-673.1298142821
 21
1508.3592729817
 31
0.0
  0
LINE
  5
33E
  8
1
  6
CONTINUOUS
 62
     7
 10
-689.6298142821
 20
1430.3592729817
 30
0.0
 11
-687.6298142821
 21
1430.3592729817
 31
0.0
  0
LINE
  5
33F
  8
1
  6
CONTINUOUS
 62
     7
 10
-286.1326073387
 20
1514.9840549817
 30
0.0
 11
-285.6715353387
 21
1515.4840549817
 31
0.0
  0
LINE
  5
340
  8
1
  6
CONTINUOUS
 62
     7
 10
-280.9215353387
 20
1512.9592729817
 30
0.0
 11
-280.9215353387
 21
1512.9840549817
 31
0.0
  0
LINE
  5
341
  8
1
  6
CONTINUOUS
 62
     7
 10
-620.1299482821001
 20
1635.049472886
 30
0.0
 11
-615.1299742821
 21
1554.050552886
 31
0.0
  0
LINE
  5
342
  8
1
  6
CONTINUOUS
 62
     7
 10
-668.1298142821
 20
1602.6475656251
 30
0.0
 11
-665.1299742821
 21
1554.050552886
 31
0.0
  0
LINE
  5
343
  8
1
  6
CONTINUOUS
 62
     7
 10
-618.6299742821
 20
1554.050560886
 30
0.0
 11
-623.6299482821
 21
1635.049463886
 31
0.0
  0
LINE
  5
344
  8
1
  6
CONTINUOUS
 62
     7
 10
-665.1299742821
 20
1554.050552886
 30
0.0
 11
-664.6891722821
 21
1556.549989886
 31
0.0
  0
LINE
  5
345
  8
1
  6
CONTINUOUS
 62
     7
 10
-574.0706422821
 20
1632.549989886
 30
0.0
 11
-579.9756579532001
 21
1632.549989886
 31
0.0
  0
LINE
  5
346
  8
1
  6
CONTINUOUS
 62
     7
 10
-568.6299742821001
 20
1554.050560886
 30
0.0
 11
-573.6299482821
 21
1635.049463886
 31
0.0
  0
LINE
  5
347
  8
1
  6
CONTINUOUS
 62
     7
 10
-610.1299482821
 20
1635.049472886
 30
0.0
 11
-609.1953402821
 21
1619.9089464306
 31
0.0
  0
LINE
  5
348
  8
1
  6
CONTINUOUS
 62
     7
 10
-428.5524642821
 20
1508.9151059817
 30
0.0
 11
-422.8160622821
 21
1509.4592729817
 31
0.0
  0
LINE
  5
349
  8
1
  6
CONTINUOUS
 62
     7
 10
-699.1298142821
 20
1522.2722819817
 30
0.0
 11
-699.1298142821
 21
1522.2630919817
 31
0.0
  0
ARC
  5
34A
  8
1
  6
CONTINUOUS
 62
     7
 10
-687.6298142821
 20
1505.8592729817
 30
0.0
 40
0.4999999999999449
 50
270.0
 51
0.0
  0
LINE
  5
34B
  8
1
  6
CONTINUOUS
 62
     7
 10
-676.1298142821
 20
1507.3592729817
 30
0.0
 11
-680.1298142821
 21
1507.3592729817
 31
0.0
  0
LINE
  5
34C
  8
1
  6
CONTINUOUS
 62
     7
 10
-625.1299742821001
 20
1554.050552886
 30
0.0
 11
-624.6891722821001
 21
1556.549989886
 31
0.0
  0
LINE
  5
34D
  8
1
  6
CONTINUOUS
 62
     7
 10
-654.0706422821
 20
1632.549989886
 30
0.0
 11
-659.9756579532
 21
1632.549989886
 31
0.0
  0
ARC
  5
34E
  8
1
  6
CONTINUOUS
 62
     7
 10
-713.6298142821
 20
1519.8497479817
 30
0.0
 40
0.4999999999999449
 50
90.0
 51
180.0
  0
LINE
  5
34F
  8
1
  6
CONTINUOUS
 62
     7
 10
-654.6891492821
 20
1556.549989886
 30
0.0
 11
-648.7842613101
 21
1556.549989886
 31
0.0
  0
LINE
  5
350
  8
1
  6
CONTINUOUS
 62
     7
 10
-645.1299742821
 20
1554.050552886
 30
0.0
 11
-644.6891722821
 21
1556.549989886
 31
0.0
  0
LINE
  5
351
  8
1
  6
CONTINUOUS
 62
     7
 10
-644.6891492821
 20
1556.549989886
 30
0.0
 11
-638.7842613101
 21
1556.549989886
 31
0.0
  0
LINE
  5
352
  8
1
  6
CONTINUOUS
 62
     7
 10
-655.1299742821
 20
1554.050552886
 30
0.0
 11
-654.6891722821
 21
1556.549989886
 31
0.0
  0
LINE
  5
353
  8
1
  6
CONTINUOUS
 62
     7
 10
-683.1298142821
 20
1507.3592729817
 30
0.0
 11
-687.1298142821
 21
1507.3592729817
 31
0.0
  0
LINE
  5
354
  8
1
  6
CONTINUOUS
 62
     7
 10
-640.1299482821
 20
1635.049472886
 30
0.0
 11
-635.1299742821
 21
1554.050552886
 31
0.0
  0
LINE
  5
355
  8
1
  6
CONTINUOUS
 62
     7
 10
-630.1299482821001
 20
1635.049472886
 30
0.0
 11
-633.6299482821
 21
1635.049463886
 31
0.0
  0
LINE
  5
356
  8
1
  6
CONTINUOUS
 62
     7
 10
-634.6891492821
 20
1556.549989886
 30
0.0
 11
-628.7842613101
 21
1556.549989886
 31
0.0
  0
LINE
  5
357
  8
1
  6
CONTINUOUS
 62
     7
 10
-635.1299742821
 20
1554.050552886
 30
0.0
 11
-634.6891722821
 21
1556.549989886
 31
0.0
  0
LINE
  5
358
  8
1
  6
CONTINUOUS
 62
     7
 10
-644.0706422821
 20
1632.549989886
 30
0.0
 11
-649.9756579532
 21
1632.549989886
 31
0.0
  0
LINE
  5
359
  8
1
  6
CONTINUOUS
 62
     7
 10
-653.6299482821
 20
1635.049463886
 30
0.0
 11
-654.0706422821
 21
1632.549989886
 31
0.0
  0
LINE
  5
35A
  8
1
  6
CONTINUOUS
 62
     7
 10
-630.1299482821001
 20
1635.049472886
 30
0.0
 11
-625.1299742821001
 21
1554.050552886
 31
0.0
  0
LINE
  5
35B
  8
1
  6
CONTINUOUS
 62
     7
 10
-643.6299482821
 20
1635.049463886
 30
0.0
 11
-644.0706422821
 21
1632.549989886
 31
0.0
  0
LINE
  5
35C
  8
1
  6
CONTINUOUS
 62
     7
 10
-638.6299742821
 20
1554.050560886
 30
0.0
 11
-635.1299742821
 21
1554.050552886
 31
0.0
  0
LINE
  5
35D
  8
1
  6
CONTINUOUS
 62
     7
 10
-680.1298142821
 20
1428.3592729817
 30
0.0
 11
-676.1298142821
 21
1428.3592729817
 31
0.0
  0
LINE
  5
35E
  8
1
  6
CONTINUOUS
 62
     7
 10
-713.1298142821
 20
1415.3592729817
 30
0.0
 11
-708.1298142821
 21
1415.3592729817
 31
0.0
  0
LINE
  5
35F
  8
1
  6
CONTINUOUS
 62
     7
 10
-648.6299742821
 20
1554.050560886
 30
0.0
 11
-645.1299742821
 21
1554.050552886
 31
0.0
  0
LINE
  5
360
  8
1
  6
CONTINUOUS
 62
     7
 10
-634.0706422821
 20
1632.549989886
 30
0.0
 11
-639.9756579532
 21
1632.549989886
 31
0.0
  0
LINE
  5
361
  8
1
  6
CONTINUOUS
 62
     7
 10
-708.1298142821
 20
1415.3592729817
 30
0.0
 11
-708.1298142821
 21
1520.3497479817
 31
0.0
  0
LINE
  5
362
  8
1
  6
CONTINUOUS
 62
     7
 10
-683.1298142821
 20
1428.3592729817
 30
0.0
 11
-683.1298142821
 21
1507.3592729817
 31
0.0
  0
LINE
  5
363
  8
1
  6
CONTINUOUS
 62
     7
 10
-694.1298142821
 20
1507.3592729817
 30
0.0
 11
-694.1298142821
 21
1428.3592729817
 31
0.0
  0
ARC
  5
364
  8
1
  6
CONTINUOUS
 62
     7
 10
-687.6298142821
 20
1429.8592729817
 30
0.0
 40
0.4999999999999449
 50
0.0
 51
90.0
  0
LINE
  5
365
  8
1
  6
CONTINUOUS
 62
     7
 10
-687.6298142821
 20
1505.3592729817
 30
0.0
 11
-689.6298142821
 21
1505.3592729817
 31
0.0
  0
LINE
  5
366
  8
1
  6
CONTINUOUS
 62
     7
 10
-618.6299742821
 20
1554.050560886
 30
0.0
 11
-615.1299742821
 21
1554.050552886
 31
0.0
  0
LINE
  5
367
  8
1
  6
CONTINUOUS
 62
     7
 10
-714.1298142821
 20
1416.3592729817
 30
0.0
 11
-714.1298142821
 21
1519.8497479817
 31
0.0
  0
LINE
  5
368
  8
1
  6
CONTINUOUS
 62
     7
 10
-690.1298142821
 20
1507.3592729817
 30
0.0
 11
-694.1298142821
 21
1507.3592729817
 31
0.0
  0
ARC
  5
369
  8
1
  6
CONTINUOUS
 62
     7
 10
-689.6298142821
 20
1505.8592729817
 30
0.0
 40
0.4999999999999449
 50
180.0
 51
270.0
  0
ARC
  5
36A
  8
1
  6
CONTINUOUS
 62
     7
 10
-682.6298142821
 20
1505.8592729817
 30
0.0
 40
0.4999999999999449
 50
180.0
 51
270.0
  0
LINE
  5
36B
  8
1
  6
CONTINUOUS
 62
     7
 10
-640.1299482821
 20
1635.049472886
 30
0.0
 11
-643.6299482821
 21
1635.049463886
 31
0.0
  0
LINE
  5
36C
  8
1
  6
CONTINUOUS
 62
     7
 10
-638.6299742821
 20
1554.050560886
 30
0.0
 11
-643.6299482821
 21
1635.049463886
 31
0.0
  0
LINE
  5
36D
  8
1
  6
CONTINUOUS
 62
     7
 10
-650.1299482821
 20
1635.049472886
 30
0.0
 11
-653.6299482821
 21
1635.049463886
 31
0.0
  0
LINE
  5
36E
  8
1
  6
CONTINUOUS
 62
     7
 10
-648.6299742821
 20
1554.050560886
 30
0.0
 11
-653.6299482821
 21
1635.049463886
 31
0.0
  0
ENDSEC
  0
EOF
