  0
SECTION
  2
HEADER
  9
$ACADVER
  1
AC1006
  9
$DWGCODEPAGE
  3
ansi_932
  9
$INSBASE
 10
0.0
 20
0.0
 30
0.0
  9
$EXTMIN
 10
-901.1895640679999
 20
0.0
  9
$EXTMAX
 10
6.956136363636363
 20
1363.9518869647
  9
$LIMMIN
 10
0.0
 20
0.0
  9
$LIMMAX
 10
12.0
 20
9.0
  9
$ORTHOMODE
 70
     0
  9
$REGENMODE
 70
     1
  9
$FILLMODE
 70
     1
  9
$QTEXTMODE
 70
     0
  9
$MIRRTEXT
 70
     1
  9
$DRAGMODE
 70
     2
  9
$LTSCALE
 40
1.0
  9
$OSMODE
 70
    37
  9
$ATTMODE
 70
     1
  9
$TEXTSIZE
 40
0.2
  9
$TRACEWID
 40
0.05
  9
$TEXTSTYLE
  7
STANDARD
  9
$CLAYER
  8
0
  9
$CELTYPE
  6
BYLAYER
  9
$CECOLOR
 62
   256
  9
$DIMSCALE
 40
1.0
  9
$DIMASZ
 40
3.0
  9
$DIMEXO
 40
0.0625
  9
$DIMDLI
 40
0.38
  9
$DIMRND
 40
0.0
  9
$DIMDLE
 40
0.0
  9
$DIMEXE
 40
1.5
  9
$DIMTP
 40
0.0
  9
$DIMTM
 40
0.0
  9
$DIMTXT
 40
3.5
  9
$DIMCEN
 40
0.09
  9
$DIMTSZ
 40
0.0
  9
$DIMTOL
 70
     0
  9
$DIMLIM
 70
     0
  9
$DIMTIH
 70
     1
  9
$DIMTOH
 70
     1
  9
$DIMSE1
 70
     0
  9
$DIMSE2
 70
     0
  9
$DIMTAD
 70
     1
  9
$DIMZIN
 70
     0
  9
$DIMBLK
  1

  9
$DIMASO
 70
     1
  9
$DIMSHO
 70
     1
  9
$DIMPOST
  1

  9
$DIMAPOST
  1

  9
$DIMALT
 70
     0
  9
$DIMALTD
 70
     2
  9
$DIMALTF
 40
25.4
  9
$DIMLFAC
 40
1.0
  9
$DIMTOFL
 70
     0
  9
$DIMTVP
 40
0.0
  9
$DIMTIX
 70
     0
  9
$DIMSOXD
 70
     0
  9
$DIMSAH
 70
     0
  9
$DIMBLK1
  1

  9
$DIMBLK2
  1

  9
$LUNITS
 70
     2
  9
$LUPREC
 70
     4
  9
$SKETCHINC
 40
0.1
  9
$FILLETRAD
 40
0.5
  9
$AUNITS
 70
     0
  9
$AUPREC
 70
     0
  9
$MENU
  1
.
  9
$ELEVATION
 40
0.0
  9
$THICKNESS
 40
0.0
  9
$LIMCHECK
 70
     0
  9
$CHAMFERA
 40
0.0
  9
$CHAMFERB
 40
0.0
  9
$SKPOLY
 70
     0
  9
$TDCREATE
 40
2460497.489924213
  9
$TDUPDATE
 40
2460497.489924653
  9
$TDINDWG
 40
0.0000000116
  9
$TDUSRTIMER
 40
0.0000000116
  9
$USRTIMER
 70
     1
  9
$ANGBASE
 50
0.0
  9
$ANGDIR
 70
     0
  9
$PDMODE
 70
     0
  9
$PDSIZE
 40
0.0
  9
$PLINEWID
 40
0.0
  9
$COORDS
 70
     1
  9
$SPLFRAME
 70
     0
  9
$SPLINETYPE
 70
     6
  9
$SPLINESEGS
 70
     8
  9
$ATTDIA
 70
     0
  9
$ATTREQ
 70
     1
  9
$HANDLING
 70
     1
  9
$HANDSEED
  5
36A
  9
$SURFTAB1
 70
     6
  9
$SURFTAB2
 70
     6
  9
$SURFTYPE
 70
     6
  9
$SURFU
 70
     6
  9
$SURFV
 70
     6
  9
$UCSNAME
  2

  9
$UCSORG
 10
0.0
 20
0.0
 30
0.0
  9
$UCSXDIR
 10
1.0
 20
0.0
 30
0.0
  9
$UCSYDIR
 10
0.0
 20
1.0
 30
0.0
  9
$USERI1
 70
     0
  9
$USERI2
 70
     0
  9
$USERI3
 70
     0
  9
$USERI4
 70
     0
  9
$USERI5
 70
     0
  9
$USERR1
 40
0.0
  9
$USERR2
 40
0.0
  9
$USERR3
 40
0.0
  9
$USERR4
 40
0.0
  9
$USERR5
 40
0.0
  9
$WORLDVIEW
 70
     1
  0
ENDSEC
  0
SECTION
  2
TABLES
  0
TABLE
  2
VPORT
 70
     1
  0
VPORT
  2
*ACTIVE
 70
     0
 10
0.0
 20
0.0
 11
1.0
 21
1.0
 12
-447.1167138521818
 22
681.97594348235
 13
0.0
 23
0.0
 14
0.5
 24
0.5
 15
0.5
 25
0.5
 16
0.0
 26
0.0
 36
1.0
 17
0.0
 27
0.0
 37
0.0
 40
1363.9518869647
 41
1.6
 42
50.0
 43
0.0
 44
0.0
 50
0.0
 51
0.0
 71
     0
 72
   100
 73
     1
 74
     3
 75
     0
 76
     0
 77
     0
 78
     0
  0
ENDTAB
  0
TABLE
  2
LTYPE
 70
     2
  0
LTYPE
  2
CONTINUOUS
 70
     0
  3
Solid line
 72
    65
 73
     0
 40
0.0
  0
LTYPE
  2
CENTER
 70
     0
  3

 72
    65
 73
     0
 40
0.0
  0
ENDTAB
  0
TABLE
  2
LAYER
 70
     2
  0
LAYER
  2
0
 70
     0
 62
     7
  6
CONTINUOUS
  0
LAYER
  2
1
 70
     0
 62
     7
  6
CONTINUOUS
  0
ENDTAB
  0
TABLE
  2
STYLE
 70
     2
  0
STYLE
  2
STANDARD
 70
     0
 40
0.0
 41
1.0
 50
0.0
 71
     0
 42
0.2
  3
txt
  4

  0
STYLE
  2
ＭＳ_ゴシック
 70
     0
 40
0.0
 41
1.0
 50
0.0
 71
     0
 42
0.2
  3
ＭＳ ゴシック.shx
  4

  0
ENDTAB
  0
TABLE
  2
VIEW
 70
     0
  0
ENDTAB
  0
TABLE
  2
UCS
 70
     0
  0
ENDTAB
  0
ENDSEC
  0
SECTION
  2
BLOCKS
  0
BLOCK
  8
0
  2
D_FRAME_DRAWING_21
 70
     0
 10
0.0
 20
0.0
 30
0.0
  0
LINE
  5
10F
  8
0
  6
CONTINUOUS
 62
     7
 10
0.0
 20
0.0
 30
0.0
 11
420.0
 21
0.0
 31
0.0
  0
LINE
  5
110
  8
0
  6
CONTINUOUS
 62
     7
 10
420.0
 20
0.0
 30
0.0
 11
420.0
 21
297.0
 31
0.0
  0
LINE
  5
111
  8
0
  6
CONTINUOUS
 62
     7
 10
420.0
 20
297.0
 30
0.0
 11
0.0
 21
297.0
 31
0.0
  0
LINE
  5
112
  8
0
  6
CONTINUOUS
 62
     7
 10
0.0
 20
297.0
 30
0.0
 11
0.0
 21
0.0
 31
0.0
  0
LINE
  5
113
  8
0
  6
CONTINUOUS
 62
     7
 10
10.0
 20
10.0
 30
0.0
 11
409.9999999999999
 21
10.0
 31
0.0
  0
LINE
  5
114
  8
0
  6
CONTINUOUS
 62
     7
 10
409.9999999999999
 20
10.0
 30
0.0
 11
409.9999999999999
 21
286.9999999999999
 31
0.0
  0
LINE
  5
115
  8
0
  6
CONTINUOUS
 62
     7
 10
409.9999999999999
 20
286.9999999999999
 30
0.0
 11
10.00000000000006
 21
286.9999999999999
 31
0.0
  0
LINE
  5
116
  8
0
  6
CONTINUOUS
 62
     7
 10
10.0
 20
286.9999999999999
 30
0.0
 11
10.0
 21
10.00000000000001
 31
0.0
  0
LINE
  5
117
  8
0
  6
CONTINUOUS
 62
     7
 10
210.0
 20
0.0
 30
0.0
 11
210.0
 21
10.0
 31
0.0
  0
LINE
  5
118
  8
0
  6
CONTINUOUS
 62
     7
 10
420.0
 20
148.5
 30
0.0
 11
409.9999999999999
 21
148.5
 31
0.0
  0
LINE
  5
119
  8
0
  6
CONTINUOUS
 62
     7
 10
210.0
 20
297.0
 30
0.0
 11
210.0
 21
286.9999999999999
 31
0.0
  0
LINE
  5
11A
  8
0
  6
CONTINUOUS
 62
     7
 10
0.0
 20
148.5
 30
0.0
 11
10.0
 21
148.5
 31
0.0
  0
POLYLINE
  5
11B
  8
0
  6
CONTINUOUS
 62
     7
 66
     1
 10
0.0
 20
0.0
 30
0.0
 70
     1
  0
VERTEX
  5
33B
  8
0
  6
CONTINUOUS
 62
     7
 10
11.0
 20
152.5
 30
0.0
  0
VERTEX
  5
33C
  8
0
  6
CONTINUOUS
 62
     7
 10
0.0
 20
148.5
 30
0.0
  0
VERTEX
  5
33D
  8
0
  6
CONTINUOUS
 62
     7
 10
11.0
 20
144.5
 30
0.0
  0
VERTEX
  5
33E
  8
0
  6
CONTINUOUS
 62
     7
 10
11.0
 20
152.5
 30
0.0
  0
SEQEND
  5
368
  8
0
  6
CONTINUOUS
 62
     7
  0
INSERT
  5
11C
  8
0
 62
     7
  2
*U2
 10
0.0
 20
0.0
 30
0.0
  0
POLYLINE
  5
11D
  8
0
  6
CONTINUOUS
 62
     7
 66
     1
 10
0.0
 20
0.0
 30
0.0
 70
     1
  0
VERTEX
  5
341
  8
0
  6
CONTINUOUS
 62
     7
 10
206.0
 20
11.0
 30
0.0
  0
VERTEX
  5
342
  8
0
  6
CONTINUOUS
 62
     7
 10
210.0
 20
0.0
 30
0.0
  0
VERTEX
  5
343
  8
0
  6
CONTINUOUS
 62
     7
 10
214.0
 20
11.0
 30
0.0
  0
VERTEX
  5
344
  8
0
  6
CONTINUOUS
 62
     7
 10
206.0
 20
11.0
 30
0.0
  0
SEQEND
  5
369
  8
0
  6
CONTINUOUS
 62
     7
  0
INSERT
  5
11E
  8
0
 62
     7
  2
*U3
 10
0.0
 20
0.0
 30
0.0
  0
LINE
  5
11F
  8
0
  6
CONTINUOUS
 62
     7
 10
367.5
 20
286.9999999999999
 30
0.0
 11
367.5
 21
292.0
 31
0.0
  0
TEXT
  5
120
  8
0
  6
CONTINUOUS
 62
     7
 10
391.6340909090909
 20
291.8324293485057
 30
0.0
 40
3.5
  1
A
 50
270.0
  0
LINE
  5
121
  8
0
  6
CONTINUOUS
 62
     7
 10
367.5
 20
10.0
 30
0.0
 11
367.5
 21
5.0
 31
0.0
  0
TEXT
  5
122
  8
0
  6
CONTINUOUS
 62
     7
 10
392.9868888333125
 20
4.602272727272727
 30
0.0
 40
3.5
  1
A
  0
LINE
  5
123
  8
0
  6
CONTINUOUS
 62
     7
 10
315.0
 20
286.9999999999999
 30
0.0
 11
315.0
 21
292.0
 31
0.0
  0
TEXT
  5
124
  8
0
  6
CONTINUOUS
 62
     7
 10
339.1340909090909
 20
291.9745607727899
 30
0.0
 40
3.5
  1
B
 50
270.0
  0
LINE
  5
125
  8
0
  6
CONTINUOUS
 62
     7
 10
315.0
 20
10.0
 30
0.0
 11
315.0
 21
5.0
 31
0.0
  0
TEXT
  5
126
  8
0
  6
CONTINUOUS
 62
     7
 10
340.3447574090284
 20
4.602272727272727
 30
0.0
 40
3.5
  1
B
  0
LINE
  5
127
  8
0
  6
CONTINUOUS
 62
     7
 10
262.5
 20
286.9999999999999
 30
0.0
 11
262.5
 21
292.0
 31
0.0
  0
TEXT
  5
128
  8
0
  6
CONTINUOUS
 62
     7
 10
286.6327779167187
 20
291.9399305989747
 30
0.0
 40
3.5
  1
C
 50
270.0
  0
LINE
  5
129
  8
0
  6
CONTINUOUS
 62
     7
 10
262.5
 20
10.0
 30
0.0
 11
262.5
 21
5.0
 31
0.0
  0
TEXT
  5
12A
  8
0
  6
CONTINUOUS
 62
     7
 10
287.8793875828435
 20
4.600959734900587
 30
0.0
 40
3.5
  1
C
  0
LINE
  5
12B
  8
0
  6
CONTINUOUS
 62
     7
 10
210.0
 20
286.9999999999999
 30
0.0
 11
210.0
 21
292.0
 31
0.0
  0
TEXT
  5
12C
  8
0
  6
CONTINUOUS
 62
     7
 10
234.1340909090909
 20
291.9745607727898
 30
0.0
 40
3.5
  1
D
 50
270.0
  0
LINE
  5
12D
  8
0
  6
CONTINUOUS
 62
     7
 10
157.5
 20
286.9999999999999
 30
0.0
 11
157.5
 21
292.0
 31
0.0
  0
TEXT
  5
12E
  8
0
  6
CONTINUOUS
 62
     7
 10
181.6327779167188
 20
292.027463423784
 30
0.0
 40
3.5
  1
E
 50
270.0
  0
LINE
  5
12F
  8
0
  6
CONTINUOUS
 62
     7
 10
157.5
 20
10.0
 30
0.0
 11
157.5
 21
5.0
 31
0.0
  0
LINE
  5
130
  8
0
  6
CONTINUOUS
 62
     7
 10
105.0
 20
286.9999999999999
 30
0.0
 11
105.0
 21
292.0
 31
0.0
  0
TEXT
  5
131
  8
0
  6
CONTINUOUS
 62
     7
 10
129.1327779167188
 20
291.9924502938602
 30
0.0
 40
3.5
  1
F
 50
270.0
  0
LINE
  5
132
  8
0
  6
CONTINUOUS
 62
     7
 10
105.0
 20
10.0
 30
0.0
 11
105.0
 21
5.0
 31
0.0
  0
TEXT
  5
133
  8
0
  6
CONTINUOUS
 62
     7
 10
130.326867887958
 20
4.600959734900587
 30
0.0
 40
3.5
  1
F
  0
LINE
  5
134
  8
0
  6
CONTINUOUS
 62
     7
 10
52.50000000000004
 20
286.9999999999999
 30
0.0
 11
52.50000000000004
 21
292.0
 31
0.0
  0
TEXT
  5
135
  8
0
  6
CONTINUOUS
 62
     7
 10
76.6327779167188
 20
291.9399305989746
 30
0.0
 40
3.5
  1
G
 50
270.0
  0
LINE
  5
136
  8
0
  6
CONTINUOUS
 62
     7
 10
52.50000000000004
 20
10.0
 30
0.0
 11
52.50000000000004
 21
5.0
 31
0.0
  0
TEXT
  5
137
  8
0
  6
CONTINUOUS
 62
     7
 10
77.8793875828436
 20
4.600959734900587
 30
0.0
 40
3.5
  1
G
  0
TEXT
  5
138
  8
0
  6
CONTINUOUS
 62
     7
 10
24.13277791671879
 20
291.9749437288983
 30
0.0
 40
3.5
  1
H
 50
270.0
  0
TEXT
  5
139
  8
0
  6
CONTINUOUS
 62
     7
 10
25.34437445291988
 20
4.600959734900587
 30
0.0
 40
3.5
  1
H
  0
LINE
  5
13A
  8
0
  6
CONTINUOUS
 62
     7
 10
409.9999999999999
 20
74.25
 30
0.0
 11
414.9999999999999
 21
74.25
 31
0.0
  0
TEXT
  5
13B
  8
0
  6
CONTINUOUS
 62
     7
 10
412.9326059772414
 20
35.00777791671877
 30
0.0
 40
3.5
  1
1
  0
LINE
  5
13C
  8
0
  6
CONTINUOUS
 62
     7
 10
10.0
 20
74.25
 30
0.0
 11
5.0
 21
74.25
 31
0.0
  0
TEXT
  5
13D
  8
0
  6
CONTINUOUS
 62
     7
 10
4.600959734900584
 20
38.26171220457671
 30
0.0
 40
3.5
  1
1
 50
270.0
  0
LINE
  5
13E
  8
0
  6
CONTINUOUS
 62
     7
 10
409.9999999999999
 20
148.5
 30
0.0
 11
414.9999999999999
 21
148.5
 31
0.0
  0
TEXT
  5
13F
  8
0
  6
CONTINUOUS
 62
     7
 10
413.163692634738
 20
109.2577779167188
 30
0.0
 40
3.5
  1
2
  0
LINE
  5
140
  8
0
  6
CONTINUOUS
 62
     7
 10
10.0
 20
148.5
 30
0.0
 11
5.0
 21
148.5
 31
0.0
  0
TEXT
  5
141
  8
0
  6
CONTINUOUS
 62
     7
 10
4.600959734900599
 20
112.2806255470802
 30
0.0
 40
3.5
  1
2
 50
270.0
  0
LINE
  5
142
  8
0
  6
CONTINUOUS
 62
     7
 10
409.9999999999999
 20
222.75
 30
0.0
 11
414.9999999999999
 21
222.75
 31
0.0
  0
TEXT
  5
143
  8
0
  6
CONTINUOUS
 62
     7
 10
413.1811991996998
 20
183.5077779167188
 30
0.0
 40
3.5
  1
3
  0
LINE
  5
144
  8
0
  6
CONTINUOUS
 62
     7
 10
10.0
 20
222.75
 30
0.0
 11
5.0
 21
222.75
 31
0.0
  0
TEXT
  5
145
  8
0
  6
CONTINUOUS
 62
     7
 10
4.600959734900584
 20
186.5131189821183
 30
0.0
 40
3.5
  1
3
 50
270.0
  0
TEXT
  5
146
  8
0
  6
CONTINUOUS
 62
     7
 10
413.2351413029886
 20
257.7590909090909
 30
0.0
 40
3.5
  1
4
  0
TEXT
  5
147
  8
0
  6
CONTINUOUS
 62
     7
 10
4.60227272727272
 20
260.7091768788295
 30
0.0
 40
3.5
  1
4
 50
270.0
  0
LINE
  5
148
  8
0
  6
CONTINUOUS
 62
     7
 10
220.0
 20
10.0
 30
0.0
 11
220.0
 21
7.0
 31
0.0
  0
LINE
  5
149
  8
0
  6
CONTINUOUS
 62
     7
 10
200.0
 20
10.0
 30
0.0
 11
200.0
 21
7.0
 31
0.0
  0
LINE
  5
14A
  8
0
  6
CONTINUOUS
 62
     7
 10
230.0
 20
10.0
 30
0.0
 11
230.0
 21
7.0
 31
0.0
  0
LINE
  5
14B
  8
0
  6
CONTINUOUS
 62
     7
 10
190.0
 20
10.0
 30
0.0
 11
190.0
 21
7.0
 31
0.0
  0
LINE
  5
14C
  8
0
  6
CONTINUOUS
 62
     7
 10
240.0
 20
10.0
 30
0.0
 11
240.0
 21
7.0
 31
0.0
  0
LINE
  5
14D
  8
0
  6
CONTINUOUS
 62
     7
 10
180.0
 20
10.0
 30
0.0
 11
180.0
 21
7.0
 31
0.0
  0
LINE
  5
14E
  8
0
  6
CONTINUOUS
 62
     7
 10
250.0
 20
10.0
 30
0.0
 11
250.0
 21
7.0
 31
0.0
  0
LINE
  5
14F
  8
0
  6
CONTINUOUS
 62
     7
 10
170.0
 20
10.0
 30
0.0
 11
170.0
 21
7.0
 31
0.0
  0
LINE
  5
150
  8
0
  6
CONTINUOUS
 62
     7
 10
260.0
 20
10.0
 30
0.0
 11
260.0
 21
5.0
 31
0.0
  0
LINE
  5
151
  8
0
  6
CONTINUOUS
 62
     7
 10
160.0
 20
10.0
 30
0.0
 11
160.0
 21
5.0
 31
0.0
  0
LINE
  5
152
  8
0
  6
CONTINUOUS
 62
     7
 10
260.0
 20
10.0
 30
0.0
 11
160.0
 21
10.0
 31
0.0
  0
LINE
  5
153
  8
0
  6
CONTINUOUS
 62
     7
 10
260.0
 20
7.0
 30
0.0
 11
160.0
 21
7.0
 31
0.0
  0
INSERT
  5
154
  8
0
 62
     7
  2
*U4
 10
0.0
 20
0.0
 30
0.0
  0
INSERT
  5
155
  8
0
 62
     7
  2
*U5
 10
0.0
 20
0.0
 30
0.0
  0
INSERT
  5
156
  8
0
 62
     7
  2
*U6
 10
0.0
 20
0.0
 30
0.0
  0
INSERT
  5
157
  8
0
 62
     7
  2
*U7
 10
0.0
 20
0.0
 30
0.0
  0
ENDBLK
  8
0
  0
BLOCK
  8
0
  2
*U2
 70
     1
 10
0.0
 20
0.0
 30
0.0
  0
SOLID
  5
340
  8
0
  6
CONTINUOUS
 62
     7
 10
11.0
 20
144.5
 30
0.0
 11
6.999999999999999
 21
148.5
 31
0.0
 12
11.0
 22
152.5
 32
0.0
 13
11.0
 23
152.5
 33
0.0
  0
ENDBLK
  8
0
  0
BLOCK
  8
0
  2
*U3
 70
     1
 10
0.0
 20
0.0
 30
0.0
  0
SOLID
  5
346
  8
0
  6
CONTINUOUS
 62
     7
 10
210.0
 20
6.999999999999999
 30
0.0
 11
206.0
 21
11.0
 31
0.0
 12
210.0
 22
11.0
 32
0.0
 13
210.0
 23
11.0
 33
0.0
  0
SOLID
  5
347
  8
0
  6
CONTINUOUS
 62
     7
 10
210.0
 20
6.999999999999999
 30
0.0
 11
210.0
 21
11.0
 31
0.0
 12
214.0
 22
11.0
 32
0.0
 13
214.0
 23
11.0
 33
0.0
  0
ENDBLK
  8
0
  0
BLOCK
  8
0
  2
*U4
 70
     1
 10
0.0
 20
0.0
 30
0.0
  0
SOLID
  5
349
  8
0
  6
CONTINUOUS
 62
     7
 10
0.0
 20
0.0
 30
0.0
 11
0.0
 21
10.0
 31
0.0
 12
2.0
 22
0.0
 32
0.0
 13
2.0
 23
0.0
 33
0.0
  0
SOLID
  5
34A
  8
0
  6
CONTINUOUS
 62
     7
 10
2.0
 20
0.0
 30
0.0
 11
0.0
 21
10.0
 31
0.0
 12
2.0
 22
10.0
 32
0.0
 13
2.0
 23
10.0
 33
0.0
  0
SOLID
  5
34B
  8
0
  6
CONTINUOUS
 62
     7
 10
2.0
 20
0.0
 30
0.0
 11
2.0
 21
2.0
 31
0.0
 12
10.0
 22
0.0
 32
0.0
 13
10.0
 23
0.0
 33
0.0
  0
SOLID
  5
34C
  8
0
  6
CONTINUOUS
 62
     7
 10
10.0
 20
0.0
 30
0.0
 11
2.0
 21
2.0
 31
0.0
 12
10.0
 22
2.0
 32
0.0
 13
10.0
 23
2.0
 33
0.0
  0
ENDBLK
  8
0
  0
BLOCK
  8
0
  2
*U5
 70
     1
 10
0.0
 20
0.0
 30
0.0
  0
SOLID
  5
34E
  8
0
  6
CONTINUOUS
 62
     7
 10
409.9999999999999
 20
0.0
 30
0.0
 11
409.9999999999999
 21
2.0
 31
0.0
 12
418.0
 22
0.0
 32
0.0
 13
418.0
 23
0.0
 33
0.0
  0
SOLID
  5
34F
  8
0
  6
CONTINUOUS
 62
     7
 10
418.0
 20
0.0
 30
0.0
 11
409.9999999999999
 21
2.0
 31
0.0
 12
418.0
 22
2.0
 32
0.0
 13
418.0
 23
2.0
 33
0.0
  0
SOLID
  5
350
  8
0
  6
CONTINUOUS
 62
     7
 10
418.0
 20
0.0
 30
0.0
 11
418.0
 21
10.0
 31
0.0
 12
420.0
 22
0.0
 32
0.0
 13
420.0
 23
0.0
 33
0.0
  0
SOLID
  5
351
  8
0
  6
CONTINUOUS
 62
     7
 10
420.0
 20
0.0
 30
0.0
 11
418.0
 21
10.0
 31
0.0
 12
420.0
 22
10.0
 32
0.0
 13
420.0
 23
10.0
 33
0.0
  0
ENDBLK
  8
0
  0
BLOCK
  8
0
  2
*U6
 70
     1
 10
0.0
 20
0.0
 30
0.0
  0
SOLID
  5
353
  8
0
  6
CONTINUOUS
 62
     7
 10
409.9999999999999
 20
295.0
 30
0.0
 11
409.9999999999999
 21
297.0
 31
0.0
 12
418.0
 22
295.0
 32
0.0
 13
418.0
 23
295.0
 33
0.0
  0
SOLID
  5
354
  8
0
  6
CONTINUOUS
 62
     7
 10
418.0
 20
295.0
 30
0.0
 11
409.9999999999999
 21
297.0
 31
0.0
 12
418.0
 22
297.0
 32
0.0
 13
418.0
 23
297.0
 33
0.0
  0
SOLID
  5
355
  8
0
  6
CONTINUOUS
 62
     7
 10
418.0
 20
286.9999999999999
 30
0.0
 11
418.0
 21
297.0
 31
0.0
 12
420.0
 22
286.9999999999999
 32
0.0
 13
420.0
 23
286.9999999999999
 33
0.0
  0
SOLID
  5
356
  8
0
  6
CONTINUOUS
 62
     7
 10
420.0
 20
286.9999999999999
 30
0.0
 11
418.0
 21
297.0
 31
0.0
 12
420.0
 22
297.0
 32
0.0
 13
420.0
 23
297.0
 33
0.0
  0
ENDBLK
  8
0
  0
BLOCK
  8
0
  2
*U7
 70
     1
 10
0.0
 20
0.0
 30
0.0
  0
SOLID
  5
358
  8
0
  6
CONTINUOUS
 62
     7
 10
0.0
 20
286.9999999999999
 30
0.0
 11
0.0
 21
297.0
 31
0.0
 12
2.0
 22
286.9999999999999
 32
0.0
 13
2.0
 23
286.9999999999999
 33
0.0
  0
SOLID
  5
359
  8
0
  6
CONTINUOUS
 62
     7
 10
2.0
 20
286.9999999999999
 30
0.0
 11
0.0
 21
297.0
 31
0.0
 12
2.0
 22
297.0
 32
0.0
 13
2.0
 23
297.0
 33
0.0
  0
SOLID
  5
35A
  8
0
  6
CONTINUOUS
 62
     7
 10
2.0
 20
295.0
 30
0.0
 11
2.0
 21
297.0
 31
0.0
 12
10.0
 22
295.0
 32
0.0
 13
10.0
 23
295.0
 33
0.0
  0
SOLID
  5
35B
  8
0
  6
CONTINUOUS
 62
     7
 10
10.0
 20
295.0
 30
0.0
 11
2.0
 21
297.0
 31
0.0
 12
10.0
 22
297.0
 32
0.0
 13
10.0
 23
297.0
 33
0.0
  0
ENDBLK
  8
0
  0
ENDSEC
  0
SECTION
  2
ENTITIES
  0
LINE
  5
70
  8
1
  6
CONTINUOUS
 62
     7
 10
-286.1326073387
 20
1206.8471817797
 30
0.0
 11
-286.1326073387
 21
1208.3471817797
 31
0.0
  0
LINE
  5
71
  8
1
  6
CONTINUOUS
 62
     7
 10
-298.6715353387
 20
1211.3471817797
 30
0.0
 11
-298.6715353387
 21
1211.8471817797
 31
0.0
  0
LINE
  5
72
  8
1
  6
CONTINUOUS
 62
     7
 10
-304.1715353387
 20
1211.8471817797
 30
0.0
 11
-304.1715353387
 21
1211.3471817797
 31
0.0
  0
ARC
  5
73
  8
1
  6
CONTINUOUS
 62
     7
 10
-283.4215353387
 20
1200.6955226203
 30
0.0
 40
16.3332547308
 50
80.9590607153
 51
99.04093928470003
  0
LINE
  5
74
  8
1
  6
CONTINUOUS
 62
     7
 10
-304.1715353387
 20
1211.3471817797
 30
0.0
 11
-302.9215353387
 21
1210.0971817797
 31
0.0
  0
LINE
  5
75
  8
1
  6
CONTINUOUS
 62
     7
 10
-299.1715353387
 20
1208.8471817797
 30
0.0
 11
-299.9215353387
 21
1209.5971817797
 31
0.0
  0
LINE
  5
76
  8
1
  6
CONTINUOUS
 62
     7
 10
-302.9215353387
 20
1209.5971817797
 30
0.0
 11
-303.6715353387
 21
1208.8471817797
 31
0.0
  0
LINE
  5
77
  8
1
  6
CONTINUOUS
 62
     7
 10
-298.9215353387
 20
1206.3223997797
 30
0.0
 11
-298.9215353387
 21
1206.3471817797
 31
0.0
  0
LINE
  5
78
  8
1
  6
CONTINUOUS
 62
     7
 10
-303.9215353387
 20
1206.3471817797
 30
0.0
 11
-303.9215353387
 21
1206.3223997797
 31
0.0
  0
LINE
  5
79
  8
1
  6
CONTINUOUS
 62
     7
 10
-281.1715353387
 20
1208.8471817797
 30
0.0
 11
-280.7104633387
 21
1208.3471817797
 31
0.0
  0
LINE
  5
7A
  8
1
  6
CONTINUOUS
 62
     7
 10
-281.9215353387
 20
1210.0971817797
 30
0.0
 11
-280.6715353387
 21
1211.3471817797
 31
0.0
  0
ARC
  5
7B
  8
1
  6
CONTINUOUS
 62
     7
 10
-285.8310053387
 20
1215.8382817797
 30
0.0
 40
1.0
 50
99.04093928470003
 51
175.0
  0
LINE
  5
7C
  8
1
  6
CONTINUOUS
 62
     7
 10
-304.9215353387
 20
1214.8471817797
 30
0.0
 11
-297.9215353387
 21
1214.8471817797
 31
0.0
  0
LINE
  5
7D
  8
1
  6
CONTINUOUS
 62
     7
 10
-280.9215353387
 20
1206.3471817797
 30
0.0
 11
-285.9215353387
 21
1206.3471817797
 31
0.0
  0
LINE
  5
7E
  8
1
  6
CONTINUOUS
 62
     7
 10
-286.1715353387
 20
1211.8471817797
 30
0.0
 11
-286.1715353387
 21
1211.3471817797
 31
0.0
  0
ARC
  5
7F
  8
1
  6
CONTINUOUS
 62
     7
 10
-281.0120653387
 20
1215.8382817797
 30
0.0
 40
1.0
 50
5.0
 51
80.9590607153
  0
LINE
  5
80
  8
1
  6
CONTINUOUS
 62
     7
 10
-298.6715353387
 20
1211.3471817797
 30
0.0
 11
-304.1715353387
 21
1211.3471817797
 31
0.0
  0
LINE
  5
81
  8
1
  6
CONTINUOUS
 62
     7
 10
-304.1326073387
 20
1206.8471817797
 30
0.0
 11
-303.9101243387
 21
1206.3471817797
 31
0.0
  0
ARC
  5
82
  8
1
  6
CONTINUOUS
 62
     7
 10
-304.9215353387
 20
1212.6721817797
 30
0.0
 40
0.825
 50
232.694817
 51
270.0
  0
LINE
  5
83
  8
1
  6
CONTINUOUS
 62
     7
 10
-279.9215353387
 20
1214.8471817797
 30
0.0
 11
-280.0158703387
 21
1215.9254377797
 31
0.0
  0
LINE
  5
84
  8
1
  6
CONTINUOUS
 62
     7
 10
-281.9215353387
 20
1209.5971817797
 30
0.0
 11
-281.9215353387
 21
1210.0971817797
 31
0.0
  0
LINE
  5
85
  8
1
  6
CONTINUOUS
 62
     7
 10
-298.9215353387
 20
1206.3471817797
 30
0.0
 11
-303.9215353387
 21
1206.3471817797
 31
0.0
  0
LINE
  5
86
  8
1
  6
CONTINUOUS
 62
     7
 10
-298.9329463387
 20
1206.3471817797
 30
0.0
 11
-298.7104633387
 21
1206.8471817797
 31
0.0
  0
LINE
  5
87
  8
1
  6
CONTINUOUS
 62
     7
 10
-299.9215353387
 20
1210.0971817797
 30
0.0
 11
-298.6715353387
 21
1211.3471817797
 31
0.0
  0
LINE
  5
88
  8
1
  6
CONTINUOUS
 62
     7
 10
-298.7104633387
 20
1208.3471817797
 30
0.0
 11
-298.7104633387
 21
1206.8471817797
 31
0.0
  0
ARC
  5
89
  8
1
  6
CONTINUOUS
 62
     7
 10
-297.9215353387
 20
1212.6721817797
 30
0.0
 40
0.825
 50
270.0
 51
307.305183
  0
LINE
  5
8A
  8
1
  6
CONTINUOUS
 62
     7
 10
-281.9215353387
 20
1210.0971817797
 30
0.0
 11
-284.9215353387
 21
1210.0971817797
 31
0.0
  0
ARC
  5
8B
  8
1
  6
CONTINUOUS
 62
     7
 10
-286.9215353387
 20
1212.6721817797
 30
0.0
 40
0.825
 50
232.694817
 51
270.0
  0
LINE
  5
8C
  8
1
  6
CONTINUOUS
 62
     7
 10
-280.6715353387
 20
1211.3471817797
 30
0.0
 11
-280.6715353387
 21
1211.8471817797
 31
0.0
  0
LINE
  5
8D
  8
1
  6
CONTINUOUS
 62
     7
 10
-284.9215353387
 20
1210.0971817797
 30
0.0
 11
-284.9215353387
 21
1209.5971817797
 31
0.0
  0
LINE
  5
8E
  8
1
  6
CONTINUOUS
 62
     7
 10
-286.8272003387
 20
1215.9254377797
 30
0.0
 11
-286.9215353387
 21
1214.8471817797
 31
0.0
  0
LINE
  5
8F
  8
1
  6
CONTINUOUS
 62
     7
 10
-286.9215353387
 20
1214.8471817797
 30
0.0
 11
-279.9215353387
 21
1214.8471817797
 31
0.0
  0
LINE
  5
90
  8
1
  6
CONTINUOUS
 62
     7
 10
-280.9329463387
 20
1206.3471817797
 30
0.0
 11
-280.7104633387
 21
1206.8471817797
 31
0.0
  0
LINE
  5
91
  8
1
  6
CONTINUOUS
 62
     7
 10
-305.4215353387
 20
1212.0159607797
 30
0.0
 11
-305.4215353387
 21
1214.6784017797
 31
0.0
  0
LINE
  5
92
  8
1
  6
CONTINUOUS
 62
     7
 10
-297.4215353387
 20
1214.6784017797
 30
0.0
 11
-297.4215353387
 21
1212.0159607797
 31
0.0
  0
LINE
  5
93
  8
1
  6
CONTINUOUS
 62
     7
 10
-299.9215353387
 20
1210.0971817797
 30
0.0
 11
-302.9215353387
 21
1210.0971817797
 31
0.0
  0
LINE
  5
94
  8
1
  6
CONTINUOUS
 62
     7
 10
-280.9215353387
 20
1206.3223997797
 30
0.0
 11
-280.9215353387
 21
1206.3471817797
 31
0.0
  0
ARC
  5
95
  8
1
  6
CONTINUOUS
 62
     7
 10
-279.9215353387
 20
1212.6721817797
 30
0.0
 40
0.825
 50
270.0
 51
307.305183
  0
LINE
  5
96
  8
1
  6
CONTINUOUS
 62
     7
 10
-286.1326073387
 20
1206.8471817797
 30
0.0
 11
-285.9101243387
 21
1206.3471817797
 31
0.0
  0
ARC
  5
97
  8
1
  6
CONTINUOUS
 62
     7
 10
-286.9215353387
 20
1214.0221817797
 30
0.0
 40
0.825
 50
90.0
 51
127.305183
  0
LINE
  5
98
  8
1
  6
CONTINUOUS
 62
     7
 10
-284.9215353387
 20
1209.5971817797
 30
0.0
 11
-285.6715353387
 21
1208.8471817797
 31
0.0
  0
LINE
  5
99
  8
1
  6
CONTINUOUS
 62
     7
 10
-285.9215353387
 20
1206.3471817797
 30
0.0
 11
-285.9215353387
 21
1206.3223997797
 31
0.0
  0
LINE
  5
9A
  8
1
  6
CONTINUOUS
 62
     7
 10
-299.1715353387
 20
1208.8471817797
 30
0.0
 11
-298.7104633387
 21
1208.3471817797
 31
0.0
  0
LINE
  5
9B
  8
1
  6
CONTINUOUS
 62
     7
 10
-286.1326073387
 20
1208.3471817797
 30
0.0
 11
-285.6715353387
 21
1208.8471817797
 31
0.0
  0
ARC
  5
9C
  8
1
  6
CONTINUOUS
 62
     7
 10
-279.9215353387
 20
1214.0221817797
 30
0.0
 40
0.825
 50
52.694817
 51
90.0
  0
LINE
  5
9D
  8
1
  6
CONTINUOUS
 62
     7
 10
-281.9215353387
 20
1209.5971817797
 30
0.0
 11
-284.9215353387
 21
1209.5971817797
 31
0.0
  0
LINE
  5
9E
  8
1
  6
CONTINUOUS
 62
     7
 10
-286.1715353387
 20
1211.3471817797
 30
0.0
 11
-284.9215353387
 21
1210.0971817797
 31
0.0
  0
LINE
  5
9F
  8
1
  6
CONTINUOUS
 62
     7
 10
-281.1715353387
 20
1208.8471817797
 30
0.0
 11
-281.9215353387
 21
1209.5971817797
 31
0.0
  0
LINE
  5
A0
  8
1
  6
CONTINUOUS
 62
     7
 10
-304.9215353387
 20
1211.8471817797
 30
0.0
 11
-297.9215353387
 21
1211.8471817797
 31
0.0
  0
LINE
  5
A1
  8
1
  6
CONTINUOUS
 62
     7
 10
-299.9215353387
 20
1209.5971817797
 30
0.0
 11
-302.9215353387
 21
1209.5971817797
 31
0.0
  0
LINE
  5
A2
  8
1
  6
CONTINUOUS
 62
     7
 10
-304.1326073387
 20
1208.3471817797
 30
0.0
 11
-303.6715353387
 21
1208.8471817797
 31
0.0
  0
LINE
  5
A3
  8
1
  6
CONTINUOUS
 62
     7
 10
-304.1326073387
 20
1206.8471817797
 30
0.0
 11
-304.1326073387
 21
1208.3471817797
 31
0.0
  0
LINE
  5
A4
  8
1
  6
CONTINUOUS
 62
     7
 10
-280.7104633387
 20
1208.3471817797
 30
0.0
 11
-280.7104633387
 21
1206.8471817797
 31
0.0
  0
ARC
  5
A5
  8
1
  6
CONTINUOUS
 62
     7
 10
-304.9215353387
 20
1214.0221817797
 30
0.0
 40
0.825
 50
90.0
 51
127.305183
  0
LINE
  5
A6
  8
1
  6
CONTINUOUS
 62
     7
 10
-280.6715353387
 20
1211.3471817797
 30
0.0
 11
-286.1715353387
 21
1211.3471817797
 31
0.0
  0
ARC
  5
A7
  8
1
  6
CONTINUOUS
 62
     7
 10
-297.9215353387
 20
1214.0221817797
 30
0.0
 40
0.825
 50
52.694817
 51
90.0
  0
LINE
  5
A8
  8
1
  6
CENTER
 62
     5
 10
-836.967690068
 20
1092.0471967797
 30
0.0
 11
-836.967690068
 21
1218.0471967797
 31
0.0
  0
CIRCLE
  5
AA
  8
1
  6
CONTINUOUS
 62
     7
 10
-836.967690068
 20
1155.0471967797
 30
0.0
 40
41.912083
  0
LINE
  5
AB
  8
1
  6
CENTER
 62
     5
 10
-899.967690068
 20
1155.0471967797
 30
0.0
 11
-773.967690068
 21
1155.0471967797
 31
0.0
  0
LINE
  5
AC
  8
1
  6
CONTINUOUS
 62
     7
 10
-390.8921382821
 20
1205.1461797797
 30
0.0
 11
-405.0547882821
 21
1205.5255367797
 31
0.0
  0
ARC
  5
AD
  8
1
  6
CONTINUOUS
 62
     7
 10
-384.7731802821
 20
1214.1995137797
 30
0.0
 40
11.333826
 50
239.341434
 51
296.906884
  0
LINE
  5
AE
  8
1
  6
CONTINUOUS
 62
     7
 10
-378.6892472821
 20
1204.8193167797
 30
0.0
 11
-379.2970402821
 21
1204.8355967797
 31
0.0
  0
ARC
  5
AF
  8
1
  6
CONTINUOUS
 62
     7
 10
-378.7160232821
 20
1203.8196747797
 30
0.0
 40
1.0
 50
30.0
 51
88.465659
  0
ARC
  5
B0
  8
1
  6
CONTINUOUS
 62
     7
 10
-378.7160232821
 20
1106.2889887797
 30
0.0
 40
1.0
 50
271.5343409999999
 51
330.0
  0
LINE
  5
B1
  8
1
  6
CONTINUOUS
 62
     7
 10
-374.1298142821
 20
1107.5543317797
 30
0.0
 11
-374.1298142821
 21
1202.5543317797
 31
0.0
  0
ARC
  5
B2
  8
1
  6
CONTINUOUS
 62
     7
 10
-405.1083402821
 20
1203.5262537797
 30
0.0
 40
2.0
 50
88.465659
 51
145.0
  0
LINE
  5
B3
  8
1
  6
CONTINUOUS
 62
     7
 10
-405.0547882821
 20
1104.5831267797
 30
0.0
 11
-378.6892472821
 21
1105.2893467797
 31
0.0
  0
LINE
  5
B4
  8
1
  6
CONTINUOUS
 62
     7
 10
-407.8803332821
 20
1107.0543317797
 30
0.0
 11
-407.8803332821
 21
1203.0543317797
 31
0.0
  0
LINE
  5
B5
  8
1
  6
CONTINUOUS
 62
     7
 10
-379.5493642821
 20
1204.3880637797
 30
0.0
 11
-379.9312152821
 21
1205.8131507797
 31
0.0
  0
LINE
  5
B6
  8
1
  6
CONTINUOUS
 62
     7
 10
-390.6224482821
 20
1204.7157977797
 30
0.0
 11
-390.3284132821
 21
1205.8131507797
 31
0.0
  0
LINE
  5
B7
  8
1
  6
CONTINUOUS
 62
     7
 10
-380.8971412821
 20
1206.5543317797
 30
0.0
 11
-389.3624872821
 21
1206.5543317797
 31
0.0
  0
ARC
  5
B8
  8
1
  6
CONTINUOUS
 62
     7
 10
-380.8971412821
 20
1205.5543317797
 30
0.0
 40
1.0
 50
15.0
 51
90.0
  0
ARC
  5
B9
  8
1
  6
CONTINUOUS
 62
     7
 10
-389.3624872821
 20
1205.5543317797
 30
0.0
 40
1.0
 50
90.0
 51
165.0
  0
ARC
  5
BA
  8
1
  6
CONTINUOUS
 62
     7
 10
-405.1083402821
 20
1106.5824097797
 30
0.0
 40
2.0
 50
215.0
 51
271.5343409999999
  0
LINE
  5
BB
  8
1
  6
CONTINUOUS
 62
     7
 10
-544.1298142821
 20
1199.4043317797
 30
0.0
 11
-545.1298142821
 21
1199.4043317797
 31
0.0
  0
LINE
  5
BC
  8
1
  6
CONTINUOUS
 62
     7
 10
-545.1298142821
 20
1110.7043317797
 30
0.0
 11
-544.1298142821
 21
1110.7043317797
 31
0.0
  0
ARC
  5
BD
  8
1
  6
CONTINUOUS
 62
     7
 10
-425.0401362821
 20
1293.0523699647
 30
0.0
 40
0.513153
 50
101.794745
 51
176.751123
  0
LINE
  5
BE
  8
1
  6
CONTINUOUS
 62
     7
 10
-544.1298142821
 20
1104.5543317797
 30
0.0
 11
-544.1298142821
 21
1205.5543317797
 31
0.0
  0
LINE
  5
BF
  8
1
  6
CONTINUOUS
 62
     7
 10
-471.1298142821
 20
1205.5543317797
 30
0.0
 11
-471.1298142821
 21
1104.5540885982
 31
0.0
  0
LINE
  5
C0
  8
1
  6
CONTINUOUS
 62
     7
 10
-471.1298142821
 20
1134.1365468799
 30
0.0
 11
-430.1298142821
 21
1134.1365468799
 31
0.0
  0
LINE
  5
C1
  8
1
  6
CONTINUOUS
 62
     7
 10
-430.1298142821
 20
1104.5543317797
 30
0.0
 11
-544.1298142821
 21
1104.5543317797
 31
0.0
  0
LINE
  5
C2
  8
1
  6
CONTINUOUS
 62
     7
 10
-471.1298142821
 20
1175.9721166795
 30
0.0
 11
-430.1298142821
 21
1175.9721166795
 31
0.0
  0
CIRCLE
  5
C3
  8
1
  6
CONTINUOUS
 62
     7
 10
-836.960555068
 20
1155.6151337797
 30
0.0
 40
64.229009
  0
ARC
  5
C4
  8
1
  6
CONTINUOUS
 62
     7
 10
-385.1298142821
 20
1291.2908149647
 30
0.0
 40
4.325
 50
22.353426
 51
37.646574
  0
LINE
  5
C5
  8
1
  6
CONTINUOUS
 62
     7
 10
-425.5524642821
 20
1252.8353089647
 30
0.0
 11
-419.0144442821
 21
1252.2908149647
 31
0.0
  0
LINE
  5
C6
  8
1
  6
CONTINUOUS
 62
     7
 10
-544.1298142821
 20
1205.5543317797
 30
0.0
 11
-430.1298142821
 21
1205.5543317797
 31
0.0
  0
LINE
  5
C7
  8
1
  6
CONTINUOUS
 62
     7
 10
-381.1298142821
 20
1292.9356929647
 30
0.0
 11
-381.1298142821
 21
1289.6459369647
 31
0.0
  0
LINE
  5
C8
  8
1
  6
CONTINUOUS
 62
     7
 10
-419.0144442821
 20
1295.6484779647
 30
0.0
 11
-426.4184892821
 21
1293.6453097761
 31
0.0
  0
LINE
  5
C9
  8
1
  6
CONTINUOUS
 62
     7
 10
-425.5524642821
 20
1293.0814519647
 30
0.0
 11
-425.5524642821
 21
1252.8353089647
 31
0.0
  0
LINE
  5
CA
  8
1
  6
CONTINUOUS
 62
     7
 10
-426.1298142821
 20
1251.2908149647
 30
0.0
 11
-430.1298142821
 21
1251.2908149647
 31
0.0
  0
LINE
  5
CB
  8
1
  6
CONTINUOUS
 62
     7
 10
-388.5543202821
 20
1293.9324769647
 30
0.0
 11
-385.7053082821
 21
1295.5773559647
 31
0.0
  0
LINE
  5
CC
  8
1
  6
CONTINUOUS
 62
     7
 10
-426.4184892821
 20
1293.6453097761
 30
0.0
 11
-426.4184892821
 21
1251.8471659647
 31
0.0
  0
ARC
  5
CD
  8
1
  6
CONTINUOUS
 62
     7
 10
-385.1298142821
 20
1291.2908149647
 30
0.0
 40
4.325
 50
142.353426
 51
157.646574
  0
ARC
  5
CE
  8
1
  6
CONTINUOUS
 62
     7
 10
-385.1298142821
 20
1291.2908149647
 30
0.0
 40
4.325
 50
82.353426
 51
97.646574
  0
LINE
  5
CF
  8
1
  6
CONTINUOUS
 62
     7
 10
-419.0144442821
 20
1252.2908149647
 30
0.0
 11
-426.1298142821
 21
1251.2908149647
 31
0.0
  0
LINE
  5
D0
  8
1
  6
CONTINUOUS
 62
     7
 10
-426.4184892821
 20
1251.8471659647
 30
0.0
 11
-425.5524642821
 21
1252.8353089647
 31
0.0
  0
LINE
  5
D1
  8
1
  6
CONTINUOUS
 62
     7
 10
-422.0714322821
 20
1294.3782549647
 30
0.0
 11
-419.0144442821
 21
1295.6484779647
 31
0.0
  0
LINE
  5
D2
  8
1
  6
CONTINUOUS
 62
     7
 10
-384.5543202821
 20
1295.5773559647
 30
0.0
 11
-381.7053082821
 21
1293.9324769647
 31
0.0
  0
LINE
  5
D3
  8
1
  6
CONTINUOUS
 62
     7
 10
-426.4184892821
 20
1293.2134644622
 30
0.0
 11
-422.0714322821
 21
1294.3782549647
 31
0.0
  0
LINE
  5
D4
  8
1
  6
CONTINUOUS
 62
     7
 10
-430.1298142821
 20
1205.5543317797
 30
0.0
 11
-430.1298142821
 21
1104.5543317797
 31
0.0
  0
TEXT
  5
D5
  8
1
  6
CONTINUOUS
 62
     5
 10
-308.6631860916404
 20
1086.587482909091
 30
0.0
 40
3.5
  1
ＬＰＫＨ－８２Ｐ
 41
0.996045
 51
15.0
  0
LINE
  5
D6
  8
1
  6
CONTINUOUS
 62
     7
 10
-419.0144442821
 20
1150.4119947797
 30
0.0
 11
-419.0144442821
 21
1159.6966687797
 31
0.0
  0
ARC
  5
D7
  8
1
  6
CONTINUOUS
 62
     7
 10
-297.8758913387
 20
1196.3223997797
 30
0.0
 40
10.0
 50
79.524686
 51
90.0
  0
LINE
  5
D8
  8
1
  6
CONTINUOUS
 62
     7
 10
-426.4184892821
 20
1148.4088265911
 30
0.0
 11
-426.4184892821
 21
1106.6106827797
 31
0.0
  0
LINE
  5
D9
  8
1
  6
CONTINUOUS
 62
     7
 10
-390.4385172821
 20
1205.4018307797
 30
0.0
 11
-390.5275322821
 21
1205.2862497797
 31
0.0
  0
ARC
  5
DA
  8
1
  6
CONTINUOUS
 62
     7
 10
-305.6542083387
 20
1205.3223997797
 30
0.0
 40
1.0
 50
90.0
 51
165.0
  0
LINE
  5
DB
  8
1
  6
CONTINUOUS
 62
     7
 10
-426.4184892821
 20
1162.1316822822
 30
0.0
 11
-422.0714322821
 21
1160.9668917797
 31
0.0
  0
ARC
  5
DC
  8
1
  6
CONTINUOUS
 62
     7
 10
-425.0401362821
 20
1147.8158867797
 30
0.0
 40
0.513153
 50
101.794745
 51
176.751123
  0
LINE
  5
DD
  8
1
  6
CONTINUOUS
 62
     7
 10
-286.9671793387
 20
1206.3223997797
 30
0.0
 11
-279.1888623387
 21
1206.3223997797
 31
0.0
  0
LINE
  5
DE
  8
1
  6
CONTINUOUS
 62
     7
 10
-407.8803332821
 20
1107.0543317797
 30
0.0
 11
-406.7466452821
 21
1105.4352567797
 31
0.0
  0
LINE
  5
DF
  8
1
  6
CONTINUOUS
 62
     7
 10
-297.8758913387
 20
1206.3223997797
 30
0.0
 11
-305.6542083387
 21
1206.3223997797
 31
0.0
  0
LINE
  5
E0
  8
1
  6
CONTINUOUS
 62
     7
 10
-377.3648892821
 20
1203.4794427797
 30
0.0
 11
-377.8499972821
 21
1204.3196747797
 31
0.0
  0
LINE
  5
E1
  8
1
  6
CONTINUOUS
 62
     7
 10
-376.1965852821
 20
1107.3735127797
 30
0.0
 11
-374.1298142821
 21
1107.5543317797
 31
0.0
  0
LINE
  5
E2
  8
1
  6
CONTINUOUS
 62
     7
 10
-425.5524642821
 20
1107.5988257797
 30
0.0
 11
-419.0144442821
 21
1107.0543317797
 31
0.0
  0
ARC
  5
E3
  8
1
  6
CONTINUOUS
 62
     7
 10
-279.1888623387
 20
1205.3223997797
 30
0.0
 40
1.0
 50
15.0
 51
90.0
  0
LINE
  5
E4
  8
1
  6
CONTINUOUS
 62
     7
 10
-374.1298142821
 20
1202.5543317797
 30
0.0
 11
-376.1965852821
 21
1202.7351507797
 31
0.0
  0
CIRCLE
  5
E5
  8
1
  6
CONTINUOUS
 62
     7
 10
-292.4215353387
 20
1154.8223997797
 30
0.0
 40
39.5
  0
LINE
  5
E6
  8
1
  6
CENTER
 62
     5
 10
-292.4215353387
 20
1209.1085089254
 30
0.0
 11
-292.4215353387
 21
1102.4718683181
 31
0.0
  0
LINE
  5
E7
  8
1
  6
CONTINUOUS
 62
     7
 10
-287.4215353387
 20
1212.0159607797
 30
0.0
 11
-287.4215353387
 21
1214.6784017797
 31
0.0
  0
LINE
  5
E8
  8
1
  6
CONTINUOUS
 62
     7
 10
-422.0714322821
 20
1160.9668917797
 30
0.0
 11
-419.0144442821
 21
1159.6966687797
 31
0.0
  0
LINE
  5
E9
  8
1
  6
CONTINUOUS
 62
     7
 10
-407.8803332821
 20
1203.0543317797
 30
0.0
 11
-419.0144442821
 21
1203.0543317797
 31
0.0
  0
LINE
  5
EA
  8
1
  6
CONTINUOUS
 62
     7
 10
-422.0714322821
 20
1149.1417717797
 30
0.0
 11
-419.0144442821
 21
1150.4119947797
 31
0.0
  0
LINE
  5
EB
  8
1
  6
CENTER
 62
     5
 10
-346.1515008503
 20
1155.0543317797
 30
0.0
 11
-237.9986994762
 21
1155.0543317797
 31
0.0
  0
LINE
  5
EC
  8
1
  6
CONTINUOUS
 62
     7
 10
-286.9215353387
 20
1211.8471817797
 30
0.0
 11
-279.9215353387
 21
1211.8471817797
 31
0.0
  0
LINE
  5
ED
  8
1
  6
CONTINUOUS
 62
     7
 10
-279.4215353387
 20
1214.6784017797
 30
0.0
 11
-279.4215353387
 21
1212.0159607797
 31
0.0
  0
ARC
  5
EE
  8
1
  6
CONTINUOUS
 62
     7
 10
-379.2855832821
 20
1205.3354687797
 30
0.0
 40
0.5
 50
195.0
 51
268.465659
  0
LINE
  5
EF
  8
1
  6
CONTINUOUS
 62
     7
 10
-426.4184892821
 20
1161.6998369683
 30
0.0
 11
-426.4184892821
 21
1203.4979807797
 31
0.0
  0
ARC
  5
F0
  8
1
  6
CONTINUOUS
 62
     7
 10
-286.9671793387
 20
1196.3223997797
 30
0.0
 40
10.0
 50
90.0
 51
100.475314
  0
LINE
  5
F1
  8
1
  6
CONTINUOUS
 62
     7
 10
-377.8499972821
 20
1105.7889887797
 30
0.0
 11
-377.3648892821
 21
1106.6292207797
 31
0.0
  0
ARC
  5
F2
  8
1
  6
CONTINUOUS
 62
     7
 10
-376.0658512821
 20
1105.8792207797
 30
0.0
 40
1.5
 50
95.0
 51
150.0
  0
ARC
  5
F3
  8
1
  6
CONTINUOUS
 62
     7
 10
-376.0658512821
 20
1204.2294427797
 30
0.0
 40
1.5
 50
210.0
 51
265.0
  0
LINE
  5
F4
  8
1
  6
CONTINUOUS
 62
     7
 10
-419.0144442821
 20
1150.4119947797
 30
0.0
 11
-426.4184892821
 21
1148.4088265911
 31
0.0
  0
LINE
  5
F5
  8
1
  6
CONTINUOUS
 62
     7
 10
-426.4184892821
 20
1147.9769812772
 30
0.0
 11
-422.0714322821
 21
1149.1417717797
 31
0.0
  0
LINE
  5
F6
  8
1
  6
CONTINUOUS
 62
     7
 10
-426.1298142821
 20
1106.0543317797
 30
0.0
 11
-430.1298142821
 21
1106.0543317797
 31
0.0
  0
LINE
  5
F7
  8
1
  6
CONTINUOUS
 62
     7
 10
-426.4184892821
 20
1106.6106827797
 30
0.0
 11
-425.5524642821
 21
1107.5988257797
 31
0.0
  0
CIRCLE
  5
F8
  8
1
  6
CONTINUOUS
 62
     7
 10
-292.4215353387
 20
1154.8223997797
 30
0.0
 40
44.494372
  0
CIRCLE
  5
F9
  8
1
  6
CONTINUOUS
 62
     7
 10
-292.4215353387
 20
1154.8223997797
 30
0.0
 40
47.5
  0
ARC
  5
FA
  8
1
  6
CONTINUOUS
 62
     7
 10
-305.0484483387
 20
1103.3305217797
 30
0.0
 40
103.118995
 50
74.495854
 51
77.893603
  0
ARC
  5
FB
  8
1
  6
CONTINUOUS
 62
     7
 10
-292.4215353387
 20
1225.8223997797
 30
0.0
 40
20.0
 50
259.524686
 51
280.475314
  0
LINE
  5
FC
  8
1
  6
CONTINUOUS
 62
     7
 10
-425.5524642821
 20
1162.2636947797
 30
0.0
 11
-425.5524642821
 21
1202.5098377797
 31
0.0
  0
LINE
  5
FD
  8
1
  6
CONTINUOUS
 62
     7
 10
-419.0144442821
 20
1107.0543317797
 30
0.0
 11
-426.1298142821
 21
1106.0543317797
 31
0.0
  0
LINE
  5
FE
  8
1
  6
CONTINUOUS
 62
     7
 10
-306.6201343387
 20
1205.5812187797
 30
0.0
 11
-307.3905443387
 21
1202.7060077797
 31
0.0
  0
LINE
  5
FF
  8
1
  6
CONTINUOUS
 62
     7
 10
-419.0144442821
 20
1203.0543317797
 30
0.0
 11
-426.1298142821
 21
1204.0543317797
 31
0.0
  0
LINE
  5
100
  8
1
  6
CONTINUOUS
 62
     7
 10
-425.5524642821
 20
1202.5098377797
 30
0.0
 11
-419.0144442821
 21
1203.0543317797
 31
0.0
  0
LINE
  5
101
  8
1
  6
CONTINUOUS
 62
     7
 10
-419.0144442821
 20
1107.0543317797
 30
0.0
 11
-407.8803332821
 21
1107.0543317797
 31
0.0
  0
LINE
  5
102
  8
1
  6
CONTINUOUS
 62
     7
 10
-426.4184892821
 20
1203.4979807797
 30
0.0
 11
-425.5524642821
 21
1202.5098377797
 31
0.0
  0
LINE
  5
103
  8
1
  6
CONTINUOUS
 62
     7
 10
-406.7466452821
 20
1204.6734067797
 30
0.0
 11
-407.8803332821
 21
1203.0543317797
 31
0.0
  0
ARC
  5
104
  8
1
  6
CONTINUOUS
 62
     7
 10
-425.0401362821
 20
1162.2927767797
 30
0.0
 40
0.513153
 50
183.248877
 51
258.205255
  0
LINE
  5
105
  8
1
  6
CONTINUOUS
 62
     7
 10
-426.1298142821
 20
1204.0543317797
 30
0.0
 11
-430.1298142821
 21
1204.0543317797
 31
0.0
  0
LINE
  5
106
  8
1
  6
CONTINUOUS
 62
     7
 10
-419.0144442821
 20
1159.6966687797
 30
0.0
 11
-426.4184892821
 21
1161.6998369683
 31
0.0
  0
LINE
  5
107
  8
1
  6
CONTINUOUS
 62
     7
 10
-425.5524642821
 20
1147.8449687797
 30
0.0
 11
-425.5524642821
 21
1107.5988257797
 31
0.0
  0
ARC
  5
108
  8
1
  6
CONTINUOUS
 62
     7
 10
-292.4215353387
 20
1155.0543317797
 30
0.0
 40
49.919796
 50
79.613396
 51
100.386604
  0
ARC
  5
109
  8
1
  6
CONTINUOUS
 62
     7
 10
-292.4215353387
 20
1154.8223997797
 30
0.0
 40
50.471205
 50
107.142646
 51
72.85735399999997
  0
LINE
  5
10A
  8
1
  6
CONTINUOUS
 62
     7
 10
-307.3912353387
 20
1202.7059777797
 30
0.0
 11
-301.4215353387
 21
1204.1561317797
 31
0.0
  0
LINE
  5
10B
  8
1
  6
CONTINUOUS
 62
     7
 10
-277.4524833387
 20
1202.7058497797
 30
0.0
 11
-278.2229363387
 21
1205.5812187797
 31
0.0
  0
ARC
  5
10C
  8
1
  6
CONTINUOUS
 62
     7
 10
-390.8748852821
 20
1205.6458967797
 30
0.0
 40
0.5
 50
268.465659
 51
314.003812
  0
INSERT
  5
10E
  8
0
 62
     7
  2
D_FRAME_DRAWING_21
 10
0.0
 20
0.0
 30
0.0
  0
LINE
  5
158
  8
1
  6
CONTINUOUS
 62
     7
 10
-382.6298142821
 20
1206.5543317797
 30
0.0
 11
-382.6298142821
 21
1206.5791137797
 31
0.0
  0
LINE
  5
159
  8
1
  6
CONTINUOUS
 62
     7
 10
-387.8798142821
 20
1211.5791137797
 30
0.0
 11
-386.6298142821
 21
1210.3291137797
 31
0.0
  0
ARC
  5
15A
  8
1
  6
CONTINUOUS
 62
     7
 10
-385.1298142821
 20
1200.9274546203
 30
0.0
 40
16.3332547308
 50
80.9590607153
 51
99.04093928470003
  0
CIRCLE
  5
15B
  8
1
  6
CONTINUOUS
 62
     7
 10
-836.967690068
 20
1155.0471967797
 30
0.0
 40
61.0
  0
LINE
  5
15C
  8
1
  6
CONTINUOUS
 62
     7
 10
-388.6298142821
 20
1215.0791137797
 30
0.0
 11
-381.6298142821
 21
1215.0791137797
 31
0.0
  0
LINE
  5
15D
  8
1
  6
CONTINUOUS
 62
     7
 10
-383.6298142821
 20
1210.3291137797
 30
0.0
 11
-386.6298142821
 21
1210.3291137797
 31
0.0
  0
LINE
  5
15E
  8
1
  6
CONTINUOUS
 62
     7
 10
-382.8798142821
 20
1209.0791137797
 30
0.0
 11
-382.4187422821
 21
1208.5791137797
 31
0.0
  0
LINE
  5
15F
  8
1
  6
CONTINUOUS
 62
     7
 10
-383.6298142821
 20
1209.8291137797
 30
0.0
 11
-386.6298142821
 21
1209.8291137797
 31
0.0
  0
ARC
  5
160
  8
1
  6
CONTINUOUS
 62
     7
 10
-388.6298142821
 20
1212.9041137797
 30
0.0
 40
0.825
 50
232.694817
 51
270.0
  0
LINE
  5
161
  8
1
  6
CONTINUOUS
 62
     7
 10
-382.3798142821
 20
1211.5791137797
 30
0.0
 11
-382.3798142821
 21
1212.0791137797
 31
0.0
  0
LINE
  5
162
  8
1
  6
CONTINUOUS
 62
     7
 10
-299.9215353387
 20
1209.5971817797
 30
0.0
 11
-299.9215353387
 21
1210.0971817797
 31
0.0
  0
ARC
  5
163
  8
1
  6
CONTINUOUS
 62
     7
 10
-301.4215353387
 20
1200.6955226203
 30
0.0
 40
16.3332547308
 50
80.9590607153
 51
99.04093928470003
  0
LINE
  5
164
  8
1
  6
CONTINUOUS
 62
     7
 10
-388.6298142821
 20
1212.0791137797
 30
0.0
 11
-381.6298142821
 21
1212.0791137797
 31
0.0
  0
LINE
  5
165
  8
1
  6
CONTINUOUS
 62
     7
 10
-388.5354792821
 20
1216.1573697797
 30
0.0
 11
-388.6298142821
 21
1215.0791137797
 31
0.0
  0
LINE
  5
166
  8
1
  6
CONTINUOUS
 62
     7
 10
-304.8272003387
 20
1215.9254377797
 30
0.0
 11
-304.9215353387
 21
1214.8471817797
 31
0.0
  0
LINE
  5
167
  8
1
  6
CONTINUOUS
 62
     7
 10
-381.1298142821
 20
1214.9103337797
 30
0.0
 11
-381.1298142821
 21
1212.2478927797
 31
0.0
  0
ARC
  5
168
  8
1
  6
CONTINUOUS
 62
     7
 10
-382.7203442821
 20
1216.0702137797
 30
0.0
 40
1.0
 50
5.0
 51
80.9590607153
  0
LINE
  5
169
  8
1
  6
CONTINUOUS
 62
     7
 10
-387.8798142821
 20
1212.0791137797
 30
0.0
 11
-387.8798142821
 21
1211.5791137797
 31
0.0
  0
LINE
  5
16A
  8
1
  6
CONTINUOUS
 62
     7
 10
-297.9215353387
 20
1214.8471817797
 30
0.0
 11
-298.0158703387
 21
1215.9254377797
 31
0.0
  0
ARC
  5
16B
  8
1
  6
CONTINUOUS
 62
     7
 10
-381.6298142821
 20
1214.2541137797
 30
0.0
 40
0.825
 50
52.694817
 51
90.0
  0
LINE
  5
16C
  8
1
  6
CONTINUOUS
 62
     7
 10
-302.9215353387
 20
1210.0971817797
 30
0.0
 11
-302.9215353387
 21
1209.5971817797
 31
0.0
  0
LINE
  5
16D
  8
1
  6
CONTINUOUS
 62
     7
 10
-382.4187422821
 20
1208.5791137797
 30
0.0
 11
-382.4187422821
 21
1207.0791137797
 31
0.0
  0
LINE
  5
16E
  8
1
  6
CONTINUOUS
 62
     7
 10
-387.8408862821
 20
1207.0791137797
 30
0.0
 11
-387.6184032821
 21
1206.5791137797
 31
0.0
  0
LINE
  5
16F
  8
1
  6
CONTINUOUS
 62
     7
 10
-387.8408862821
 20
1208.5791137797
 30
0.0
 11
-387.3798142821
 21
1209.0791137797
 31
0.0
  0
LINE
  5
170
  8
1
  6
CONTINUOUS
 62
     7
 10
-382.6412252821
 20
1206.5791137797
 30
0.0
 11
-382.4187422821
 21
1207.0791137797
 31
0.0
  0
LINE
  5
171
  8
1
  6
CONTINUOUS
 62
     7
 10
-387.8408862821
 20
1207.0791137797
 30
0.0
 11
-387.8408862821
 21
1208.5791137797
 31
0.0
  0
LINE
  5
172
  8
1
  6
CONTINUOUS
 62
     7
 10
-383.6298142821
 20
1210.3291137797
 30
0.0
 11
-382.3798142821
 21
1211.5791137797
 31
0.0
  0
ARC
  5
173
  8
1
  6
CONTINUOUS
 62
     7
 10
-388.6298142821
 20
1214.2541137797
 30
0.0
 40
0.825
 50
90.0
 51
127.305183
  0
LINE
  5
174
  8
1
  6
CONTINUOUS
 62
     7
 10
-383.6298142821
 20
1209.8291137797
 30
0.0
 11
-383.6298142821
 21
1210.3291137797
 31
0.0
  0
LINE
  5
175
  8
1
  6
CONTINUOUS
 62
     7
 10
-386.6298142821
 20
1209.8291137797
 30
0.0
 11
-387.3798142821
 21
1209.0791137797
 31
0.0
  0
LINE
  5
176
  8
1
  6
CONTINUOUS
 62
     7
 10
-381.6298142821
 20
1215.0791137797
 30
0.0
 11
-381.7241492821
 21
1216.1573697797
 31
0.0
  0
ARC
  5
177
  8
1
  6
CONTINUOUS
 62
     7
 10
-387.5392842821
 20
1216.0702137797
 30
0.0
 40
1.0
 50
99.04093928470003
 51
175.0
  0
ARC
  5
178
  8
1
  6
CONTINUOUS
 62
     7
 10
-381.6298142821
 20
1212.9041137797
 30
0.0
 40
0.825
 50
270.0
 51
307.305183
  0
LINE
  5
179
  8
1
  6
CONTINUOUS
 62
     7
 10
-382.6298142821
 20
1206.5791137797
 30
0.0
 11
-387.6298142821
 21
1206.5791137797
 31
0.0
  0
LINE
  5
17A
  8
1
  6
CONTINUOUS
 62
     7
 10
-387.6298142821
 20
1206.5791137797
 30
0.0
 11
-387.6298142821
 21
1206.5543317797
 31
0.0
  0
ARC
  5
17B
  8
1
  6
CONTINUOUS
 62
     7
 10
-299.0120653387
 20
1215.8382817797
 30
0.0
 40
1.0
 50
5.0
 51
80.9590607153
  0
LINE
  5
17C
  8
1
  6
CONTINUOUS
 62
     7
 10
-382.3798142821
 20
1211.5791137797
 30
0.0
 11
-387.8798142821
 21
1211.5791137797
 31
0.0
  0
ARC
  5
17D
  8
1
  6
CONTINUOUS
 62
     7
 10
-303.8310053387
 20
1215.8382817797
 30
0.0
 40
1.0
 50
99.04093928470003
 51
175.0
  0
LINE
  5
17E
  8
1
  6
CONTINUOUS
 62
     7
 10
-382.8798142821
 20
1209.0791137797
 30
0.0
 11
-383.6298142821
 21
1209.8291137797
 31
0.0
  0
LINE
  5
17F
  8
1
  6
CONTINUOUS
 62
     7
 10
-389.1298142821
 20
1212.2478927797
 30
0.0
 11
-389.1298142821
 21
1214.9103337797
 31
0.0
  0
LINE
  5
180
  8
1
  6
CONTINUOUS
 62
     7
 10
-386.6298142821
 20
1210.3291137797
 30
0.0
 11
-386.6298142821
 21
1209.8291137797
 31
0.0
  0
LINE
  5
181
  8
1
  6
CONTINUOUS
 62
     7
 10
-554.3207262821
 20
1347.2908149647
 30
0.0
 11
-560.2539237107442
 21
1347.2908149647
 31
0.0
  0
LINE
  5
182
  8
1
  6
CONTINUOUS
 62
     7
 10
-574.9391502821
 20
1253.2908149647
 30
0.0
 11
-569.0059511968
 21
1253.2908149647
 31
0.0
  0
LINE
  5
183
  8
1
  6
CONTINUOUS
 62
     7
 10
-565.3796812821
 20
1250.7909249647
 30
0.0
 11
-564.9391502821151
 21
1253.2908149647
 31
0.0
  0
LINE
  5
184
  8
1
  6
CONTINUOUS
 62
     7
 10
-564.9391502821
 20
1253.2908149647
 30
0.0
 11
-559.0059511968
 21
1253.2908149647
 31
0.0
  0
LINE
  5
185
  8
1
  6
CONTINUOUS
 62
     7
 10
-558.8799422105
 20
1250.7916846549
 30
0.0
 11
-555.3799422105
 21
1250.7916766151
 31
0.0
  0
LINE
  5
186
  8
1
  6
CONTINUOUS
 62
     7
 10
-555.3796812821
 20
1250.7909249647
 30
0.0
 11
-554.9391502821151
 21
1253.2908149647
 31
0.0
  0
LINE
  5
187
  8
1
  6
CONTINUOUS
 62
     7
 10
-554.9391502821
 20
1253.2908149647
 30
0.0
 11
-549.0059511968
 21
1253.2908149647
 31
0.0
  0
LINE
  5
188
  8
1
  6
CONTINUOUS
 62
     7
 10
-548.8799422105
 20
1250.7916846549
 30
0.0
 11
-545.3799422105
 21
1250.7916766151
 31
0.0
  0
LINE
  5
189
  8
1
  6
CONTINUOUS
 62
     7
 10
-574.3207262821
 20
1202.0543317797
 30
0.0
 11
-573.8801962821
 21
1204.5542587797
 31
0.0
  0
LINE
  5
18A
  8
1
  6
CONTINUOUS
 62
     7
 10
-560.3801962821
 20
1204.5542667797
 30
0.0
 11
-563.8801962821
 21
1204.5542587797
 31
0.0
  0
LINE
  5
18B
  8
1
  6
CONTINUOUS
 62
     7
 10
-568.8796812821
 20
1250.7909329647
 30
0.0
 11
-573.8801962821
 21
1349.7907419647
 31
0.0
  0
LINE
  5
18C
  8
1
  6
CONTINUOUS
 62
     7
 10
-574.3207262821
 20
1347.2908149647
 30
0.0
 11
-573.8801962821
 21
1349.7907419647
 31
0.0
  0
LINE
  5
18D
  8
1
  6
CONTINUOUS
 62
     7
 10
-560.3801962821
 20
1349.7907499647
 30
0.0
 11
-555.3796812821
 21
1250.7909249647
 31
0.0
  0
LINE
  5
18E
  8
1
  6
CONTINUOUS
 62
     7
 10
-570.3801962821
 20
1204.5542667797
 30
0.0
 11
-565.3796812821
 21
1105.5544417797
 31
0.0
  0
LINE
  5
18F
  8
1
  6
CONTINUOUS
 62
     7
 10
-558.8796812821
 20
1105.5544497797
 30
0.0
 11
-563.8801962821
 21
1204.5542587797
 31
0.0
  0
LINE
  5
190
  8
1
  6
CONTINUOUS
 62
     7
 10
-564.9391502821
 20
1108.0543317797
 30
0.0
 11
-559.0059511968
 21
1108.0543317797
 31
0.0
  0
LINE
  5
191
  8
1
  6
CONTINUOUS
 62
     7
 10
-570.3801962821
 20
1349.7907499647
 30
0.0
 11
-573.8801962821
 21
1349.7907419647
 31
0.0
  0
LINE
  5
192
  8
1
  6
CONTINUOUS
 62
     7
 10
-554.3207262821
 20
1202.0543317797
 30
0.0
 11
-553.8801962821
 21
1204.5542587797
 31
0.0
  0
LINE
  5
193
  8
1
  6
CONTINUOUS
 62
     7
 10
-560.3801962821
 20
1349.7907499647
 30
0.0
 11
-563.8801962821
 21
1349.7907419647
 31
0.0
  0
LINE
  5
194
  8
1
  6
CONTINUOUS
 62
     7
 10
-570.3801962821
 20
1349.7907499647
 30
0.0
 11
-565.3796812821
 21
1250.7909249647
 31
0.0
  0
LINE
  5
195
  8
1
  6
CONTINUOUS
 62
     7
 10
-570.3801962821
 20
1204.5542667797
 30
0.0
 11
-573.8801962821
 21
1204.5542587797
 31
0.0
  0
LINE
  5
196
  8
1
  6
CONTINUOUS
 62
     7
 10
-558.8796812821
 20
1250.7909329647
 30
0.0
 11
-563.8801962821
 21
1349.7907419647
 31
0.0
  0
LINE
  5
197
  8
1
  6
CONTINUOUS
 62
     7
 10
-548.8796812821
 20
1250.7909329647
 30
0.0
 11
-553.8801962821
 21
1349.7907419647
 31
0.0
  0
LINE
  5
198
  8
1
  6
CONTINUOUS
 62
     7
 10
-550.3801962821
 20
1349.7907499647
 30
0.0
 11
-553.8801962821
 21
1349.7907419647
 31
0.0
  0
LINE
  5
199
  8
1
  6
CONTINUOUS
 62
     7
 10
-568.8796812821
 20
1105.5544497797
 30
0.0
 11
-573.8801962821
 21
1204.5542587797
 31
0.0
  0
LINE
  5
19A
  8
1
  6
CONTINUOUS
 62
     7
 10
-550.3801962821
 20
1349.7907499647
 30
0.0
 11
-545.3796812821
 21
1250.7909249647
 31
0.0
  0
LINE
  5
19B
  8
1
  6
CONTINUOUS
 62
     7
 10
-554.9391502821
 20
1108.0543317797
 30
0.0
 11
-549.0059511968
 21
1108.0543317797
 31
0.0
  0
LINE
  5
19C
  8
1
  6
CONTINUOUS
 62
     7
 10
-548.8799422105
 20
1105.5552014699
 30
0.0
 11
-545.3799422105
 21
1105.5551934301
 31
0.0
  0
LINE
  5
19D
  8
1
  6
CONTINUOUS
 62
     7
 10
-568.8799422105
 20
1250.7916846549
 30
0.0
 11
-565.3799422105
 21
1250.7916766151
 31
0.0
  0
LINE
  5
19E
  8
1
  6
CONTINUOUS
 62
     7
 10
-564.3207262821
 20
1347.2908149647
 30
0.0
 11
-570.2539237107442
 21
1347.2908149647
 31
0.0
  0
LINE
  5
19F
  8
1
  6
CONTINUOUS
 62
     7
 10
-558.8799422105
 20
1105.5552014699
 30
0.0
 11
-555.3799422105
 21
1105.5551934301
 31
0.0
  0
LINE
  5
1A0
  8
1
  6
CONTINUOUS
 62
     7
 10
-550.3801962821
 20
1204.5542667797
 30
0.0
 11
-545.3796812821
 21
1105.5544417797
 31
0.0
  0
LINE
  5
1A1
  8
1
  6
CONTINUOUS
 62
     7
 10
-555.3796812821
 20
1105.5544417797
 30
0.0
 11
-554.9391502821151
 21
1108.0543317797
 31
0.0
  0
LINE
  5
1A2
  8
1
  6
CONTINUOUS
 62
     7
 10
-574.9391502821
 20
1108.0543317797
 30
0.0
 11
-569.0059511968
 21
1108.0543317797
 31
0.0
  0
LINE
  5
1A3
  8
1
  6
CONTINUOUS
 62
     7
 10
-564.3207262821
 20
1347.2908149647
 30
0.0
 11
-570.2539237107442
 21
1347.2908149647
 31
0.0
  0
LINE
  5
1A4
  8
1
  6
CONTINUOUS
 62
     7
 10
-554.3207262821
 20
1347.2908149647
 30
0.0
 11
-553.8801962821
 21
1349.7907419647
 31
0.0
  0
LINE
  5
1A5
  8
1
  6
CONTINUOUS
 62
     7
 10
-550.3801962821
 20
1204.5542667797
 30
0.0
 11
-553.8801962821
 21
1204.5542587797
 31
0.0
  0
LINE
  5
1A6
  8
1
  6
CONTINUOUS
 62
     7
 10
-548.8796812821
 20
1105.5544497797
 30
0.0
 11
-553.8801962821
 21
1204.5542587797
 31
0.0
  0
LINE
  5
1A7
  8
1
  6
CONTINUOUS
 62
     7
 10
-564.3207262821
 20
1202.0543317797
 30
0.0
 11
-563.8801962821
 21
1204.5542587797
 31
0.0
  0
LINE
  5
1A8
  8
1
  6
CONTINUOUS
 62
     7
 10
-565.3796812821
 20
1105.5544417797
 30
0.0
 11
-564.9391502821151
 21
1108.0543317797
 31
0.0
  0
LINE
  5
1A9
  8
1
  6
CONTINUOUS
 62
     7
 10
-560.3801962821
 20
1204.5542667797
 30
0.0
 11
-555.3796812821
 21
1105.5544417797
 31
0.0
  0
LINE
  5
1AA
  8
1
  6
CONTINUOUS
 62
     7
 10
-564.3207262821
 20
1202.0543317797
 30
0.0
 11
-570.2539237107442
 21
1202.0543317797
 31
0.0
  0
LINE
  5
1AB
  8
1
  6
CONTINUOUS
 62
     7
 10
-554.3207262821
 20
1202.0543317797
 30
0.0
 11
-560.2539237107442
 21
1202.0543317797
 31
0.0
  0
LINE
  5
1AC
  8
1
  6
CONTINUOUS
 62
     7
 10
-568.8799422105
 20
1105.5552014699
 30
0.0
 11
-565.3799422105
 21
1105.5551934301
 31
0.0
  0
LINE
  5
1AD
  8
1
  6
CONTINUOUS
 62
     7
 10
-564.3207262821
 20
1347.2908149647
 30
0.0
 11
-563.8801962821
 21
1349.7907419647
 31
0.0
  0
LINE
  5
1AE
  8
1
  6
CONTINUOUS
 62
     7
 10
-699.1298142821
 20
1251.7908149647
 30
0.0
 11
-699.1298142821
 21
1348.7908149647
 31
0.0
  0
LINE
  5
1AF
  8
1
  6
CONTINUOUS
 62
     7
 10
-722.1298142821001
 20
1239.2908149647
 30
0.0
 11
-722.1298142821001
 21
1361.2826179647
 31
0.0
  0
LINE
  5
1B0
  8
1
  6
CONTINUOUS
 62
     7
 10
-705.6298142821
 20
1348.7908149647
 30
0.0
 11
-705.6298142821
 21
1251.7908149647
 31
0.0
  0
LINE
  5
1B1
  8
1
  6
CONTINUOUS
 62
     7
 10
-706.6298142821
 20
1250.7908149647
 30
0.0
 11
-706.6298142821
 21
1349.7908149647
 31
0.0
  0
LINE
  5
1B2
  8
1
  6
CONTINUOUS
 62
     7
 10
-728.1298142821001
 20
1240.2908149647
 30
0.0
 11
-728.1298142821001
 21
1360.2780069647
 31
0.0
  0
LINE
  5
1B3
  8
1
  6
CONTINUOUS
 62
     7
 10
-705.1298142821
 20
1251.7908149647
 30
0.0
 11
-705.1298142821
 21
1348.7908149647
 31
0.0
  0
LINE
  5
1B4
  8
1
  6
CONTINUOUS
 62
     7
 10
-709.1873035926
 20
1236.6297429647
 30
0.0
 11
-709.1873035926
 21
1363.9518869647
 31
0.0
  0
LINE
  5
1B5
  8
1
  6
CONTINUOUS
 62
     7
 10
-702.1298142821
 20
1251.7908149647
 30
0.0
 11
-702.1298142821
 21
1348.7908149647
 31
0.0
  0
LINE
  5
1B6
  8
1
  6
CONTINUOUS
 62
     7
 10
-722.1298142821001
 20
1361.2780069647
 30
0.0
 11
-727.1298142821001
 21
1361.2780069647
 31
0.0
  0
LINE
  5
1B7
  8
1
  6
CONTINUOUS
 62
     7
 10
-722.1298142821001
 20
1239.2908149647
 30
0.0
 11
-709.1873035926
 21
1236.6297429647
 31
0.0
  0
LINE
  5
1B8
  8
1
  6
CONTINUOUS
 62
     7
 10
-706.6298142821
 20
1250.7908149647
 30
0.0
 11
-705.6298142821
 21
1251.7908149647
 31
0.0
  0
ARC
  5
1B9
  8
1
  6
CONTINUOUS
 62
     7
 10
-701.6298142821
 20
1347.2908149647
 30
0.0
 40
0.4999999999999449
 50
180.0
 51
270.0
  0
LINE
  5
1BA
  8
1
  6
CONTINUOUS
 62
     7
 10
-706.6298142821
 20
1349.7908149647
 30
0.0
 11
-709.1873035926
 21
1349.7908149647
 31
0.0
  0
LINE
  5
1BB
  8
1
  6
CONTINUOUS
 62
     7
 10
-727.1298142821001
 20
1239.2908149647
 30
0.0
 11
-722.1298142821001
 21
1239.2908149647
 31
0.0
  0
LINE
  5
1BC
  8
1
  6
CONTINUOUS
 62
     7
 10
-699.1298142821
 20
1251.7908149647
 30
0.0
 11
-696.1298142821
 21
1251.7908149647
 31
0.0
  0
LINE
  5
1BD
  8
1
  6
CONTINUOUS
 62
     7
 10
-705.6298142821
 20
1348.7908149647
 30
0.0
 11
-706.6298142821
 21
1349.7908149647
 31
0.0
  0
ARC
  5
1BE
  8
1
  6
CONTINUOUS
 62
     7
 10
-701.6298142821
 20
1253.2908149647
 30
0.0
 40
0.4999999999999449
 50
90.0
 51
180.0
  0
ARC
  5
1BF
  8
1
  6
CONTINUOUS
 62
     7
 10
-705.6298142821
 20
1347.2908149647
 30
0.0
 40
0.4999999999999449
 50
270.0
 51
0.0
  0
LINE
  5
1C0
  8
1
  6
CONTINUOUS
 62
     7
 10
-709.1873035926
 20
1250.7908149647
 30
0.0
 11
-706.6298142821
 21
1250.7908149647
 31
0.0
  0
LINE
  5
1C1
  8
1
  6
CONTINUOUS
 62
     7
 10
-705.1298142821
 20
1251.7908149647
 30
0.0
 11
-702.1298142821
 21
1251.7908149647
 31
0.0
  0
LINE
  5
1C2
  8
1
  6
CONTINUOUS
 62
     7
 10
-702.1298142821
 20
1348.7908149647
 30
0.0
 11
-705.1298142821
 21
1348.7908149647
 31
0.0
  0
LINE
  5
1C3
  8
1
  6
CONTINUOUS
 62
     7
 10
-696.1298142821
 20
1348.7908149647
 30
0.0
 11
-699.1298142821
 21
1348.7908149647
 31
0.0
  0
ARC
  5
1C4
  8
1
  6
CONTINUOUS
 62
     7
 10
-705.6298142821
 20
1253.2908149647
 30
0.0
 40
0.4999999999999449
 50
0.0
 51
90.0
  0
ARC
  5
1C5
  8
1
  6
CONTINUOUS
 62
     7
 10
-385.1298142821
 20
1291.2908149647
 30
0.0
 40
4.325
 50
322.353426
 51
337.646574
  0
CIRCLE
  5
1C6
  8
1
  6
CONTINUOUS
 62
     7
 10
-385.1298142821
 20
1291.2908149647
 30
0.0
 40
3.5
  0
LINE
  5
1C7
  8
1
  6
CONTINUOUS
 62
     7
 10
-386.4298142821
 20
1291.7908149647
 30
0.0
 11
-387.2349172821
 21
1291.7908149647
 31
0.0
  0
LINE
  5
1C8
  8
1
  6
CONTINUOUS
 62
     7
 10
-384.5298142821
 20
1294.6432099647
 30
0.0
 11
-384.5298142821
 21
1292.2035169647
 31
0.0
  0
LINE
  5
1C9
  8
1
  6
CONTINUOUS
 62
     7
 10
-381.7053082821
 20
1288.6491529647
 30
0.0
 11
-384.5543202821
 21
1287.0042739647
 31
0.0
  0
ARC
  5
1CA
  8
1
  6
CONTINUOUS
 62
     7
 10
-385.1298142821
 20
1291.2908149647
 30
0.0
 40
2.163668
 50
166.6388
 51
193.3612
  0
LINE
  5
1CB
  8
1
  6
CONTINUOUS
 62
     7
 10
-388.5543202821
 20
1311.9324769647
 30
0.0
 11
-385.7053082821
 21
1313.5773559647
 31
0.0
  0
ARC
  5
1CC
  8
1
  6
CONTINUOUS
 62
     7
 10
-383.8298142821
 20
1292.5908149647
 30
0.0
 40
0.8
 50
180.0
 51
208.955024
  0
ARC
  5
1CD
  8
1
  6
CONTINUOUS
 62
     7
 10
-386.4298142821
 20
1289.9908149647
 30
0.0
 40
0.8
 50
0.0
 51
28.955024
  0
ARC
  5
1CE
  8
1
  6
CONTINUOUS
 62
     7
 10
-386.4298252821
 20
1289.9907959647
 30
0.0
 40
0.800019
 50
28.955831
 51
89.999193
  0
LINE
  5
1CF
  8
1
  6
CONTINUOUS
 62
     7
 10
-385.7053082821
 20
1287.0042739647
 30
0.0
 11
-388.5543202821
 21
1288.6491529647
 31
0.0
  0
ARC
  5
1D0
  8
1
  6
CONTINUOUS
 62
     7
 10
-385.1298142821
 20
1291.2908149647
 30
0.0
 40
4.325
 50
202.353426
 51
217.646574
  0
LINE
  5
1D1
  8
1
  6
CONTINUOUS
 62
     7
 10
-389.1298142821
 20
1289.6459369647
 30
0.0
 11
-389.1298142821
 21
1292.9356929647
 31
0.0
  0
ARC
  5
1D2
  8
1
  6
CONTINUOUS
 62
     7
 10
-383.8298032821
 20
1292.5908339647
 30
0.0
 40
0.800019
 50
208.955831
 51
269.999193
  0
LINE
  5
1D3
  8
1
  6
CONTINUOUS
 62
     7
 10
-385.7298142821
 20
1292.2035169647
 30
0.0
 11
-385.7298142821
 21
1294.6432099647
 31
0.0
  0
LINE
  5
1D4
  8
1
  6
CONTINUOUS
 62
     7
 10
-387.2349172821
 20
1290.7908149647
 30
0.0
 11
-386.4298142821
 21
1290.7908149647
 31
0.0
  0
LINE
  5
1D5
  8
1
  6
CONTINUOUS
 62
     7
 10
-385.7298142821
 20
1287.9384199647
 30
0.0
 11
-385.7298142821
 21
1290.3781129647
 31
0.0
  0
LINE
  5
1D6
  8
1
  6
CONTINUOUS
 62
     7
 10
-384.5298142821
 20
1290.3781129647
 30
0.0
 11
-384.5298142821
 21
1287.9384199647
 31
0.0
  0
LINE
  5
1D7
  8
1
  6
CONTINUOUS
 62
     7
 10
-383.8298142821
 20
1290.7908149647
 30
0.0
 11
-383.0247112821
 21
1290.7908149647
 31
0.0
  0
ARC
  5
1D8
  8
1
  6
CONTINUOUS
 62
     7
 10
-385.1298142821
 20
1291.2908149647
 30
0.0
 40
2.163668
 50
346.6387999999999
 51
13.3612
  0
ARC
  5
1D9
  8
1
  6
CONTINUOUS
 62
     7
 10
-383.8298042821
 20
1289.9907979647
 30
0.0
 40
0.800017
 50
90.000699
 51
151.044276
  0
LINE
  5
1DA
  8
1
  6
CONTINUOUS
 62
     7
 10
-383.0247112821
 20
1291.7908149647
 30
0.0
 11
-383.8298142821
 21
1291.7908149647
 31
0.0
  0
ARC
  5
1DB
  8
1
  6
CONTINUOUS
 62
     7
 10
-383.8298142821
 20
1289.9908149647
 30
0.0
 40
0.8
 50
151.044976
 51
180.0
  0
ARC
  5
1DC
  8
1
  6
CONTINUOUS
 62
     7
 10
-385.1298142821
 20
1291.2908149647
 30
0.0
 40
4.325
 50
262.353426
 51
277.646574
  0
ARC
  5
1DD
  8
1
  6
CONTINUOUS
 62
     7
 10
-386.4298142821
 20
1292.5908149647
 30
0.0
 40
0.8
 50
331.044976
 51
0.0
  0
ARC
  5
1DE
  8
1
  6
CONTINUOUS
 62
     7
 10
-386.4298242821
 20
1292.5908319647
 30
0.0
 40
0.800017
 50
270.000699
 51
331.0442760000001
  0
LINE
  5
1DF
  8
1
  6
CONTINUOUS
 62
     7
 10
-430.1298142821
 20
1350.7908149647
 30
0.0
 11
-430.1298142821
 21
1249.7908149647
 31
0.0
  0
LINE
  5
1E0
  8
1
  6
CONTINUOUS
 62
     7
 10
-471.1298142821
 20
1350.7908149647
 30
0.0
 11
-471.1298142821
 21
1249.7905717832
 31
0.0
  0
LINE
  5
1E1
  8
1
  6
CONTINUOUS
 62
     7
 10
-544.1298142821
 20
1350.7908149647
 30
0.0
 11
-430.1298142821
 21
1350.7908149647
 31
0.0
  0
LINE
  5
1E2
  8
1
  6
CONTINUOUS
 62
     7
 10
-471.1298142821
 20
1321.2085998645
 30
0.0
 11
-430.1298142821
 21
1321.2085998645
 31
0.0
  0
LINE
  5
1E3
  8
1
  6
CONTINUOUS
 62
     7
 10
-430.1298142821
 20
1249.7908149647
 30
0.0
 11
-544.1298142821
 21
1249.7908149647
 31
0.0
  0
LINE
  5
1E4
  8
1
  6
CONTINUOUS
 62
     7
 10
-471.1298142821
 20
1279.3730300649
 30
0.0
 11
-430.1298142821
 21
1279.3730300649
 31
0.0
  0
LINE
  5
1E5
  8
1
  6
CONTINUOUS
 62
     7
 10
-544.1298142821
 20
1249.7908149647
 30
0.0
 11
-544.1298142821
 21
1350.7908149647
 31
0.0
  0
LINE
  5
1E6
  8
1
  6
CONTINUOUS
 62
     7
 10
-544.1298142821
 20
1344.6408149647
 30
0.0
 11
-545.1298142821
 21
1344.6408149647
 31
0.0
  0
LINE
  5
1E7
  8
1
  6
CONTINUOUS
 62
     7
 10
-545.1298142821
 20
1255.9408149647
 30
0.0
 11
-544.1298142821
 21
1255.9408149647
 31
0.0
  0
LINE
  5
1E8
  8
1
  6
CONTINUOUS
 62
     7
 10
-638.8796812821
 20
1250.7909329647
 30
0.0
 11
-643.8801962821
 21
1349.7907419647
 31
0.0
  0
LINE
  5
1E9
  8
1
  6
CONTINUOUS
 62
     7
 10
-664.3207262821002
 20
1347.2908149647
 30
0.0
 11
-663.8801962821
 21
1349.7907419647
 31
0.0
  0
LINE
  5
1EA
  8
1
  6
CONTINUOUS
 62
     7
 10
-660.3801962821
 20
1349.7907499647
 30
0.0
 11
-663.8801962821
 21
1349.7907419647
 31
0.0
  0
LINE
  5
1EB
  8
1
  6
CONTINUOUS
 62
     7
 10
-635.3796812821001
 20
1250.7909249647
 30
0.0
 11
-634.9391502821001
 21
1253.2908149647
 31
0.0
  0
LINE
  5
1EC
  8
1
  6
CONTINUOUS
 62
     7
 10
-650.3801962821
 20
1349.7907499647
 30
0.0
 11
-645.3796812821001
 21
1250.7909249647
 31
0.0
  0
LINE
  5
1ED
  8
1
  6
CONTINUOUS
 62
     7
 10
-645.3796812821001
 20
1250.7909249647
 30
0.0
 11
-644.9391502821001
 21
1253.2908149647
 31
0.0
  0
LINE
  5
1EE
  8
1
  6
CONTINUOUS
 62
     7
 10
-628.8796812821
 20
1250.7909329647
 30
0.0
 11
-633.8801962821
 21
1349.7907419647
 31
0.0
  0
LINE
  5
1EF
  8
1
  6
CONTINUOUS
 62
     7
 10
-624.3206972821
 20
1347.2908149647
 30
0.0
 11
-630.2539237108
 21
1347.2908149647
 31
0.0
  0
LINE
  5
1F0
  8
1
  6
CONTINUOUS
 62
     7
 10
-640.3801962821
 20
1349.7907499647
 30
0.0
 11
-643.8801962821
 21
1349.7907419647
 31
0.0
  0
LINE
  5
1F1
  8
1
  6
CONTINUOUS
 62
     7
 10
-654.9391502821001
 20
1253.2908149647
 30
0.0
 11
-649.0059511968001
 21
1253.2908149647
 31
0.0
  0
LINE
  5
1F2
  8
1
  6
CONTINUOUS
 62
     7
 10
-658.8796812821
 20
1250.7909329647
 30
0.0
 11
-663.8801962821
 21
1349.7907419647
 31
0.0
  0
LINE
  5
1F3
  8
1
  6
CONTINUOUS
 62
     7
 10
-644.3207262821002
 20
1347.2908149647
 30
0.0
 11
-643.8801962821
 21
1349.7907419647
 31
0.0
  0
LINE
  5
1F4
  8
1
  6
CONTINUOUS
 62
     7
 10
-650.3801962821
 20
1349.7907499647
 30
0.0
 11
-653.8801962821
 21
1349.7907419647
 31
0.0
  0
LINE
  5
1F5
  8
1
  6
CONTINUOUS
 62
     7
 10
-654.3207262821002
 20
1347.2908149647
 30
0.0
 11
-653.8801962821
 21
1349.7907419647
 31
0.0
  0
LINE
  5
1F6
  8
1
  6
CONTINUOUS
 62
     7
 10
-634.3207262821
 20
1347.2908149647
 30
0.0
 11
-633.8801962821
 21
1349.7907419647
 31
0.0
  0
LINE
  5
1F7
  8
1
  6
CONTINUOUS
 62
     7
 10
-625.3796812821
 20
1250.7909249647
 30
0.0
 11
-624.9391502821
 21
1253.2908149647
 31
0.0
  0
LINE
  5
1F8
  8
1
  6
CONTINUOUS
 62
     7
 10
-660.3801962821
 20
1349.7907499647
 30
0.0
 11
-655.3796812821001
 21
1250.7909249647
 31
0.0
  0
LINE
  5
1F9
  8
1
  6
CONTINUOUS
 62
     7
 10
-658.8796812821
 20
1250.7909329647
 30
0.0
 11
-655.3796812821001
 21
1250.7909249647
 31
0.0
  0
LINE
  5
1FA
  8
1
  6
CONTINUOUS
 62
     7
 10
-655.3796812821001
 20
1250.7909249647
 30
0.0
 11
-654.9391502821001
 21
1253.2908149647
 31
0.0
  0
LINE
  5
1FB
  8
1
  6
CONTINUOUS
 62
     7
 10
-644.9391502821001
 20
1253.2908149647
 30
0.0
 11
-639.0059511968
 21
1253.2908149647
 31
0.0
  0
LINE
  5
1FC
  8
1
  6
CONTINUOUS
 62
     7
 10
-630.3801962821
 20
1349.7907499647
 30
0.0
 11
-633.8801962821
 21
1349.7907419647
 31
0.0
  0
LINE
  5
1FD
  8
1
  6
CONTINUOUS
 62
     7
 10
-634.9391502821001
 20
1253.2908149647
 30
0.0
 11
-629.0059511968
 21
1253.2908149647
 31
0.0
  0
LINE
  5
1FE
  8
1
  6
CONTINUOUS
 62
     7
 10
-640.3801962821
 20
1349.7907499647
 30
0.0
 11
-635.3796812821001
 21
1250.7909249647
 31
0.0
  0
LINE
  5
1FF
  8
1
  6
CONTINUOUS
 62
     7
 10
-654.3206972821
 20
1347.2908149647
 30
0.0
 11
-660.2539237108
 21
1347.2908149647
 31
0.0
  0
LINE
  5
200
  8
1
  6
CONTINUOUS
 62
     7
 10
-648.8796812821
 20
1250.7909329647
 30
0.0
 11
-645.3796812821001
 21
1250.7909249647
 31
0.0
  0
LINE
  5
201
  8
1
  6
CONTINUOUS
 62
     7
 10
-630.3801962821
 20
1349.7907499647
 30
0.0
 11
-625.3796812821
 21
1250.7909249647
 31
0.0
  0
LINE
  5
202
  8
1
  6
CONTINUOUS
 62
     7
 10
-624.9391502821
 20
1253.2908149647
 30
0.0
 11
-622.3515962821
 21
1253.2908149647
 31
0.0
  0
LINE
  5
203
  8
1
  6
CONTINUOUS
 62
     7
 10
-634.3206972821
 20
1347.2908149647
 30
0.0
 11
-640.2539237108
 21
1347.2908149647
 31
0.0
  0
LINE
  5
204
  8
1
  6
CONTINUOUS
 62
     7
 10
-628.8796812821
 20
1250.7909329647
 30
0.0
 11
-625.3796812821
 21
1250.7909249647
 31
0.0
  0
LINE
  5
205
  8
1
  6
CONTINUOUS
 62
     7
 10
-648.8796812821
 20
1250.7909329647
 30
0.0
 11
-653.8801962821
 21
1349.7907419647
 31
0.0
  0
LINE
  5
206
  8
1
  6
CONTINUOUS
 62
     7
 10
-638.8796812821
 20
1250.7909329647
 30
0.0
 11
-635.3796812821001
 21
1250.7909249647
 31
0.0
  0
LINE
  5
207
  8
1
  6
CONTINUOUS
 62
     7
 10
-644.3206972821
 20
1347.2908149647
 30
0.0
 11
-650.2539237108
 21
1347.2908149647
 31
0.0
  0
LINE
  5
208
  8
1
  6
CONTINUOUS
 62
     7
 10
-578.8799422105
 20
1250.7916846549
 30
0.0
 11
-575.3799422105001
 21
1250.7916766151
 31
0.0
  0
LINE
  5
209
  8
1
  6
CONTINUOUS
 62
     7
 10
-722.1298142821001
 20
1361.2908149647
 30
0.0
 11
-709.1873035926
 21
1363.9518869647
 31
0.0
  0
LINE
  5
20A
  8
1
  6
CONTINUOUS
 62
     7
 10
-696.1298142821
 20
1251.7908149647
 30
0.0
 11
-696.1298142821
 21
1348.7908149647
 31
0.0
  0
LINE
  5
20B
  8
1
  6
CONTINUOUS
 62
     7
 10
-687.6298142821
 20
1346.7908149647
 30
0.0
 11
-689.6298142821
 21
1346.7908149647
 31
0.0
  0
LINE
  5
20C
  8
1
  6
CONTINUOUS
 62
     7
 10
-701.6298142821
 20
1253.7908149647
 30
0.0
 11
-699.6298142821
 21
1253.7908149647
 31
0.0
  0
LINE
  5
20D
  8
1
  6
CONTINUOUS
 62
     7
 10
-699.6298142821
 20
1346.7908149647
 30
0.0
 11
-701.6298142821
 21
1346.7908149647
 31
0.0
  0
LINE
  5
20E
  8
1
  6
CONTINUOUS
 62
     7
 10
-687.1298142821
 20
1250.7908149647
 30
0.0
 11
-687.1298142821
 21
1349.7908149647
 31
0.0
  0
LINE
  5
20F
  8
1
  6
CONTINUOUS
 62
     7
 10
-595.6298142821
 20
1303.4508059647
 30
0.0
 11
-595.6298142821
 21
1303.4577179647
 31
0.0
  0
LINE
  5
210
  8
1
  6
CONTINUOUS
 62
     7
 10
-682.1232311171001
 20
1349.7908149647
 30
0.0
 11
-687.1298142821
 21
1349.7908149647
 31
0.0
  0
LINE
  5
211
  8
1
  6
CONTINUOUS
 62
     7
 10
-622.3515962821
 20
1239.2908149647
 30
0.0
 11
-622.3515962821
 21
1361.2908149647
 31
0.0
  0
LINE
  5
212
  8
1
  6
CONTINUOUS
 62
     7
 10
-690.1298142821
 20
1251.7908149647
 30
0.0
 11
-690.1298142821
 21
1348.7908149647
 31
0.0
  0
ARC
  5
213
  8
1
  6
CONTINUOUS
 62
     7
 10
-699.6298142821
 20
1253.2908149647
 30
0.0
 40
0.4999999999999449
 50
0.0
 51
90.0
  0
ARC
  5
214
  8
1
  6
CONTINUOUS
 62
     7
 10
-699.6298142821
 20
1347.2908149647
 30
0.0
 40
0.4999999999999449
 50
270.0
 51
0.0
  0
LINE
  5
215
  8
1
  6
CONTINUOUS
 62
     7
 10
-545.1298142821
 20
1347.2908149647
 30
0.0
 11
-545.1298142821
 21
1252.2088501837
 31
0.0
  0
ARC
  5
216
  8
1
  6
CONTINUOUS
 62
     7
 10
-727.1298142821001
 20
1240.2908149647
 30
0.0
 40
1.000000000000001
 50
180.0
 51
270.0
  0
LINE
  5
217
  8
1
  6
CONTINUOUS
 62
     7
 10
-693.1298142821
 20
1251.7908149647
 30
0.0
 11
-690.1298142821
 21
1251.7908149647
 31
0.0
  0
LINE
  5
218
  8
1
  6
CONTINUOUS
 62
     7
 10
-695.6298142821
 20
1253.7908149647
 30
0.0
 11
-693.6298142821
 21
1253.7908149647
 31
0.0
  0
LINE
  5
219
  8
1
  6
CONTINUOUS
 62
     7
 10
-574.3207262821
 20
1347.2908149647
 30
0.0
 11
-580.2539237107443
 21
1347.2908149647
 31
0.0
  0
ARC
  5
21A
  8
1
  6
CONTINUOUS
 62
     7
 10
-687.6298142821
 20
1253.2908149647
 30
0.0
 40
0.4999999999999449
 50
0.0
 51
90.0
  0
ARC
  5
21B
  8
1
  6
CONTINUOUS
 62
     7
 10
-689.6298142821
 20
1253.2908149647
 30
0.0
 40
0.4999999999999449
 50
90.0
 51
180.0
  0
ARC
  5
21C
  8
1
  6
CONTINUOUS
 62
     7
 10
-689.6298142821
 20
1347.2908149647
 30
0.0
 40
0.4999999999999449
 50
180.0
 51
270.0
  0
LINE
  5
21D
  8
1
  6
CONTINUOUS
 62
     7
 10
-693.6298142821
 20
1346.7908149647
 30
0.0
 11
-695.6298142821
 21
1346.7908149647
 31
0.0
  0
LINE
  5
21E
  8
1
  6
CONTINUOUS
 62
     7
 10
-687.1298142821
 20
1250.7908149647
 30
0.0
 11
-682.1298142821
 21
1250.7908149647
 31
0.0
  0
ARC
  5
21F
  8
1
  6
CONTINUOUS
 62
     7
 10
-693.6298142821
 20
1253.2908149647
 30
0.0
 40
0.4999999999999449
 50
0.0
 51
90.0
  0
LINE
  5
220
  8
1
  6
CONTINUOUS
 62
     7
 10
-690.1298142821
 20
1348.7908149647
 30
0.0
 11
-693.1298142821
 21
1348.7908149647
 31
0.0
  0
ARC
  5
221
  8
1
  6
CONTINUOUS
 62
     7
 10
-727.1298142821001
 20
1360.2780069647
 30
0.0
 40
1.000000000000001
 50
90.0
 51
180.0
  0
LINE
  5
222
  8
1
  6
CONTINUOUS
 62
     7
 10
-693.1298142821
 20
1251.7908149647
 30
0.0
 11
-693.1298142821
 21
1348.7908149647
 31
0.0
  0
ARC
  5
223
  8
1
  6
CONTINUOUS
 62
     7
 10
-695.6298142821
 20
1347.2908149647
 30
0.0
 40
0.4999999999999449
 50
180.0
 51
270.0
  0
ARC
  5
224
  8
1
  6
CONTINUOUS
 62
     7
 10
-693.6298142821
 20
1347.2908149647
 30
0.0
 40
0.4999999999999449
 50
270.0
 51
0.0
  0
LINE
  5
225
  8
1
  6
CONTINUOUS
 62
     7
 10
-689.6298142821
 20
1253.7908149647
 30
0.0
 11
-687.6298142821
 21
1253.7908149647
 31
0.0
  0
ARC
  5
226
  8
1
  6
CONTINUOUS
 62
     7
 10
-695.6298142821
 20
1253.2908149647
 30
0.0
 40
0.4999999999999449
 50
90.0
 51
180.0
  0
ARC
  5
227
  8
1
  6
CONTINUOUS
 62
     7
 10
-687.6298142821
 20
1347.2908149647
 30
0.0
 40
0.4999999999999449
 50
270.0
 51
0.0
  0
LINE
  5
228
  8
1
  6
CONTINUOUS
 62
     7
 10
-618.1298142821001
 20
1259.1005989647
 30
0.0
 11
-618.1298142821001
 21
1297.6018729647
 31
0.0
  0
ARC
  5
229
  8
1
  6
CONTINUOUS
 62
     7
 10
-595.3091522821001
 20
1319.1830289647
 30
0.0
 40
22.05453499999999
 50
269.166916
 51
275.7997779999999
  0
ARC
  5
22A
  8
1
  6
CONTINUOUS
 62
     7
 10
-595.6298142821
 20
1242.2908149647
 30
0.0
 40
3.000000000000003
 50
270.0
 51
0.0
  0
LINE
  5
22B
  8
1
  6
CONTINUOUS
 62
     7
 10
-595.6298142821
 20
1303.4577179647
 30
0.0
 11
-618.1298142821001
 21
1303.4577179647
 31
0.0
  0
LINE
  5
22C
  8
1
  6
CONTINUOUS
 62
     7
 10
-664.3206972821
 20
1347.2908149647
 30
0.0
 11
-670.2539237108
 21
1347.2908149647
 31
0.0
  0
LINE
  5
22D
  8
1
  6
CONTINUOUS
 62
     7
 10
-595.6298142821
 20
1297.1239129647
 30
0.0
 11
-595.6298142821
 21
1297.1308249647
 31
0.0
  0
ARC
  5
22E
  8
1
  6
CONTINUOUS
 62
     7
 10
-595.3289792821
 20
1280.1880289647
 30
0.0
 40
23.26472199999996
 50
84.524586
 51
90.74091
  0
LINE
  5
22F
  8
1
  6
CONTINUOUS
 62
     7
 10
-618.1298142821001
 20
1239.3501099647
 30
0.0
 11
-618.1298142821001
 21
1255.2978599647
 31
0.0
  0
ARC
  5
230
  8
1
  6
CONTINUOUS
 62
     7
 10
-595.6298142821
 20
1358.2908149647
 30
0.0
 40
3.000000000000003
 50
0.0
 51
90.0
  0
LINE
  5
231
  8
1
  6
CONTINUOUS
 62
     7
 10
-682.1298142821
 20
1250.7908149647
 30
0.0
 11
-682.1298142821
 21
1315.1368145838
 31
0.0
  0
LINE
  5
232
  8
1
  6
CONTINUOUS
 62
     7
 10
-674.3207262821
 20
1347.2908149647
 30
0.0
 11
-679.7886522821001
 21
1347.2908149647
 31
0.0
  0
LINE
  5
233
  8
1
  6
CONTINUOUS
 62
     7
 10
-670.3801962821
 20
1349.7907499647
 30
0.0
 11
-665.3796812821
 21
1250.7909249647
 31
0.0
  0
ARC
  5
234
  8
1
  6
CONTINUOUS
 62
     7
 10
-595.4070092821001
 20
1258.0127969647
 30
0.0
 40
2.854849999999964
 50
265.523834
 51
345.098511
  0
LINE
  5
235
  8
1
  6
CONTINUOUS
 62
     7
 10
-595.6298142821
 20
1345.4149769647
 30
0.0
 11
-618.1298142821001
 21
1345.4149769647
 31
0.0
  0
ARC
  5
236
  8
1
  6
CONTINUOUS
 62
     7
 10
-595.4111012821
 20
1342.5630579647
 30
0.0
 40
2.860293000000014
 50
14.992236
 51
94.38541900000003
  0
LINE
  5
237
  8
1
  6
CONTINUOUS
 62
     7
 10
-670.3801962821
 20
1349.7907499647
 30
0.0
 11
-673.8801962821001
 21
1349.7907419647
 31
0.0
  0
LINE
  5
238
  8
1
  6
CONTINUOUS
 62
     7
 10
-622.3515962821
 20
1239.2908149647
 30
0.0
 11
-595.6298142821
 21
1239.2908149647
 31
0.0
  0
LINE
  5
239
  8
1
  6
CONTINUOUS
 62
     7
 10
-618.1298142821001
 20
1302.9797579647
 30
0.0
 11
-618.1298142821001
 21
1341.4810319647
 31
0.0
  0
LINE
  5
23A
  8
1
  6
CONTINUOUS
 62
     7
 10
-674.3207262821
 20
1347.2908149647
 30
0.0
 11
-673.8801962821001
 21
1349.7907419647
 31
0.0
  0
LINE
  5
23B
  8
1
  6
CONTINUOUS
 62
     7
 10
-618.1298142821001
 20
1297.1239129647
 30
0.0
 11
-595.6298142821
 21
1297.1239129647
 31
0.0
  0
LINE
  5
23C
  8
1
  6
CONTINUOUS
 62
     7
 10
-618.1298142821001
 20
1255.1666539647
 30
0.0
 11
-595.6298142821
 21
1255.1666539647
 31
0.0
  0
LINE
  5
23D
  8
1
  6
CONTINUOUS
 62
     7
 10
-618.1298142821001
 20
1345.2837709647
 30
0.0
 11
-618.1298142821001
 21
1361.2315209647
 31
0.0
  0
LINE
  5
23E
  8
1
  6
CONTINUOUS
 62
     7
 10
-668.8796812821
 20
1250.7909329647
 30
0.0
 11
-665.3796812821
 21
1250.7909249647
 31
0.0
  0
LINE
  5
23F
  8
1
  6
CONTINUOUS
 62
     7
 10
-664.9391502821
 20
1253.2908149647
 30
0.0
 11
-659.0059511968001
 21
1253.2908149647
 31
0.0
  0
LINE
  5
240
  8
1
  6
CONTINUOUS
 62
     7
 10
-668.8796812821
 20
1250.7909329647
 30
0.0
 11
-673.8801962821001
 21
1349.7907419647
 31
0.0
  0
LINE
  5
241
  8
1
  6
CONTINUOUS
 62
     7
 10
-665.3796812821
 20
1250.7909249647
 30
0.0
 11
-664.9391502821
 21
1253.2908149647
 31
0.0
  0
LINE
  5
242
  8
1
  6
CONTINUOUS
 62
     7
 10
-595.6298142821
 20
1361.2908149647
 30
0.0
 11
-622.3515962821
 21
1361.2908149647
 31
0.0
  0
LINE
  5
243
  8
1
  6
CONTINUOUS
 62
     7
 10
-592.6298142821
 20
1242.2908149647
 30
0.0
 11
-592.6298142821
 21
1358.2908149647
 31
0.0
  0
ARC
  5
244
  8
1
  6
CONTINUOUS
 62
     7
 10
-383.8298032821
 20
1310.5908339647
 30
0.0
 40
0.800019
 50
208.955831
 51
269.999193
  0
ARC
  5
245
  8
1
  6
CONTINUOUS
 62
     7
 10
-386.4298252821
 20
1307.9907959647
 30
0.0
 40
0.800019
 50
28.955831
 51
89.999193
  0
ARC
  5
246
  8
1
  6
CONTINUOUS
 62
     7
 10
-385.1298142821
 20
1309.2908149647
 30
0.0
 40
2.163668
 50
346.6387999999999
 51
13.3612
  0
LINE
  5
247
  8
1
  6
CONTINUOUS
 62
     7
 10
-426.4184892821
 20
1348.7344639647
 30
0.0
 11
-425.5524642821
 21
1347.7463209647
 31
0.0
  0
ARC
  5
248
  8
1
  6
CONTINUOUS
 62
     7
 10
-506.8969352821
 20
1303.4034289647
 30
0.0
 40
116.423906
 50
2.667723
 51
2.899218999999999
  0
ARC
  5
249
  8
1
  6
CONTINUOUS
 62
     7
 10
-383.8298142821
 20
1310.5908149647
 30
0.0
 40
0.8
 50
180.0
 51
208.955024
  0
ARC
  5
24A
  8
1
  6
CONTINUOUS
 62
     7
 10
-385.1298142821
 20
1309.2908149647
 30
0.0
 40
4.325
 50
202.353426
 51
217.646574
  0
LINE
  5
24B
  8
1
  6
CONTINUOUS
 62
     7
 10
-389.1298142821
 20
1307.6459369647
 30
0.0
 11
-389.1298142821
 21
1310.9356929647
 31
0.0
  0
ARC
  5
24C
  8
1
  6
CONTINUOUS
 62
     7
 10
-385.1298142821
 20
1309.2908149647
 30
0.0
 40
4.325
 50
142.353426
 51
157.646574
  0
ARC
  5
24D
  8
1
  6
CONTINUOUS
 62
     7
 10
-386.4298142821
 20
1307.9908149647
 30
0.0
 40
0.8
 50
0.0
 51
28.955024
  0
LINE
  5
24E
  8
1
  6
CONTINUOUS
 62
     7
 10
-384.5543202821
 20
1313.5773559647
 30
0.0
 11
-381.7053082821
 21
1311.9324769647
 31
0.0
  0
LINE
  5
24F
  8
1
  6
CONTINUOUS
 62
     7
 10
-422.0714322821
 20
1306.2033749647
 30
0.0
 11
-419.0144442821
 21
1304.9331519647
 31
0.0
  0
ARC
  5
250
  8
1
  6
CONTINUOUS
 62
     7
 10
-385.1298142821
 20
1309.2908149647
 30
0.0
 40
4.325
 50
22.353426
 51
37.646574
  0
LINE
  5
251
  8
1
  6
CONTINUOUS
 62
     7
 10
-381.1298142821
 20
1310.9356929647
 30
0.0
 11
-381.1298142821
 21
1307.6459369647
 31
0.0
  0
LINE
  5
252
  8
1
  6
CONTINUOUS
 62
     7
 10
-425.5524642821
 20
1347.7463209647
 30
0.0
 11
-419.0144442821
 21
1348.2908149647
 31
0.0
  0
LINE
  5
253
  8
1
  6
CONTINUOUS
 62
     7
 10
-407.8803332821
 20
1252.2908149647
 30
0.0
 11
-406.7466452821
 21
1250.6717399647
 31
0.0
  0
LINE
  5
254
  8
1
  6
CONTINUOUS
 62
     7
 10
-390.4203342821
 20
1302.8534529647
 30
0.0
 11
-390.4203342821
 21
1297.7281769647
 31
0.0
  0
LINE
  5
255
  8
1
  6
CONTINUOUS
 62
     7
 10
-406.7466452821
 20
1349.9098899647
 30
0.0
 11
-407.8803332821
 21
1348.2908149647
 31
0.0
  0
ARC
  5
256
  8
1
  6
CONTINUOUS
 62
     7
 10
-376.0658512821
 20
1251.1157039647
 30
0.0
 40
1.5
 50
95.0
 51
150.0
  0
ARC
  5
257
  8
1
  6
CONTINUOUS
 62
     7
 10
-265.5883312821
 20
1303.3418899647
 30
0.0
 40
114.122097
 50
177.011287
 51
177.332277
  0
ARC
  5
258
  8
1
  6
CONTINUOUS
 62
     7
 10
-385.0884732821
 20
1309.7800589647
 30
0.0
 40
5.579893
 50
354.969853
 51
185.0301469999999
  0
ARC
  5
259
  8
1
  6
CONTINUOUS
 62
     7
 10
-573.6994912821
 20
1300.2908149647
 30
0.0
 40
183.298938
 50
0.8010669999999999
 51
2.667723
  0
ARC
  5
25A
  8
1
  6
CONTINUOUS
 62
     7
 10
-265.5883312821
 20
1297.2397399647
 30
0.0
 40
114.122097
 50
182.667723
 51
182.988713
  0
ARC
  5
25B
  8
1
  6
CONTINUOUS
 62
     7
 10
-573.6994912821
 20
1300.2908149647
 30
0.0
 40
183.298938
 50
357.332277
 51
359.198933
  0
LINE
  5
25C
  8
1
  6
CONTINUOUS
 62
     7
 10
-386.4298142821
 20
1309.7908149647
 30
0.0
 11
-387.2349172821
 21
1309.7908149647
 31
0.0
  0
LINE
  5
25D
  8
1
  6
CONTINUOUS
 62
     7
 10
-383.0247112821
 20
1309.7908149647
 30
0.0
 11
-383.8298142821
 21
1309.7908149647
 31
0.0
  0
ARC
  5
25E
  8
1
  6
CONTINUOUS
 62
     7
 10
-378.7160232821
 20
1349.0561579647
 30
0.0
 40
1.0
 50
30.0
 51
88.465659
  0
LINE
  5
25F
  8
1
  6
CONTINUOUS
 62
     7
 10
-419.0144442821
 20
1348.2908149647
 30
0.0
 11
-426.1298142821
 21
1349.2908149647
 31
0.0
  0
LINE
  5
260
  8
1
  6
CONTINUOUS
 62
     7
 10
-383.8298142821
 20
1308.7908149647
 30
0.0
 11
-383.0247112821
 21
1308.7908149647
 31
0.0
  0
LINE
  5
261
  8
1
  6
CONTINUOUS
 62
     7
 10
-385.7298142821
 20
1310.2035169647
 30
0.0
 11
-385.7298142821
 21
1312.6432099647
 31
0.0
  0
ARC
  5
262
  8
1
  6
CONTINUOUS
 62
     7
 10
-383.8298042821
 20
1307.9907979647
 30
0.0
 40
0.800017
 50
90.000699
 51
151.044276
  0
ARC
  5
263
  8
1
  6
CONTINUOUS
 62
     7
 10
-386.4298142821
 20
1310.5908149647
 30
0.0
 40
0.8
 50
331.044976
 51
0.0
  0
ARC
  5
264
  8
1
  6
CONTINUOUS
 62
     7
 10
-383.8298142821
 20
1307.9908149647
 30
0.0
 40
0.8
 50
151.044976
 51
180.0
  0
ARC
  5
265
  8
1
  6
CONTINUOUS
 62
     7
 10
-376.0658512821
 20
1349.4659259647
 30
0.0
 40
1.5
 50
210.0
 51
265.0
  0
ARC
  5
266
  8
1
  6
CONTINUOUS
 62
     7
 10
-425.0401362821
 20
1307.5292599647
 30
0.0
 40
0.513153
 50
183.248877
 51
258.205255
  0
LINE
  5
267
  8
1
  6
CONTINUOUS
 62
     7
 10
-376.1965852821
 20
1252.6099959647
 30
0.0
 11
-374.1298142821
 21
1252.7908149647
 31
0.0
  0
ARC
  5
268
  8
1
  6
CONTINUOUS
 62
     7
 10
-378.7160232821
 20
1251.5254719647
 30
0.0
 40
1.0
 50
271.5343409999999
 51
330.0
  0
ARC
  5
269
  8
1
  6
CONTINUOUS
 62
     7
 10
-200.1065242821
 20
1300.2908149647
 30
0.0
 40
179.674947
 50
177.332277
 51
182.667723
  0
ARC
  5
26A
  8
1
  6
CONTINUOUS
 62
     7
 10
-405.1083402821
 20
1348.7627369647
 30
0.0
 40
2.0
 50
88.465659
 51
145.0
  0
ARC
  5
26B
  8
1
  6
CONTINUOUS
 62
     7
 10
-506.8969352821
 20
1297.1782009647
 30
0.0
 40
116.423906
 50
357.100781
 51
357.332277
  0
LINE
  5
26C
  8
1
  6
CONTINUOUS
 62
     7
 10
-384.5298142821
 20
1308.3781129647
 30
0.0
 11
-384.5298142821
 21
1305.9384199647
 31
0.0
  0
ARC
  5
26D
  8
1
  6
CONTINUOUS
 62
     7
 10
-386.4298242821
 20
1310.5908319647
 30
0.0
 40
0.800017
 50
270.000699
 51
331.0442760000001
  0
CIRCLE
  5
26E
  8
1
  6
CONTINUOUS
 62
     7
 10
-385.1298142821
 20
1309.2908149647
 30
0.0
 40
3.5
  0
ARC
  5
26F
  8
1
  6
CONTINUOUS
 62
     7
 10
-385.1298142821
 20
1309.2908149647
 30
0.0
 40
4.325
 50
322.353426
 51
337.646574
  0
LINE
  5
270
  8
1
  6
CONTINUOUS
 62
     7
 10
-381.7053082821
 20
1306.6491529647
 30
0.0
 11
-384.5543202821
 21
1305.0042739647
 31
0.0
  0
LINE
  5
271
  8
1
  6
CONTINUOUS
 62
     7
 10
-385.7053082821
 20
1305.0042739647
 30
0.0
 11
-388.5543202821
 21
1306.6491529647
 31
0.0
  0
ARC
  5
272
  8
1
  6
CONTINUOUS
 62
     7
 10
-385.1298142821
 20
1309.2908149647
 30
0.0
 40
4.325
 50
262.353426
 51
277.646574
  0
ARC
  5
273
  8
1
  6
CONTINUOUS
 62
     7
 10
-385.1298142821
 20
1309.2908149647
 30
0.0
 40
4.325
 50
82.353426
 51
97.646574
  0
LINE
  5
274
  8
1
  6
CONTINUOUS
 62
     7
 10
-419.0144442821
 20
1252.2908149647
 30
0.0
 11
-407.8803332821
 21
1252.2908149647
 31
0.0
  0
LINE
  5
275
  8
1
  6
CONTINUOUS
 62
     7
 10
-425.5524642821
 20
1307.5001779647
 30
0.0
 11
-425.5524642821
 21
1347.7463209647
 31
0.0
  0
ARC
  5
276
  8
1
  6
CONTINUOUS
 62
     7
 10
-405.1083402821
 20
1251.8188929647
 30
0.0
 40
2.0
 50
215.0
 51
271.5343409999999
  0
LINE
  5
277
  8
1
  6
CONTINUOUS
 62
     7
 10
-407.8803332821
 20
1348.2908149647
 30
0.0
 11
-419.0144442821
 21
1348.2908149647
 31
0.0
  0
LINE
  5
278
  8
1
  6
CONTINUOUS
 62
     7
 10
-387.2349172821
 20
1308.7908149647
 30
0.0
 11
-386.4298142821
 21
1308.7908149647
 31
0.0
  0
ARC
  5
279
  8
1
  6
CONTINUOUS
 62
     7
 10
-385.0884732821
 20
1290.8015709647
 30
0.0
 40
5.579893
 50
174.969853
 51
5.030146999999999
  0
LINE
  5
27A
  8
1
  6
CONTINUOUS
 62
     7
 10
-385.7298142821
 20
1305.9384199647
 30
0.0
 11
-385.7298142821
 21
1308.3781129647
 31
0.0
  0
LINE
  5
27B
  8
1
  6
CONTINUOUS
 62
     7
 10
-374.1298142821
 20
1252.7908149647
 30
0.0
 11
-374.1298142821
 21
1347.7908149647
 31
0.0
  0
LINE
  5
27C
  8
1
  6
CONTINUOUS
 62
     7
 10
-384.5298142821
 20
1312.6432099647
 30
0.0
 11
-384.5298142821
 21
1310.2035169647
 31
0.0
  0
LINE
  5
27D
  8
1
  6
CONTINUOUS
 62
     7
 10
-374.1298142821
 20
1347.7908149647
 30
0.0
 11
-376.1965852821
 21
1347.9716339647
 31
0.0
  0
LINE
  5
27E
  8
1
  6
CONTINUOUS
 62
     7
 10
-405.0547882821
 20
1249.8196099647
 30
0.0
 11
-378.6892472821
 21
1250.5258299647
 31
0.0
  0
LINE
  5
27F
  8
1
  6
CONTINUOUS
 62
     7
 10
-378.6892472821
 20
1350.0557999647
 30
0.0
 11
-405.0547882821
 21
1350.7620199647
 31
0.0
  0
LINE
  5
280
  8
1
  6
CONTINUOUS
 62
     7
 10
-377.3648892821
 20
1348.7159259647
 30
0.0
 11
-377.8499972821
 21
1349.5561579647
 31
0.0
  0
LINE
  5
281
  8
1
  6
CONTINUOUS
 62
     7
 10
-377.8499972821
 20
1251.0254719647
 30
0.0
 11
-377.3648892821
 21
1251.8657039647
 31
0.0
  0
LINE
  5
282
  8
1
  6
CONTINUOUS
 62
     7
 10
-426.1298142821
 20
1349.2908149647
 30
0.0
 11
-430.1298142821
 21
1349.2908149647
 31
0.0
  0
ARC
  5
283
  8
1
  6
CONTINUOUS
 62
     7
 10
-385.1298142821
 20
1309.2908149647
 30
0.0
 40
2.163668
 50
166.6388
 51
193.3612
  0
LINE
  5
284
  8
1
  6
CONTINUOUS
 62
     7
 10
-426.4184892821
 20
1306.9363201533
 30
0.0
 11
-426.4184892821
 21
1348.7344639647
 31
0.0
  0
LINE
  5
285
  8
1
  6
CONTINUOUS
 62
     7
 10
-419.0144442821
 20
1295.6484779647
 30
0.0
 11
-419.0144442821
 21
1304.9331519647
 31
0.0
  0
LINE
  5
286
  8
1
  6
CONTINUOUS
 62
     7
 10
-419.0144442821
 20
1304.9331519647
 30
0.0
 11
-426.4184892821
 21
1306.9363201533
 31
0.0
  0
LINE
  5
287
  8
1
  6
CONTINUOUS
 62
     7
 10
-426.4184892821
 20
1307.3681654672
 30
0.0
 11
-422.0714322821
 21
1306.2033749647
 31
0.0
  0
LINE
  5
288
  8
1
  6
CONTINUOUS
 62
     7
 10
-407.8803332821
 20
1252.2908149647
 30
0.0
 11
-407.8803332821
 21
1348.2908149647
 31
0.0
  0
LINE
  5
289
  8
1
  6
CONTINUOUS
 62
     7
 10
-674.3207262821
 20
1202.0543317797
 30
0.0
 11
-673.8801962821001
 21
1204.5542587797
 31
0.0
  0
LINE
  5
28A
  8
1
  6
CONTINUOUS
 62
     7
 10
-658.8796812821
 20
1105.5544497797
 30
0.0
 11
-663.8801962821
 21
1204.5542587797
 31
0.0
  0
LINE
  5
28B
  8
1
  6
CONTINUOUS
 62
     7
 10
-670.3801962821
 20
1204.5542667797
 30
0.0
 11
-665.3796812821
 21
1105.5544417797
 31
0.0
  0
LINE
  5
28C
  8
1
  6
CONTINUOUS
 62
     7
 10
-664.3206972821
 20
1202.0543317797
 30
0.0
 11
-670.2539237108
 21
1202.0543317797
 31
0.0
  0
LINE
  5
28D
  8
1
  6
CONTINUOUS
 62
     7
 10
-664.3207262821002
 20
1202.0543317797
 30
0.0
 11
-663.8801962821
 21
1204.5542587797
 31
0.0
  0
LINE
  5
28E
  8
1
  6
CONTINUOUS
 62
     7
 10
-654.3206972821
 20
1202.0543317797
 30
0.0
 11
-660.2539237108
 21
1202.0543317797
 31
0.0
  0
LINE
  5
28F
  8
1
  6
CONTINUOUS
 62
     7
 10
-650.3801962821
 20
1204.5542667797
 30
0.0
 11
-645.3796812821001
 21
1105.5544417797
 31
0.0
  0
LINE
  5
290
  8
1
  6
CONTINUOUS
 62
     7
 10
-654.3207262821002
 20
1202.0543317797
 30
0.0
 11
-653.8801962821
 21
1204.5542587797
 31
0.0
  0
LINE
  5
291
  8
1
  6
CONTINUOUS
 62
     7
 10
-645.3796812821001
 20
1105.5544417797
 30
0.0
 11
-644.9391502821001
 21
1108.0543317797
 31
0.0
  0
LINE
  5
292
  8
1
  6
CONTINUOUS
 62
     7
 10
-644.9391502821001
 20
1108.0543317797
 30
0.0
 11
-639.0059511968
 21
1108.0543317797
 31
0.0
  0
LINE
  5
293
  8
1
  6
CONTINUOUS
 62
     7
 10
-668.8796812821
 20
1105.5544497797
 30
0.0
 11
-673.8801962821001
 21
1204.5542587797
 31
0.0
  0
LINE
  5
294
  8
1
  6
CONTINUOUS
 62
     7
 10
-644.3206972821
 20
1202.0543317797
 30
0.0
 11
-650.2539237108
 21
1202.0543317797
 31
0.0
  0
LINE
  5
295
  8
1
  6
CONTINUOUS
 62
     7
 10
-674.3207262821
 20
1202.0543317797
 30
0.0
 11
-679.7886522821001
 21
1202.0543317797
 31
0.0
  0
ARC
  5
296
  8
1
  6
CONTINUOUS
 62
     7
 10
-595.4070092821001
 20
1112.7763137797
 30
0.0
 40
2.854849999999964
 50
265.523834
 51
345.098511
  0
LINE
  5
297
  8
1
  6
CONTINUOUS
 62
     7
 10
-660.3801962821
 20
1204.5542667797
 30
0.0
 11
-663.8801962821
 21
1204.5542587797
 31
0.0
  0
ARC
  5
298
  8
1
  6
CONTINUOUS
 62
     7
 10
-595.6298142821
 20
1213.0543317797
 30
0.0
 40
3.000000000000003
 50
0.0
 51
90.0
  0
LINE
  5
299
  8
1
  6
CONTINUOUS
 62
     7
 10
-638.8796812821
 20
1105.5544497797
 30
0.0
 11
-635.3796812821001
 21
1105.5544417797
 31
0.0
  0
LINE
  5
29A
  8
1
  6
CONTINUOUS
 62
     7
 10
-664.9391502821
 20
1108.0543317797
 30
0.0
 11
-659.0059511968001
 21
1108.0543317797
 31
0.0
  0
LINE
  5
29B
  8
1
  6
CONTINUOUS
 62
     7
 10
-665.3796812821
 20
1105.5544417797
 30
0.0
 11
-664.9391502821
 21
1108.0543317797
 31
0.0
  0
LINE
  5
29C
  8
1
  6
CONTINUOUS
 62
     7
 10
-658.8796812821
 20
1105.5544497797
 30
0.0
 11
-655.3796812821001
 21
1105.5544417797
 31
0.0
  0
LINE
  5
29D
  8
1
  6
CONTINUOUS
 62
     7
 10
-655.3796812821001
 20
1105.5544417797
 30
0.0
 11
-654.9391502821001
 21
1108.0543317797
 31
0.0
  0
LINE
  5
29E
  8
1
  6
CONTINUOUS
 62
     7
 10
-654.9391502821001
 20
1108.0543317797
 30
0.0
 11
-649.0059511968001
 21
1108.0543317797
 31
0.0
  0
LINE
  5
29F
  8
1
  6
CONTINUOUS
 62
     7
 10
-660.3801962821
 20
1204.5542667797
 30
0.0
 11
-655.3796812821001
 21
1105.5544417797
 31
0.0
  0
LINE
  5
2A0
  8
1
  6
CONTINUOUS
 62
     7
 10
-648.8796812821
 20
1105.5544497797
 30
0.0
 11
-645.3796812821001
 21
1105.5544417797
 31
0.0
  0
LINE
  5
2A1
  8
1
  6
CONTINUOUS
 62
     7
 10
-648.8796812821
 20
1105.5544497797
 30
0.0
 11
-653.8801962821
 21
1204.5542587797
 31
0.0
  0
LINE
  5
2A2
  8
1
  6
CONTINUOUS
 62
     7
 10
-650.3801962821
 20
1204.5542667797
 30
0.0
 11
-653.8801962821
 21
1204.5542587797
 31
0.0
  0
ARC
  5
2A3
  8
1
  6
CONTINUOUS
 62
     7
 10
-595.6298142821
 20
1097.0543317797
 30
0.0
 40
3.000000000000003
 50
270.0
 51
0.0
  0
ARC
  5
2A4
  8
1
  6
CONTINUOUS
 62
     7
 10
-595.4111012821
 20
1197.3265747797
 30
0.0
 40
2.860293000000014
 50
14.992236
 51
94.38541900000003
  0
LINE
  5
2A5
  8
1
  6
CONTINUOUS
 62
     7
 10
-618.1298142821001
 20
1109.9301707797
 30
0.0
 11
-595.6298142821
 21
1109.9301707797
 31
0.0
  0
LINE
  5
2A6
  8
1
  6
CONTINUOUS
 62
     7
 10
-668.8796812821
 20
1105.5544497797
 30
0.0
 11
-665.3796812821
 21
1105.5544417797
 31
0.0
  0
LINE
  5
2A7
  8
1
  6
CONTINUOUS
 62
     7
 10
-670.3801962821
 20
1204.5542667797
 30
0.0
 11
-673.8801962821001
 21
1204.5542587797
 31
0.0
  0
LINE
  5
2A8
  8
1
  6
CONTINUOUS
 62
     7
 10
-595.6298142821
 20
1200.1784937797
 30
0.0
 11
-618.1298142821001
 21
1200.1784937797
 31
0.0
  0
LINE
  5
2A9
  8
1
  6
CONTINUOUS
 62
     7
 10
-590.3801962821
 20
1204.5542667797
 30
0.0
 11
-585.3796812821
 21
1105.5544417797
 31
0.0
  0
LINE
  5
2AA
  8
1
  6
CONTINUOUS
 62
     7
 10
-678.8796812821
 20
1105.5544497797
 30
0.0
 11
-682.1298142821
 21
1169.9003313988
 31
0.0
  0
LINE
  5
2AB
  8
1
  6
CONTINUOUS
 62
     7
 10
-630.3801962821
 20
1204.5542667797
 30
0.0
 11
-625.3796812821
 21
1105.5544417797
 31
0.0
  0
LINE
  5
2AC
  8
1
  6
CONTINUOUS
 62
     7
 10
-628.8796812821
 20
1105.5544497797
 30
0.0
 11
-633.8801962821
 21
1204.5542587797
 31
0.0
  0
LINE
  5
2AD
  8
1
  6
CONTINUOUS
 62
     7
 10
-628.8796812821
 20
1105.5544497797
 30
0.0
 11
-625.3796812821
 21
1105.5544417797
 31
0.0
  0
LINE
  5
2AE
  8
1
  6
CONTINUOUS
 62
     7
 10
-625.3796812821
 20
1105.5544417797
 30
0.0
 11
-624.9391502821
 21
1108.0543317797
 31
0.0
  0
LINE
  5
2AF
  8
1
  6
CONTINUOUS
 62
     7
 10
-640.3801962821
 20
1204.5542667797
 30
0.0
 11
-643.8801962821
 21
1204.5542587797
 31
0.0
  0
LINE
  5
2B0
  8
1
  6
CONTINUOUS
 62
     7
 10
-624.3207262821
 20
1202.0543317797
 30
0.0
 11
-623.8801962821
 21
1204.5542587797
 31
0.0
  0
LINE
  5
2B1
  8
1
  6
CONTINUOUS
 62
     7
 10
-640.3801962821
 20
1204.5542667797
 30
0.0
 11
-635.3796812821001
 21
1105.5544417797
 31
0.0
  0
LINE
  5
2B2
  8
1
  6
CONTINUOUS
 62
     7
 10
-584.9391502821
 20
1108.0543317797
 30
0.0
 11
-579.0059511968
 21
1108.0543317797
 31
0.0
  0
LINE
  5
2B3
  8
1
  6
CONTINUOUS
 62
     7
 10
-624.9391502821
 20
1108.0543317797
 30
0.0
 11
-622.3515962821
 21
1108.0543317797
 31
0.0
  0
LINE
  5
2B4
  8
1
  6
CONTINUOUS
 62
     7
 10
-644.3207262821002
 20
1202.0543317797
 30
0.0
 11
-643.8801962821
 21
1204.5542587797
 31
0.0
  0
LINE
  5
2B5
  8
1
  6
CONTINUOUS
 62
     7
 10
-622.3515962821
 20
1174.291154272
 30
0.0
 11
-623.8801962821
 21
1204.5542587797
 31
0.0
  0
LINE
  5
2B6
  8
1
  6
CONTINUOUS
 62
     7
 10
-592.6298142821
 20
1108.0543317797
 30
0.0
 11
-589.0059511968
 21
1108.0543317797
 31
0.0
  0
LINE
  5
2B7
  8
1
  6
CONTINUOUS
 62
     7
 10
-588.8796812821001
 20
1105.5544497797
 30
0.0
 11
-592.6298142821
 21
1179.7992927058
 31
0.0
  0
LINE
  5
2B8
  8
1
  6
CONTINUOUS
 62
     7
 10
-675.3796812821
 20
1105.5544417797
 30
0.0
 11
-674.9391502821
 21
1108.0543317797
 31
0.0
  0
LINE
  5
2B9
  8
1
  6
CONTINUOUS
 62
     7
 10
-634.9391502821001
 20
1108.0543317797
 30
0.0
 11
-629.0059511968
 21
1108.0543317797
 31
0.0
  0
LINE
  5
2BA
  8
1
  6
CONTINUOUS
 62
     7
 10
-634.3206972821
 20
1202.0543317797
 30
0.0
 11
-640.2539237108
 21
1202.0543317797
 31
0.0
  0
LINE
  5
2BB
  8
1
  6
CONTINUOUS
 62
     7
 10
-634.3207262821
 20
1202.0543317797
 30
0.0
 11
-633.8801962821
 21
1204.5542587797
 31
0.0
  0
LINE
  5
2BC
  8
1
  6
CONTINUOUS
 62
     7
 10
-624.3206972821
 20
1202.0543317797
 30
0.0
 11
-630.2539237108
 21
1202.0543317797
 31
0.0
  0
LINE
  5
2BD
  8
1
  6
CONTINUOUS
 62
     7
 10
-680.3801962821
 20
1204.5542667797
 30
0.0
 11
-683.8801962821001
 21
1204.5542587797
 31
0.0
  0
LINE
  5
2BE
  8
1
  6
CONTINUOUS
 62
     7
 10
-674.9391502821
 20
1108.0543317797
 30
0.0
 11
-669.0059511968001
 21
1108.0543317797
 31
0.0
  0
LINE
  5
2BF
  8
1
  6
CONTINUOUS
 62
     7
 10
-638.8796812821
 20
1105.5544497797
 30
0.0
 11
-643.8801962821
 21
1204.5542587797
 31
0.0
  0
LINE
  5
2C0
  8
1
  6
CONTINUOUS
 62
     7
 10
-680.3801962821
 20
1204.5542667797
 30
0.0
 11
-675.3796812821
 21
1105.5544417797
 31
0.0
  0
LINE
  5
2C1
  8
1
  6
CONTINUOUS
 62
     7
 10
-630.3801962821
 20
1204.5542667797
 30
0.0
 11
-633.8801962821
 21
1204.5542587797
 31
0.0
  0
LINE
  5
2C2
  8
1
  6
CONTINUOUS
 62
     7
 10
-622.3515962821
 20
1204.5542622737
 30
0.0
 11
-623.8801962821
 21
1204.5542587797
 31
0.0
  0
LINE
  5
2C3
  8
1
  6
CONTINUOUS
 62
     7
 10
-678.8796812821
 20
1105.5544497797
 30
0.0
 11
-675.3796812821
 21
1105.5544417797
 31
0.0
  0
LINE
  5
2C4
  8
1
  6
CONTINUOUS
 62
     7
 10
-590.3801962821
 20
1204.5542667797
 30
0.0
 11
-592.6298142821
 21
1204.5542616377
 31
0.0
  0
LINE
  5
2C5
  8
1
  6
CONTINUOUS
 62
     7
 10
-635.3796812821001
 20
1105.5544417797
 30
0.0
 11
-634.9391502821001
 21
1108.0543317797
 31
0.0
  0
LINE
  5
2C6
  8
1
  6
CONTINUOUS
 62
     7
 10
-585.3796812821
 20
1105.5544417797
 30
0.0
 11
-584.9391502821
 21
1108.0543317797
 31
0.0
  0
LINE
  5
2C7
  8
1
  6
CONTINUOUS
 62
     7
 10
-682.1298142821
 20
1108.0543317797
 30
0.0
 11
-679.0059511968
 21
1108.0543317797
 31
0.0
  0
LINE
  5
2C8
  8
1
  6
CONTINUOUS
 62
     7
 10
-588.8796812821001
 20
1105.5544497797
 30
0.0
 11
-585.3796812821
 21
1105.5544417797
 31
0.0
  0
LINE
  5
2C9
  8
1
  6
CONTINUOUS
 62
     7
 10
-706.8698142821
 20
1219.1918960201
 30
0.0
 11
-711.4698142821
 21
1091.8625601675
 31
0.0
  0
LINE
  5
2CA
  8
1
  6
CONTINUOUS
 62
     7
 10
-578.8796812821001
 20
1105.5544497797
 30
0.0
 11
-575.3796812821
 21
1105.5544417797
 31
0.0
  0
LINE
  5
2CB
  8
1
  6
CENTER
 62
     5
 10
-752.5
 20
1300.2908149647
 30
0.0
 11
-366.094314003
 21
1300.2908149647
 31
0.0
  0
LINE
  5
2CC
  8
1
  6
CONTINUOUS
 62
     7
 10
-545.1298142821
 20
1202.0543317797
 30
0.0
 11
-550.2539237107442
 21
1202.0543317797
 31
0.0
  0
LINE
  5
2CD
  8
1
  6
CONTINUOUS
 62
     7
 10
-580.3801962821
 20
1204.5542667797
 30
0.0
 11
-583.8801962821
 21
1204.5542587797
 31
0.0
  0
LINE
  5
2CE
  8
1
  6
CONTINUOUS
 62
     7
 10
-584.3206972821
 20
1202.0543317797
 30
0.0
 11
-590.2539237108
 21
1202.0543317797
 31
0.0
  0
LINE
  5
2CF
  8
1
  6
CONTINUOUS
 62
     7
 10
-575.3796812821
 20
1105.5544417797
 30
0.0
 11
-574.9391502821151
 21
1108.0543317797
 31
0.0
  0
LINE
  5
2D0
  8
1
  6
CONTINUOUS
 62
     7
 10
-580.3801962821
 20
1204.5542667797
 30
0.0
 11
-575.3796812821
 21
1105.5544417797
 31
0.0
  0
LINE
  5
2D1
  8
1
  6
CONTINUOUS
 62
     7
 10
-545.3796812821
 20
1105.5544417797
 30
0.0
 11
-545.1298142821
 21
1106.9723669987
 31
0.0
  0
LINE
  5
2D2
  8
1
  6
CONTINUOUS
 62
     7
 10
-545.1298142821
 20
1347.2908149647
 30
0.0
 11
-550.2539237107442
 21
1347.2908149647
 31
0.0
  0
LINE
  5
2D3
  8
1
  6
CONTINUOUS
 62
     7
 10
-545.3796812821
 20
1250.7909249647
 30
0.0
 11
-545.1298142821
 21
1252.2088501837
 31
0.0
  0
LINE
  5
2D4
  8
1
  6
CONTINUOUS
 62
     7
 10
-578.8796812821001
 20
1105.5544497797
 30
0.0
 11
-583.8801962821
 21
1204.5542587797
 31
0.0
  0
LINE
  5
2D5
  8
1
  6
CENTER
 62
     5
 10
-752.5
 20
1155.0543317797
 30
0.0
 11
-366.094314003
 21
1155.0543317797
 31
0.0
  0
LINE
  5
2D6
  8
1
  6
CONTINUOUS
 62
     7
 10
-584.3207262821
 20
1202.0543317797
 30
0.0
 11
-583.8801962821
 21
1204.5542587797
 31
0.0
  0
LINE
  5
2D7
  8
1
  6
CONTINUOUS
 62
     7
 10
-575.3796812821
 20
1250.7909249647
 30
0.0
 11
-574.9391502821151
 21
1253.2908149647
 31
0.0
  0
LINE
  5
2D8
  8
1
  6
CONTINUOUS
 62
     7
 10
-590.3801962821
 20
1349.7907499647
 30
0.0
 11
-585.3796812821
 21
1250.7909249647
 31
0.0
  0
LINE
  5
2D9
  8
1
  6
CONTINUOUS
 62
     7
 10
-584.3206972821
 20
1347.2908149647
 30
0.0
 11
-590.2539237108
 21
1347.2908149647
 31
0.0
  0
LINE
  5
2DA
  8
1
  6
CONTINUOUS
 62
     7
 10
-680.3801962821
 20
1349.7907499647
 30
0.0
 11
-675.3796812821
 21
1250.7909249647
 31
0.0
  0
LINE
  5
2DB
  8
1
  6
CONTINUOUS
 62
     7
 10
-578.8796812821001
 20
1250.7909329647
 30
0.0
 11
-583.8801962821
 21
1349.7907419647
 31
0.0
  0
LINE
  5
2DC
  8
1
  6
CONTINUOUS
 62
     7
 10
-706.6298142821
 20
1105.5543317797
 30
0.0
 11
-706.6298142821
 21
1204.5543317797
 31
0.0
  0
LINE
  5
2DD
  8
1
  6
CONTINUOUS
 62
     7
 10
-682.1298142821
 20
1253.2908149647
 30
0.0
 11
-679.0059511968
 21
1253.2908149647
 31
0.0
  0
LINE
  5
2DE
  8
1
  6
CONTINUOUS
 62
     7
 10
-580.3801962821
 20
1349.7907499647
 30
0.0
 11
-583.8801962821
 21
1349.7907419647
 31
0.0
  0
LINE
  5
2DF
  8
1
  6
CONTINUOUS
 62
     7
 10
-680.3801962821
 20
1349.7907499647
 30
0.0
 11
-683.8801962821001
 21
1349.7907419647
 31
0.0
  0
LINE
  5
2E0
  8
1
  6
CONTINUOUS
 62
     7
 10
-588.8796812821001
 20
1250.7909329647
 30
0.0
 11
-592.6298142821
 21
1325.0357758908
 31
0.0
  0
LINE
  5
2E1
  8
1
  6
CONTINUOUS
 62
     7
 10
-584.3207262821
 20
1347.2908149647
 30
0.0
 11
-583.8801962821
 21
1349.7907419647
 31
0.0
  0
LINE
  5
2E2
  8
1
  6
CONTINUOUS
 62
     7
 10
-728.1298142821001
 20
1095.0543317797
 30
0.0
 11
-728.1298142821001
 21
1215.0415237797
 31
0.0
  0
LINE
  5
2E3
  8
1
  6
CONTINUOUS
 62
     7
 10
-722.1298142821001
 20
1216.0415237797
 30
0.0
 11
-727.1298142821001
 21
1216.0415237797
 31
0.0
  0
LINE
  5
2E4
  8
1
  6
CONTINUOUS
 62
     7
 10
-699.1298142821
 20
1106.5543317797
 30
0.0
 11
-699.1298142821
 21
1203.5543317797
 31
0.0
  0
LINE
  5
2E5
  8
1
  6
CONTINUOUS
 62
     7
 10
-580.3801962821
 20
1349.7907499647
 30
0.0
 11
-575.3796812821
 21
1250.7909249647
 31
0.0
  0
LINE
  5
2E6
  8
1
  6
CONTINUOUS
 62
     7
 10
-585.3796812821
 20
1250.7909249647
 30
0.0
 11
-584.9391502821
 21
1253.2908149647
 31
0.0
  0
LINE
  5
2E7
  8
1
  6
CONTINUOUS
 62
     7
 10
-678.8796812821
 20
1250.7909329647
 30
0.0
 11
-682.1298142821
 21
1315.1368145838
 31
0.0
  0
LINE
  5
2E8
  8
1
  6
CONTINUOUS
 62
     7
 10
-675.3796812821
 20
1250.7909249647
 30
0.0
 11
-674.9391502821
 21
1253.2908149647
 31
0.0
  0
LINE
  5
2E9
  8
1
  6
CONTINUOUS
 62
     7
 10
-584.9391502821
 20
1253.2908149647
 30
0.0
 11
-579.0059511968
 21
1253.2908149647
 31
0.0
  0
LINE
  5
2EA
  8
1
  6
CONTINUOUS
 62
     7
 10
-624.3207262821
 20
1347.2908149647
 30
0.0
 11
-623.8801962821
 21
1349.7907419647
 31
0.0
  0
LINE
  5
2EB
  8
1
  6
CONTINUOUS
 62
     7
 10
-678.8796812821
 20
1250.7909329647
 30
0.0
 11
-675.3796812821
 21
1250.7909249647
 31
0.0
  0
LINE
  5
2EC
  8
1
  6
CONTINUOUS
 62
     7
 10
-622.3515962821
 20
1349.7907454587
 30
0.0
 11
-623.8801962821
 21
1349.7907419647
 31
0.0
  0
LINE
  5
2ED
  8
1
  6
CONTINUOUS
 62
     7
 10
-588.8796812821001
 20
1250.7909329647
 30
0.0
 11
-585.3796812821
 21
1250.7909249647
 31
0.0
  0
LINE
  5
2EE
  8
1
  6
CONTINUOUS
 62
     7
 10
-592.6298142821
 20
1253.2908149647
 30
0.0
 11
-589.0059511968
 21
1253.2908149647
 31
0.0
  0
LINE
  5
2EF
  8
1
  6
CONTINUOUS
 62
     7
 10
-578.8796812821001
 20
1250.7909329647
 30
0.0
 11
-575.3796812821
 21
1250.7909249647
 31
0.0
  0
LINE
  5
2F0
  8
1
  6
CONTINUOUS
 62
     7
 10
-722.1298142821001
 20
1094.0543317797
 30
0.0
 11
-722.1298142821001
 21
1216.0461347797
 31
0.0
  0
LINE
  5
2F1
  8
1
  6
CONTINUOUS
 62
     7
 10
-705.6298142821
 20
1203.5543317797
 30
0.0
 11
-705.6298142821
 21
1106.5543317797
 31
0.0
  0
LINE
  5
2F2
  8
1
  6
CONTINUOUS
 62
     7
 10
-674.9391502821
 20
1253.2908149647
 30
0.0
 11
-669.0059511968001
 21
1253.2908149647
 31
0.0
  0
LINE
  5
2F3
  8
1
  6
CONTINUOUS
 62
     7
 10
-622.3515962821
 20
1319.527637457
 30
0.0
 11
-623.8801962821
 21
1349.7907419647
 31
0.0
  0
LINE
  5
2F4
  8
1
  6
CONTINUOUS
 62
     7
 10
-590.3801962821
 20
1349.7907499647
 30
0.0
 11
-592.6298142821
 21
1349.7907448227
 31
0.0
  0
LINE
  5
2F5
  8
1
  6
CONTINUOUS
 62
     7
 10
-693.1298142821
 20
1106.5543317797
 30
0.0
 11
-693.1298142821
 21
1203.5543317797
 31
0.0
  0
ARC
  5
2F6
  8
1
  6
CONTINUOUS
 62
     7
 10
-695.6298142821
 20
1108.0543317797
 30
0.0
 40
0.4999999999999449
 50
90.0
 51
180.0
  0
ARC
  5
2F7
  8
1
  6
CONTINUOUS
 62
     7
 10
-695.6298142821
 20
1202.0543317797
 30
0.0
 40
0.4999999999999449
 50
180.0
 51
270.0
  0
LINE
  5
2F8
  8
1
  6
CONTINUOUS
 62
     7
 10
-705.6298142821
 20
1203.5543317797
 30
0.0
 11
-706.6298142821
 21
1204.5543317797
 31
0.0
  0
LINE
  5
2F9
  8
1
  6
CONTINUOUS
 62
     7
 10
-690.1298142821
 20
1203.5543317797
 30
0.0
 11
-693.1298142821
 21
1203.5543317797
 31
0.0
  0
LINE
  5
2FA
  8
1
  6
CONTINUOUS
 62
     7
 10
-696.1298142821
 20
1203.5543317797
 30
0.0
 11
-699.1298142821
 21
1203.5543317797
 31
0.0
  0
LINE
  5
2FB
  8
1
  6
CONTINUOUS
 62
     7
 10
-695.6298142821
 20
1108.5543317797
 30
0.0
 11
-693.6298142821
 21
1108.5543317797
 31
0.0
  0
LINE
  5
2FC
  8
1
  6
CONTINUOUS
 62
     7
 10
-706.6298142821
 20
1204.5543317797
 30
0.0
 11
-707.3986224712
 21
1204.5543317797
 31
0.0
  0
LINE
  5
2FD
  8
1
  6
CONTINUOUS
 62
     7
 10
-699.1298142821
 20
1106.5543317797
 30
0.0
 11
-696.1298142821
 21
1106.5543317797
 31
0.0
  0
ARC
  5
2FE
  8
1
  6
CONTINUOUS
 62
     7
 10
-699.6298142821
 20
1108.0543317797
 30
0.0
 40
0.4999999999999449
 50
0.0
 51
90.0
  0
LINE
  5
2FF
  8
1
  6
CONTINUOUS
 62
     7
 10
-702.1298142821
 20
1203.5543317797
 30
0.0
 11
-705.1298142821
 21
1203.5543317797
 31
0.0
  0
LINE
  5
300
  8
1
  6
CONTINUOUS
 62
     7
 10
-699.6298142821
 20
1201.5543317797
 30
0.0
 11
-701.6298142821
 21
1201.5543317797
 31
0.0
  0
LINE
  5
301
  8
1
  6
CONTINUOUS
 62
     7
 10
-722.1298142821001
 20
1094.0543317797
 30
0.0
 11
-711.4698142821
 21
1091.8625601675
 31
0.0
  0
ARC
  5
302
  8
1
  6
CONTINUOUS
 62
     7
 10
-705.6298142821
 20
1108.0543317797
 30
0.0
 40
0.4999999999999449
 50
0.0
 51
90.0
  0
ARC
  5
303
  8
1
  6
CONTINUOUS
 62
     7
 10
-701.6298142821
 20
1202.0543317797
 30
0.0
 40
0.4999999999999449
 50
180.0
 51
270.0
  0
ARC
  5
304
  8
1
  6
CONTINUOUS
 62
     7
 10
-699.6298142821
 20
1202.0543317797
 30
0.0
 40
0.4999999999999449
 50
270.0
 51
0.0
  0
LINE
  5
305
  8
1
  6
CONTINUOUS
 62
     7
 10
-706.6298142821
 20
1105.5543317797
 30
0.0
 11
-705.6298142821
 21
1106.5543317797
 31
0.0
  0
ARC
  5
306
  8
1
  6
CONTINUOUS
 62
     7
 10
-693.6298142821
 20
1108.0543317797
 30
0.0
 40
0.4999999999999449
 50
0.0
 51
90.0
  0
ARC
  5
307
  8
1
  6
CONTINUOUS
 62
     7
 10
-701.6298142821
 20
1108.0543317797
 30
0.0
 40
0.4999999999999449
 50
90.0
 51
180.0
  0
ARC
  5
308
  8
1
  6
CONTINUOUS
 62
     7
 10
-693.6298142821
 20
1202.0543317797
 30
0.0
 40
0.4999999999999449
 50
270.0
 51
0.0
  0
LINE
  5
309
  8
1
  6
CONTINUOUS
 62
     7
 10
-705.1298142821
 20
1106.5543317797
 30
0.0
 11
-705.1298142821
 21
1203.5543317797
 31
0.0
  0
LINE
  5
30A
  8
1
  6
CONTINUOUS
 62
     7
 10
-696.1298142821
 20
1106.5543317797
 30
0.0
 11
-696.1298142821
 21
1203.5543317797
 31
0.0
  0
LINE
  5
30B
  8
1
  6
CONTINUOUS
 62
     7
 10
-693.1298142821
 20
1106.5543317797
 30
0.0
 11
-690.1298142821
 21
1106.5543317797
 31
0.0
  0
LINE
  5
30C
  8
1
  6
CONTINUOUS
 62
     7
 10
-702.1298142821
 20
1106.5543317797
 30
0.0
 11
-702.1298142821
 21
1203.5543317797
 31
0.0
  0
LINE
  5
30D
  8
1
  6
CONTINUOUS
 62
     7
 10
-710.9751745434
 20
1105.5543317797
 30
0.0
 11
-706.6298142821
 21
1105.5543317797
 31
0.0
  0
ARC
  5
30E
  8
1
  6
CONTINUOUS
 62
     7
 10
-727.1298142821001
 20
1095.0543317797
 30
0.0
 40
1.000000000000001
 50
180.0
 51
270.0
  0
ARC
  5
30F
  8
1
  6
CONTINUOUS
 62
     7
 10
-705.6298142821
 20
1202.0543317797
 30
0.0
 40
0.4999999999999449
 50
270.0
 51
0.0
  0
LINE
  5
310
  8
1
  6
CONTINUOUS
 62
     7
 10
-701.6298142821
 20
1108.5543317797
 30
0.0
 11
-699.6298142821
 21
1108.5543317797
 31
0.0
  0
LINE
  5
311
  8
1
  6
CONTINUOUS
 62
     7
 10
-705.1298142821
 20
1106.5543317797
 30
0.0
 11
-702.1298142821
 21
1106.5543317797
 31
0.0
  0
ARC
  5
312
  8
1
  6
CONTINUOUS
 62
     7
 10
-727.1298142821001
 20
1215.0415237797
 30
0.0
 40
1.000000000000001
 50
90.0
 51
180.0
  0
LINE
  5
313
  8
1
  6
CONTINUOUS
 62
     7
 10
-727.1298142821001
 20
1094.0543317797
 30
0.0
 11
-722.1298142821001
 21
1094.0543317797
 31
0.0
  0
LINE
  5
314
  8
1
  6
CONTINUOUS
 62
     7
 10
-722.1298142821001
 20
1216.0543317797
 30
0.0
 11
-706.8698142821
 21
1219.1918960201
 31
0.0
  0
LINE
  5
315
  8
1
  6
CONTINUOUS
 62
     7
 10
-689.6298142821
 20
1108.5543317797
 30
0.0
 11
-687.6298142821
 21
1108.5543317797
 31
0.0
  0
LINE
  5
316
  8
1
  6
CONTINUOUS
 62
     7
 10
-687.1298142821
 20
1105.5543317797
 30
0.0
 11
-687.1298142821
 21
1204.5543317797
 31
0.0
  0
LINE
  5
317
  8
1
  6
CONTINUOUS
 62
     7
 10
-687.1298142821
 20
1105.5543317797
 30
0.0
 11
-682.1298142821
 21
1105.5543317797
 31
0.0
  0
ARC
  5
318
  8
1
  6
CONTINUOUS
 62
     7
 10
-687.6298142821
 20
1108.0543317797
 30
0.0
 40
0.4999999999999449
 50
0.0
 51
90.0
  0
LINE
  5
319
  8
1
  6
CONTINUOUS
 62
     7
 10
-618.1298142821001
 20
1200.0472877797
 30
0.0
 11
-618.1298142821001
 21
1215.9950377797
 31
0.0
  0
LINE
  5
31A
  8
1
  6
CONTINUOUS
 62
     7
 10
-595.6298142821
 20
1158.2143227797
 30
0.0
 11
-595.6298142821
 21
1158.2212347797
 31
0.0
  0
LINE
  5
31B
  8
1
  6
CONTINUOUS
 62
     7
 10
-687.6298142821
 20
1201.5543317797
 30
0.0
 11
-689.6298142821
 21
1201.5543317797
 31
0.0
  0
LINE
  5
31C
  8
1
  6
CONTINUOUS
 62
     7
 10
-693.6298142821
 20
1201.5543317797
 30
0.0
 11
-695.6298142821
 21
1201.5543317797
 31
0.0
  0
LINE
  5
31D
  8
1
  6
CONTINUOUS
 62
     7
 10
-618.1298142821001
 20
1157.7432747797
 30
0.0
 11
-618.1298142821001
 21
1196.2445487797
 31
0.0
  0
LINE
  5
31E
  8
1
  6
CONTINUOUS
 62
     7
 10
-690.1298142821
 20
1106.5543317797
 30
0.0
 11
-690.1298142821
 21
1203.5543317797
 31
0.0
  0
LINE
  5
31F
  8
1
  6
CONTINUOUS
 62
     7
 10
-618.1298142821001
 20
1094.1136267797
 30
0.0
 11
-618.1298142821001
 21
1110.0613767797
 31
0.0
  0
LINE
  5
320
  8
1
  6
CONTINUOUS
 62
     7
 10
-595.6298142821
 20
1151.8874297797
 30
0.0
 11
-595.6298142821
 21
1151.8943417797
 31
0.0
  0
LINE
  5
321
  8
1
  6
CONTINUOUS
 62
     7
 10
-622.3515962821
 20
1094.0543317797
 30
0.0
 11
-622.3515962821
 21
1216.0543317797
 31
0.0
  0
LINE
  5
322
  8
1
  6
CONTINUOUS
 62
     7
 10
-592.6298142821
 20
1097.0543317797
 30
0.0
 11
-592.6298142821
 21
1213.0543317797
 31
0.0
  0
ARC
  5
323
  8
1
  6
CONTINUOUS
 62
     7
 10
-595.3289792821
 20
1134.9515457797
 30
0.0
 40
23.26472199999996
 50
84.524586
 51
90.74091
  0
ARC
  5
324
  8
1
  6
CONTINUOUS
 62
     7
 10
-595.3091522821001
 20
1173.9465457797
 30
0.0
 40
22.05453499999999
 50
269.166916
 51
275.7997779999999
  0
LINE
  5
325
  8
1
  6
CONTINUOUS
 62
     7
 10
-682.1232311171001
 20
1204.5543317797
 30
0.0
 11
-687.1298142821
 21
1204.5543317797
 31
0.0
  0
ARC
  5
326
  8
1
  6
CONTINUOUS
 62
     7
 10
-689.6298142821
 20
1202.0543317797
 30
0.0
 40
0.4999999999999449
 50
180.0
 51
270.0
  0
LINE
  5
327
  8
1
  6
CONTINUOUS
 62
     7
 10
-682.1298142821
 20
1105.5543317797
 30
0.0
 11
-682.1298142821
 21
1169.9003313988
 31
0.0
  0
LINE
  5
328
  8
1
  6
CONTINUOUS
 62
     7
 10
-622.3515962821
 20
1094.0543317797
 30
0.0
 11
-595.6298142821
 21
1094.0543317797
 31
0.0
  0
ARC
  5
329
  8
1
  6
CONTINUOUS
 62
     7
 10
-689.6298142821
 20
1108.0543317797
 30
0.0
 40
0.4999999999999449
 50
90.0
 51
180.0
  0
ARC
  5
32A
  8
1
  6
CONTINUOUS
 62
     7
 10
-687.6298142821
 20
1202.0543317797
 30
0.0
 40
0.4999999999999449
 50
270.0
 51
0.0
  0
LINE
  5
32B
  8
1
  6
CONTINUOUS
 62
     7
 10
-618.1298142821001
 20
1113.8641157797
 30
0.0
 11
-618.1298142821001
 21
1152.3653897797
 31
0.0
  0
LINE
  5
32C
  8
1
  6
CONTINUOUS
 62
     7
 10
-574.3207262821
 20
1202.0543317797
 30
0.0
 11
-580.2539237107443
 21
1202.0543317797
 31
0.0
  0
LINE
  5
32D
  8
1
  6
CONTINUOUS
 62
     7
 10
-595.6298142821
 20
1158.2212347797
 30
0.0
 11
-618.1298142821001
 21
1158.2212347797
 31
0.0
  0
LINE
  5
32E
  8
1
  6
CONTINUOUS
 62
     7
 10
-618.1298142821001
 20
1151.8874297797
 30
0.0
 11
-595.6298142821
 21
1151.8874297797
 31
0.0
  0
LINE
  5
32F
  8
1
  6
CONTINUOUS
 62
     7
 10
-595.6298142821
 20
1216.0543317797
 30
0.0
 11
-622.3515962821
 21
1216.0543317797
 31
0.0
  0
LINE
  5
330
  8
1
  6
CONTINUOUS
 62
     7
 10
-578.8799422105
 20
1105.5552014699
 30
0.0
 11
-575.3799422105001
 21
1105.5551934301
 31
0.0
  0
LINE
  5
331
  8
1
  6
CONTINUOUS
 62
     7
 10
-545.1298142821
 20
1202.0543317797
 30
0.0
 11
-545.1298142821
 21
1106.9723669987
 31
0.0
  0
ENDSEC
  0
EOF
