  0
SECTION
  2
HEADER
  9
$ACADVER
  1
AC1004
  9
$INSBASE
 10
0.0
 20
0.0
  9
$EXTMIN
 10
394.0
 20
73.67045454545453
  9
$EXTMAX
 10
500.1117292104447
 20
197.0
  9
$LIMMIN
 10
0.0
 20
0.0
  9
$LIMMAX
 10
12.0
 20
9.0
  9
$ORTHOMODE
 70
     0
  9
$REGENMODE
 70
     1
  9
$FILLMODE
 70
     1
  9
$QTEXTMODE
 70
     0
  9
$DRAGMODE
 70
     2
  9
$LTSCALE
 40
1.0
  9
$OSMODE
 70
    37
  9
$ATTMODE
 70
     1
  9
$TEXTSIZE
 40
0.2
  9
$TRACEWID
 40
0.05
  9
$TEXTSTYLE
  7
STANDARD
  9
$CLAYER
  8
0
  9
$CELTYPE
  6
BYLAYER
  9
$CECOLOR
 62
   256
  9
$DIMSCALE
 40
1.0
  9
$DIMASZ
 40
3.0
  9
$DIMEXO
 40
0.0625
  9
$DIMDLI
 40
0.38
  9
$DIMRND
 40
0.0
  9
$DIMDLE
 40
0.0
  9
$DIMEXE
 40
1.5
  9
$DIMTP
 40
0.0
  9
$DIMTM
 40
0.0
  9
$DIMTXT
 40
3.0
  9
$DIMCEN
 40
0.09
  9
$DIMTSZ
 40
0.0
  9
$DIMTOL
 70
     0
  9
$DIMLIM
 70
     0
  9
$DIMTIH
 70
     1
  9
$DIMTOH
 70
     1
  9
$DIMSE1
 70
     0
  9
$DIMSE2
 70
     0
  9
$DIMTAD
 70
     1
  9
$DIMZIN
 70
     0
  9
$DIMBLK
  1

  9
$DIMASO
 70
     1
  9
$DIMSHO
 70
     1
  9
$DIMPOST
  1

  9
$DIMAPOST
  1

  9
$DIMALT
 70
     0
  9
$DIMALTD
 70
     2
  9
$DIMALTF
 40
25.4
  9
$DIMLFAC
 40
1.0
  9
$DIMTOFL
 70
     0
  9
$DIMTVP
 40
0.0
  9
$DIMTIX
 70
     0
  9
$DIMSOXD
 70
     0
  9
$DIMSAH
 70
     0
  9
$DIMBLK1
  1

  9
$DIMBLK2
  1

  9
$LUNITS
 70
     2
  9
$LUPREC
 70
     4
  9
$SKETCHINC
 40
0.1
  9
$FILLETRAD
 40
0.5
  9
$AUNITS
 70
     0
  9
$AUPREC
 70
     0
  9
$MENU
  1
.
  9
$ELEVATION
 40
0.0
  9
$THICKNESS
 40
0.0
  9
$LIMCHECK
 70
     0
  9
$CHAMFERA
 40
0.0
  9
$CHAMFERB
 40
0.0
  9
$SKPOLY
 70
     0
  9
$TDCREATE
 40
2459831.610871783
  9
$TDUPDATE
 40
2459831.610872153
  9
$TDINDWG
 40
0.0000000116
  9
$TDUSRTIMER
 40
0.0000000116
  9
$USRTIMER
 70
     1
  9
$ANGBASE
 50
0.0
  9
$ANGDIR
 70
     0
  9
$PDMODE
 70
     0
  9
$PDSIZE
 40
0.0
  9
$PLINEWID
 40
0.0
  9
$COORDS
 70
     1
  9
$SPLFRAME
 70
     0
  9
$SPLINETYPE
 70
     6
  9
$SPLINESEGS
 70
     8
  9
$ATTDIA
 70
     0
  9
$ATTREQ
 70
     1
  9
$SURFTAB1
 70
     6
  9
$SURFTAB2
 70
     6
  9
$SURFTYPE
 70
     6
  9
$SURFU
 70
     6
  9
$SURFV
 70
     6
  9
$UCSNAME
  2

  9
$UCSORG
 10
0.0
 20
0.0
 30
0.0
  9
$UCSXDIR
 10
1.0
 20
0.0
 30
0.0
  9
$UCSYDIR
 10
0.0
 20
1.0
 30
0.0
  9
$USERI1
 70
     0
  9
$USERI2
 70
     0
  9
$USERI3
 70
     0
  9
$USERI4
 70
     0
  9
$USERI5
 70
     0
  9
$USERR1
 40
0.0
  9
$USERR2
 40
0.0
  9
$USERR3
 40
0.0
  9
$USERR4
 40
0.0
  9
$USERR5
 40
0.0
  9
$WORLDVIEW
 70
     1
  0
ENDSEC
  0
SECTION
  2
TABLES
  0
TABLE
  2
LTYPE
 70
     2
  0
LTYPE
  2
CONTINUOUS
 70
     0
  3
Solid line
 72
    65
 73
     0
 40
0.0
  0
LTYPE
  2
CENTER
 70
     0
  3

 72
    65
 73
     0
 40
0.0
  0
ENDTAB
  0
TABLE
  2
LAYER
 70
     2
  0
LAYER
  2
0
 70
     0
 62
     7
  6
CONTINUOUS
  0
LAYER
  2
1
 70
     0
 62
     7
  6
CONTINUOUS
  0
ENDTAB
  0
TABLE
  2
STYLE
 70
     2
  0
STYLE
  2
STANDARD
 70
     0
 40
0.0
 41
1.0
 50
0.0
 71
     0
 42
0.2
  3
txt
  4

  0
STYLE
  2
ＭＳ_ゴシック
 70
     0
 40
0.0
 41
1.0
 50
0.0
 71
     0
 42
0.2
  3
ＭＳ ゴシック.shx
  4

  0
ENDTAB
  0
TABLE
  2
VIEW
 70
     0
  0
ENDTAB
  0
ENDSEC
  0
SECTION
  2
BLOCKS
  0
BLOCK
  8
0
  2
D_FRAME_VIEW_2269
 70
     0
 10
0.0
 20
0.0
  0
ENDBLK
  8
0
  0
BLOCK
  8
0
  2
D_FRAME_VIEW_1993
 70
     0
 10
0.0
 20
0.0
  0
ENDBLK
  8
0
  0
BLOCK
  8
0
  2
D_FRAME_VIEW_1523
 70
     0
 10
0.0
 20
0.0
  0
ENDBLK
  8
0
  0
ENDSEC
  0
SECTION
  2
ENTITIES
  0
LINE
  8
1
  6
CONTINUOUS
 62
     7
 10
455.2
 20
92.33820112680877
 11
455.2
 21
95.49229002972154
  0
LINE
  8
1
  6
CONTINUOUS
 62
     7
 10
408.6590521825279
 20
143.9096090518455
 11
409.9634119509058
 21
141.4039572496512
  0
LINE
  8
1
  6
CONTINUOUS
 62
     7
 10
449.1573225393205
 20
146.4515392859898
 11
448.7427738440489
 21
146.1036916286823
  0
LINE
  8
1
  6
CONTINUOUS
 62
     7
 10
446.9365880490942
 20
141.4039572496512
 11
448.2409478174721
 21
143.9096090518455
  0
LINE
  8
1
  6
CONTINUOUS
 62
     7
 10
444.7305910765907
 20
142.7491118379679
 11
444.7703685321869
 21
142.7779447555512
  0
LINE
  8
1
  6
CONTINUOUS
 62
     7
 10
412.1296314678131
 20
142.7779447555512
 11
412.1694089234093
 21
142.7491118379679
  0
LINE
  8
1
  6
CONTINUOUS
 62
     7
 10
412.1694089234093
 20
142.7491118379679
 11
412.1719666974237
 21
142.5926716794956
  0
LINE
  8
1
  6
CONTINUOUS
 62
     7
 10
459.3
 20
94.33820112680877
 11
459.2879509818989
 21
94.36729002972154
  0
LINE
  8
1
  6
CONTINUOUS
 62
     7
 10
409.4006809448807
 20
143.0872578316846
 11
408.9762925207665
 21
143.9935454425903
  0
LINE
  8
1
  6
CONTINUOUS
 62
     7
 10
399.7
 20
92.33820112680877
 11
455.2
 21
92.33820112680877
  0
LINE
  8
1
  6
CONTINUOUS
 62
     7
 10
457.3290889029128
 20
94.36729002972154
 11
457.3
 21
94.33820112680877
  0
LINE
  8
1
  6
CONTINUOUS
 62
     7
 10
401.4709110970872
 20
99.49229002972154
 11
401.5
 21
99.46320112680874
  0
LINE
  8
1
  6
CONTINUOUS
 62
     7
 10
403.7
 20
99.46320112680876
 11
403.7126406497208
 21
99.49229002972154
  0
LINE
  8
1
  6
CONTINUOUS
 62
     7
 10
447.8956281625142
 20
144.0266475800263
 11
447.9237074792335
 21
143.9935454425903
  0
LINE
  8
1
  6
CONTINUOUS
 62
     7
 10
409.0043718374858
 20
144.0266475800263
 11
408.9762925207664
 21
143.9935454425903
  0
LINE
  8
1
  6
CONTINUOUS
 62
     7
 10
444.7280333025763
 20
142.5926716794956
 11
444.7305910765907
 21
142.7491118379679
  0
LINE
  8
1
  6
CONTINUOUS
 62
     7
 10
408.1572261559511
 20
146.1036916286823
 11
407.7426774606794
 21
146.4515392859898
  0
LINE
  8
1
  6
CONTINUOUS
 62
     7
 10
446.7584196069128
 20
141.755048267086
 11
447.2684726067992
 21
142.643805930387
  0
LINE
  8
1
  6
CONTINUOUS
 62
     7
 10
455.1709110970872
 20
98.18411222389598
 11
455.2
 21
98.21320112680876
  0
LINE
  8
1
  6
CONTINUOUS
 62
     7
 10
410.3095089294071
 20
141.8119639637406
 11
410.1415803930871
 21
141.755048267086
  0
LINE
  8
1
  6
CONTINUOUS
 62
     7
 10
446.5904910705929
 20
141.8119639637406
 11
446.7584196069129
 21
141.755048267086
  0
LINE
  8
1
  6
CONTINUOUS
 62
     7
 10
421.6213820345616
 20
100.3548181275125
 11
421.7
 21
100.4126401444083
  0
LINE
  8
1
  6
CONTINUOUS
 62
     7
 10
407.4312190453242
 20
143.8010912501392
 11
406.8921234144636
 21
143.7539264938826
  0
LINE
  8
1
  6
CONTINUOUS
 62
     7
 10
435.2786179654383
 20
100.3548181275125
 11
435.2
 21
100.4126401444083
  0
INSERT
  8
1
  6
CONTINUOUS
 62
     7
  2
D_FRAME_VIEW_2269
 10
0.0
 20
0.0
 30
0.0
  0
INSERT
  8
1
  6
CONTINUOUS
 62
     7
  2
D_FRAME_VIEW_1993
 10
0.0
 20
0.0
 30
0.0
  0
INSERT
  8
1
  6
CONTINUOUS
 62
     7
  2
D_FRAME_VIEW_1523
 10
0.0
 20
0.0
 30
0.0
  0
TEXT
  8
1
  6
CONTINUOUS
 62
     7
 10
458.9041984494186
 20
73.32842003251218
 40
3.0
  1
LSY-F36
  0
LINE
  8
0
  6
CONTINUOUS
 62
     7
 10
410.5898384250829
 20
145.631911813238
 11
408.653198171928
 21
143.9162169357525
  0
LINE
  8
0
  6
CONTINUOUS
 62
     7
 10
460.3
 20
95.33820112680877
 11
460.3
 21
98.33820112680877
  0
LINE
  8
0
  6
CONTINUOUS
 62
     7
 10
455.2
 20
95.46320112680876
 11
457.3290889029128
 21
95.46320112680876
  0
LINE
  8
0
  6
CONTINUOUS
 62
     7
 10
457.3290889029128
 20
98.21320112680876
 11
455.1709110970872
 21
98.21320112680876
  0
LINE
  8
0
  6
CONTINUOUS
 62
     7
 10
403.6913750539991
 20
94.20396011323633
 11
404.757823307191
 21
95.34658324165626
  0
LINE
  8
0
  6
CONTINUOUS
 62
     7
 10
448.246801828072
 20
143.9162169357525
 11
446.3101615749171
 21
145.631911813238
  0
LINE
  8
0
  6
CONTINUOUS
 62
     7
 10
401.4999999999999
 20
95.33820112680876
 11
401.4999999999999
 21
94.18411222389597
  0
LINE
  8
0
  6
CONTINUOUS
 62
     7
 10
399.7000000000003
 20
92.33820112680877
 11
399.7
 21
95.33820112680877
  0
LINE
  8
0
  6
CONTINUOUS
 62
     7
 10
408.6590521825279
 20
143.9096090518455
 11
409.1723003738057
 21
144.0835632766809
  0
LINE
  8
0
  6
CONTINUOUS
 62
     7
 10
404.75
 20
95.32673535231591
 11
404.75
 21
98.34966690130162
  0
LINE
  8
0
  6
CONTINUOUS
 62
     7
 10
460.3
 20
95.33820112680877
 11
459.3
 21
94.33820112680877
  0
LINE
  8
0
  6
CONTINUOUS
 62
     7
 10
457.3
 20
99.33820112680876
 11
457.3
 21
98.18411222389597
  0
LINE
  8
0
  6
CONTINUOUS
 62
     7
 10
459.3
 20
99.33820112680876
 11
460.3
 21
98.33820112680876
  0
LINE
  8
0
  6
CONTINUOUS
 62
     7
 10
399.7360585202148
 20
98.33830510571858
 11
399.7274077454798
 21
101.33828016021
  0
LINE
  8
0
  6
CONTINUOUS
 62
     7
 10
401.4999999999999
 20
95.33820112680876
 11
399.6999999999999
 21
95.33820112680876
  0
LINE
  8
0
  6
CONTINUOUS
 62
     7
 10
459.3
 20
99.33820112680876
 11
457.3
 21
99.33820112680876
  0
LINE
  8
0
  6
CONTINUOUS
 62
     7
 10
448.2409478174721
 20
143.9096090518455
 11
447.7276996261943
 21
144.0835632766809
  0
LINE
  8
0
  6
CONTINUOUS
 62
     7
 10
444.7120542676968
 20
142.5619762390859
 11
446.9365880490942
 21
141.4039572496512
  0
LINE
  8
0
  6
CONTINUOUS
 62
     7
 10
455.2325709593508
 20
122.1381072046837
 11
455.1634969084432
 21
98.18413360356568
  0
LINE
  8
0
  6
CONTINUOUS
 62
     7
 10
401.4709110970872
 20
99.46320112680876
 11
403.7126406497208
 21
99.46320112680876
  0
LINE
  8
0
  6
CONTINUOUS
 62
     7
 10
409.9634119509058
 20
141.4039572496512
 11
412.1879457323031
 21
142.5619762390859
  0
LINE
  8
0
  6
CONTINUOUS
 62
     7
 10
410.1415803930872
 20
141.755048267086
 11
409.3828917941558
 21
143.0770487386243
  0
LINE
  8
0
  6
CONTINUOUS
 62
     7
 10
409.9634119509059
 20
141.4039572496511
 11
410.3375882461264
 21
141.8450661011765
  0
LINE
  8
0
  6
CONTINUOUS
 62
     7
 10
446.936588049094
 20
141.4039572496511
 11
446.5624117538736
 21
141.8450661011765
  0
LINE
  8
0
  6
CONTINUOUS
 62
     7
 10
457.3
 20
94.33820112680877
 11
459.3
 21
94.33820112680877
  0
LINE
  8
1
  6
CONTINUOUS
 62
     7
 10
446.3824384274569
 20
145.7707543551608
 11
446.2944473809492
 21
145.7532518477917
  0
LINE
  8
1
  6
CONTINUOUS
 62
     7
 10
408.7469561125686
 20
133.5137588190723
 11
408.9259283191236
 21
133.4104291674403
  0
LINE
  8
1
  6
CONTINUOUS
 62
     7
 10
447.9740716808764
 20
133.4104291674403
 11
448.1530438874314
 21
133.5137588190723
  0
LINE
  8
1
  6
CONTINUOUS
 62
     7
 10
488.6117292104447
 20
101.3251108251226
 11
488.6117292104447
 21
122.1382011268088
  0
ARC
  8
1
  6
CONTINUOUS
 62
     7
 10
446.767407026249
 20
146.6617988731913
 40
0.9999999999999993
 50
62.49999999999943
 51
230.000000000002
  0
LINE
  8
1
  6
CONTINUOUS
 62
     7
 10
410.5175615725431
 20
145.7707543551608
 11
410.6055526190508
 21
145.7532518477917
  0
ARC
  8
1
  6
CONTINUOUS
 62
     7
 10
410.1325929737511
 20
146.6617988731912
 40
1.000000000000001
 50
309.9999999999996
 51
117.4999999999989
  0
ARC
  8
1
  6
CONTINUOUS
 62
     7
 10
428.45
 20
122.1382011268088
 40
22.05
 50
331.2705205180721
 51
28.7294794819278
  0
LINE
  8
1
  6
CONTINUOUS
 62
     7
 10
408.9259283191236
 20
110.8659730861772
 11
408.7469561125686
 21
110.7626434345452
  0
LINE
  8
1
  6
CONTINUOUS
 62
     7
 10
401.7
 20
102.3251489035083
 11
401.7
 21
122.1382011268088
  0
LINE
  8
1
  6
CONTINUOUS
 62
     7
 10
401.7130903016861
 20
122.1382011268088
 11
401.7
 21
122.1382011268088
  0
LINE
  8
1
  6
CONTINUOUS
 62
     7
 10
448.1530438874314
 20
110.7626434345452
 11
447.9740716808764
 21
110.8659730861772
  0
ARC
  8
1
  6
CONTINUOUS
 62
     7
 10
428.45
 20
122.1382011268088
 40
22.05
 50
151.2705205180722
 51
208.7294794819279
  0
LINE
  8
1
  6
CONTINUOUS
 62
     7
 10
486.6117292104447
 20
141.2661516461164
 11
486.6117292104447
 21
142.1777503436336
  0
LINE
  8
1
  6
CONTINUOUS
 62
     7
 10
480.605558873108
 20
143.7539264938826
 11
480.1117292104447
 21
143.8010912501393
  0
LINE
  8
1
  6
CONTINUOUS
 62
     7
 10
490.1117292104447
 20
140.1528465212406
 11
499.6169133402742
 21
139.9862369608646
  0
LINE
  8
1
  6
CONTINUOUS
 62
     7
 10
491.6117292104447
 20
101.3251108251226
 11
499.6160924781938
 21
101.2552578051358
  0
LINE
  8
1
  6
CONTINUOUS
 62
     7
 10
487.5942768040074
 20
140.2454081670546
 11
490.1117292104447
 21
140.1528465212406
  0
LINE
  8
1
  6
CONTINUOUS
 62
     7
 10
500.0814913369906
 20
141.9285822781537
 11
491.6898342687778
 21
141.8119639637406
  0
LINE
  8
1
  6
CONTINUOUS
 62
     7
 10
499.6178995477813
 20
143.7539264938826
 11
500.1117292104447
 21
143.8010912501393
  0
LINE
  8
1
  6
CONTINUOUS
 62
     7
 10
491.6117292104447
 20
122.1382011268088
 11
491.6117292104447
 21
101.3251108251226
  0
LINE
  8
1
  6
CONTINUOUS
 62
     7
 10
480.6073659426955
 20
101.2552578051358
 11
488.6117292104447
 21
101.3251108251226
  0
LINE
  8
1
  6
CONTINUOUS
 62
     7
 10
486.7781027351244
 20
140.7579321173012
 11
486.6117292104447
 21
141.2661516461164
  0
LINE
  8
1
  6
CONTINUOUS
 62
     7
 10
481.6063447105935
 20
147.4936943244456
 11
480.5456845388137
 21
146.9957255748912
  0
LINE
  8
1
  6
CONTINUOUS
 62
     7
 10
490.1117292104447
 20
147.6617988731912
 11
482.0126839679995
 21
147.591119576129
  0
LINE
  8
1
  6
CONTINUOUS
 62
     7
 10
498.6171192831851
 20
147.4936917079255
 11
498.2107387922865
 21
147.5911198873342
  0
LINE
  8
1
  6
CONTINUOUS
 62
     7
 10
499.6777738820756
 20
146.9957255748912
 11
498.6171137102958
 21
147.4936943244456
  0
LINE
  8
1
  6
CONTINUOUS
 62
     7
 10
493.6117292104447
 20
143.1577932835479
 11
493.6117292104447
 21
142.7513537120823
  0
LINE
  8
1
  6
CONTINUOUS
 62
     7
 10
482.0127200856318
 20
147.5911198913227
 11
481.6063391377042
 21
147.4936917079255
  0
LINE
  8
1
  6
CONTINUOUS
 62
     7
 10
498.2107591801304
 20
147.5911197094124
 11
490.1117292104447
 21
147.6617988731912
  0
LINE
  8
1
  6
CONTINUOUS
 62
     7
 10
500.1030005879965
 20
146.4652588671753
 11
500.0979869408326
 21
146.4955319307574
  0
LINE
  8
1
  6
CONTINUOUS
 62
     7
 10
480.1244080559638
 20
146.4877902476142
 11
480.1200766290315
 21
146.4592969649574
  0
LINE
  8
0
  6
CONTINUOUS
 62
     7
 10
488.6117292104447
 20
122.1382011268088
 11
491.6117292104447
 21
122.1382011268088
  0
LINE
  8
0
  6
CONTINUOUS
 62
     7
 10
500.1117001747194
 20
98.3502501099246
 11
480.1117292104447
 21
98.32615210870772
  0
LINE
  8
0
  6
CONTINUOUS
 62
     7
 10
455.1869096983139
 20
122.1382011268088
 11
455.1999999999929
 21
122.1382011268088
  0
LINE
  8
0
  6
CONTINUOUS
 62
     7
 10
410.7753805834375
 20
145.8957544300722
 11
408.9962464149816
 21
144.402883605506
  0
LINE
  8
0
  6
CONTINUOUS
 62
     7
 10
447.9037535850184
 20
144.402883605506
 11
446.1246194165625
 21
145.8957544300722
  0
LINE
  8
0
  6
CONTINUOUS
 62
     7
 10
448.5089929657288
 20
140.7579321173012
 11
450.0861950260858
 21
143.8065712572266
  0
LINE
  8
0
  6
CONTINUOUS
 62
     7
 10
408.3652020108762
 20
140.7444988723831
 11
406.7802301669254
 21
143.7892014563652
  0
LINE
  8
0
  6
CONTINUOUS
 62
     7
 10
432.2537051026995
 20
95.86612710373917
 11
423.6494116382425
 21
95.86612710373917
  0
LINE
  8
0
  6
CONTINUOUS
 62
     7
 10
403.7126406497208
 20
94.21320112680876
 11
401.4709110970872
 21
94.21320112680876
  0
LINE
  8
0
  6
CONTINUOUS
 62
     7
 10
401.4999999999999
 20
99.49229002972156
 11
401.4999999999999
 21
98.33820112680877
  0
LINE
  8
0
  6
CONTINUOUS
 62
     7
 10
404.757823307191
 20
98.32981901196128
 11
403.691375053999
 21
99.4724421403812
  0
LINE
  8
0
  6
CONTINUOUS
 62
     7
 10
457.3
 20
95.49229002972154
 11
457.3
 21
94.33820112680876
  0
LINE
  8
0
  6
CONTINUOUS
 62
     7
 10
408.2563797931006
 20
139.6336976382603
 11
408.4940973183679
 21
140.2454081670547
  0
LINE
  8
0
  6
CONTINUOUS
 62
     7
 10
399.7
 20
98.33820112680876
 11
401.5
 21
98.33820112680876
  0
LINE
  8
0
  6
CONTINUOUS
 62
     7
 10
410.5784597271054
 20
145.7391481809408
 11
413.0833364986001
 21
140.9273246726345
  0
LINE
  8
0
  6
CONTINUOUS
 62
     7
 10
399.7
 20
101.3251108251226
 11
409.0393330564596
 21
101.3251108251226
  0
LINE
  8
0
  6
CONTINUOUS
 62
     7
 10
480.6058207074343
 20
146.522101454338
 11
499.6178995679325
 21
146.4515436909461
  0
LINE
  8
0
  6
CONTINUOUS
 62
     7
 10
480.1117292104447
 20
95.3502501449098
 11
500.1117001747194
 21
95.32615214369294
  0
LINE
  8
0
  6
CONTINUOUS
 62
     7
 10
443.8166635014001
 20
140.9273246726344
 11
446.3215402728945
 21
145.7391481809408
  0
LINE
  8
0
  6
CONTINUOUS
 62
     7
 10
480.1117292104447
 20
92.33820112680877
 11
500.1117292104447
 21
92.33820112680877
  0
LINE
  8
0
  6
CONTINUOUS
 62
     7
 10
434.2864432444451
 20
95.84986586717997
 11
422.6127190557465
 21
95.74797529876842
  0
LINE
  8
0
  6
CONTINUOUS
 62
     7
 10
500.1117292104447
 20
94.36729002972154
 11
480.1118984418672
 21
94.30911271617163
  0
LINE
  8
0
  6
CONTINUOUS
 62
     7
 10
447.6904097636238
 20
144.1029751504547
 11
446.5251218913032
 21
141.8644779749503
  0
LINE
  8
0
  6
CONTINUOUS
 62
     7
 10
448.6748636471864
 20
139.6458391871731
 11
448.4004820463087
 21
140.2429171647843
  0
LINE
  8
0
  6
CONTINUOUS
 62
     7
 10
499.6160924781938
 20
143.2749531263077
 11
487.5946725365465
 21
143.0403857613254
  0
LINE
  8
0
  6
CONTINUOUS
 62
     7
 10
490.1117292104394
 20
92.33820112680877
 11
490.1117292104447
 21
140.1528465212406
  0
LINE
  8
0
  6
CONTINUOUS
 62
     7
 10
409.2095902363761
 20
144.1029751504547
 11
410.3748781086968
 21
141.8644779749503
  0
LINE
  8
0
  6
CONTINUOUS
 62
     7
 10
499.6178995679325
 20
143.7539220887767
 11
480.6058207074343
 21
143.8244798521686
  0
LINE
  8
0
  6
CONTINUOUS
 62
     7
 10
480.1118984418672
 20
99.36728953744591
 11
500.1117292104447
 21
99.30911222389597
  0
LINE
  8
1
  6
CONTINUOUS
 62
     7
 10
446.9365880490942
 20
175.1117292104447
 11
446.9245600597408
 21
175.5141058072483
  0
LINE
  8
1
  6
CONTINUOUS
 62
     7
 10
445.1718689202022
 20
175.1117292104447
 11
444.7241368182518
 21
175.1880979384217
  0
LINE
  8
1
  6
CONTINUOUS
 62
     7
 10
445.2396525490955
 20
188.6117292104446
 11
445.7142007943489
 21
188.6117292104446
  0
LINE
  8
1
  6
CONTINUOUS
 62
     7
 10
411.1857992056511
 20
188.6117292104446
 11
411.6603474509045
 21
188.6117292104446
  0
LINE
  8
1
  6
CONTINUOUS
 62
     7
 10
412.1758631817481
 20
195.0353604824677
 11
411.7281310797978
 21
195.1117292104447
  0
LINE
  8
1
  6
CONTINUOUS
 62
     7
 10
411.1021838063595
 20
188.5962746533955
 11
411.1857992056511
 21
188.6117292104446
  0
LINE
  8
1
  6
CONTINUOUS
 62
     7
 10
445.7142007943489
 20
188.6117292104446
 11
445.7978161936405
 21
188.5962746533955
  0
LINE
  8
1
  6
CONTINUOUS
 62
     7
 10
409.9634119509058
 20
175.1117292104447
 11
409.9754399402592
 21
175.5141058072483
  0
LINE
  8
1
  6
CONTINUOUS
 62
     7
 10
455.1869096983139
 20
186.6117292104447
 11
455.1956366645631
 21
186.6117292104447
  0
LINE
  8
1
  6
CONTINUOUS
 62
     7
 10
455.1869096983139
 20
183.6117292104447
 11
455.1956366645631
 21
183.6117292104447
  0
LINE
  8
1
  6
CONTINUOUS
 62
     7
 10
433.45
 20
185.1117292104447
 11
433.2505840811975
 21
187.3910635923603
  0
ARC
  8
1
  6
CONTINUOUS
 62
     7
 10
430.2
 20
185.1113103083142
 40
2.750000063810541
 50
270.0000000000011
 51
90.0
  0
LINE
  8
1
  6
CONTINUOUS
 62
     7
 10
426.6999999999999
 20
187.8613103721247
 11
430.2
 21
187.8613103721247
  0
LINE
  8
1
  6
CONTINUOUS
 62
     7
 10
423.6494116382424
 20
187.3910146653352
 11
423.45
 21
185.1117292104447
  0
ARC
  8
1
  6
CONTINUOUS
 62
     7
 10
426.6999999999999
 20
185.1113103083142
 40
2.750000063810541
 50
90.0
 51
270.0000000000011
  0
LINE
  8
1
  6
CONTINUOUS
 62
     7
 10
445.767407026249
 20
185.1117292104447
 11
445.8364805181552
 21
177.1966910131915
  0
LINE
  8
1
  6
CONTINUOUS
 62
     7
 10
432.2537051026995
 20
188.3117292104447
 11
424.6462948973004
 21
188.3117292104447
  0
LINE
  8
1
  6
CONTINUOUS
 62
     7
 10
430.2
 20
182.3613102445037
 11
426.6999999999999
 21
182.3613102445037
  0
LINE
  8
1
  6
CONTINUOUS
 62
     7
 10
445.8364808172213
 20
193.026801677278
 11
445.767407026249
 21
185.1117292104447
  0
LINE
  8
1
  6
CONTINUOUS
 62
     7
 10
411.1325929737511
 20
185.1117292104447
 11
411.0635194818448
 21
193.0267674076978
  0
ARC
  8
1
  6
CONTINUOUS
 62
     7
 10
454.6170757167949
 20
175.6117292104447
 40
0.5000000000000004
 50
269.9999999999996
 51
359.5000000000001
  0
LINE
  8
0
  6
CONTINUOUS
 62
     7
 10
401.686910695172
 20
186.611614981812
 11
401.782943321673
 21
175.6073659426955
  0
ARC
  8
1
  6
CONTINUOUS
 62
     7
 10
454.6170757167949
 20
194.6117292104447
 40
0.4999999999999993
 50
0.4999999999732462
 51
90.0000000000004
  0
ARC
  8
1
  6
CONTINUOUS
 62
     7
 10
445.1514862355247
 20
176.6190189886333
 40
1.49671497951995
 50
179.4721055072716
 51
245.2314803044475
  0
ARC
  8
1
  6
CONTINUOUS
 62
     7
 10
411.7485137644753
 20
193.604439432256
 40
1.49671497951995
 50
359.4721055072716
 51
65.23148030444747
  0
ARC
  8
1
  6
CONTINUOUS
 62
     7
 10
411.7567117939416
 20
176.6138260313171
 40
1.488574465220107
 50
294.5657416824703
 51
0.7306725058109008
  0
LINE
  8
0
  6
CONTINUOUS
 62
     7
 10
455.2130889725494
 20
183.6118815144291
 11
455.1127357526232
 21
195.1112215219048
  0
LINE
  8
1
  6
CONTINUOUS
 62
     7
 10
401.782943321673
 20
194.6160924781932
 11
401.7130903016861
 21
186.6117292104447
  0
LINE
  8
1
  6
CENTER
 62
     1
 10
394.0
 20
122.1382011268088
 11
459.9999999999999
 21
122.1382011268088
  0
LINE
  8
1
  6
CONTINUOUS
 62
     7
 10
411.0635191827786
 20
177.1966567436113
 11
411.1325929737511
 21
185.1117292104447
  0
ARC
  8
1
  6
CONTINUOUS
 62
     7
 10
445.1432882060586
 20
193.609632389572
 40
1.488574465220351
 50
114.5657416824754
 51
180.7306725058044
  0
LINE
  8
1
  6
CONTINUOUS
 62
     7
 10
444.6521234349814
 20
195.0217334495154
 11
444.5591581077961
 21
194.984235191444
  0
LINE
  8
1
  6
CENTER
 62
     1
 10
428.45
 20
90.0
 11
428.45
 21
150.0
  0
LINE
  8
1
  6
CENTER
 62
     1
 10
490.1117292104447
 20
90.0
 11
490.1117292104447
 21
150.0
  0
ARC
  8
1
  6
CONTINUOUS
 62
     7
 10
402.2829242832051
 20
194.6117292104447
 40
0.5000000000000004
 50
89.99999999999962
 51
179.5000000000776
  0
LINE
  8
1
  6
CONTINUOUS
 62
     7
 10
411.8703546689364
 20
175.119325200994
 11
412.2448490808878
 21
175.2006272503591
  0
LINE
  8
1
  6
CENTER
 62
     1
 10
465.9999999999999
 20
185.1113103083142
 11
394.0
 21
185.1113103083142
  0
LINE
  8
1
  6
CENTER
 62
     1
 10
428.45
 20
173.0
 11
428.45
 21
197.0
  0
LINE
  8
1
  6
CONTINUOUS
 62
     7
 10
412.2448490808878
 20
175.2006272503591
 11
412.3408418922039
 21
175.2392232294453
  0
LINE
  8
1
  6
CONTINUOUS
 62
     7
 10
445.0296453310636
 20
195.1041332198954
 11
444.6521234349814
 21
195.0217334495154
  0
ARC
  8
1
  6
CONTINUOUS
 62
     7
 10
402.2829242832051
 20
175.6117292104447
 40
0.5000000000000013
 50
180.4999999999999
 51
270.0000000000004
  0
LINE
  8
0
  6
CONTINUOUS
 62
     7
 10
410.7915820722699
 20
193.61482955339
 11
409.9126768925244
 21
194.7881890608539
  0
LINE
  8
0
  6
CONTINUOUS
 62
     7
 10
413.2449014109339
 20
176.6265906370166
 11
413.3362089051209
 21
185.1117244532194
  0
LINE
  8
0
  6
CONTINUOUS
 62
     7
 10
409.9126768925244
 20
175.4352693600354
 11
410.7915820722699
 21
176.6086288674994
  0
LINE
  8
0
  6
CONTINUOUS
 62
     7
 10
446.1084179277302
 20
176.6086288674993
 11
446.9873231074756
 21
175.4352693600354
  0
LINE
  8
0
  6
CONTINUOUS
 62
     7
 10
399.7
 20
175.1117292104447
 11
399.7
 21
185.1117292104447
  0
LINE
  8
0
  6
CONTINUOUS
 62
     7
 10
446.9873231074756
 20
194.7881890608539
 11
446.1084179277302
 21
193.61482955339
  0
LINE
  8
0
  6
CONTINUOUS
 62
     7
 10
460.2709110970872
 20
175.1117292104447
 11
399.7
 21
175.1117292104447
  0
LINE
  8
0
  6
CONTINUOUS
 62
     7
 10
413.3362089051209
 20
185.1117339676702
 11
413.2448581005581
 21
193.6008925831245
  0
LINE
  8
0
  6
CONTINUOUS
 62
     7
 10
443.5637910443224
 20
185.1117291498757
 11
443.6550554575941
 21
176.6305988220473
  0
LINE
  8
0
  6
CONTINUOUS
 62
     7
 10
455.1127357526232
 20
175.1122368989845
 11
455.1869103628935
 21
183.6118053637256
  0
LINE
  8
0
  6
CONTINUOUS
 62
     7
 10
443.6550638349723
 20
193.5936381020266
 11
443.5637910443224
 21
185.1117292710139
  0
LINE
  8
0
  6
CONTINUOUS
 62
     7
 10
399.7
 20
185.1117292104447
 11
411.1325929737511
 21
185.1117292104444
  0
LINE
  8
0
  6
CONTINUOUS
 62
     7
 10
435.2872686779075
 20
175.1117292104447
 11
435.2
 21
185.1117292104447
  0
LINE
  8
0
  6
CONTINUOUS
 62
     7
 10
435.2
 20
185.1117292104447
 11
435.2872686779075
 21
195.1117292104447
  0
LINE
  8
0
  6
CONTINUOUS
 62
     7
 10
449.1573211501824
 20
175.6055588529569
 11
449.2692130091247
 21
185.1117292104439
  0
LINE
  8
0
  6
CONTINUOUS
 62
     7
 10
490.1117292104447
 20
147.6617988731912
 11
490.1117292104447
 21
143.0894997057989
  0
LINE
  8
0
  6
CONTINUOUS
 62
     7
 10
450.1197698331408
 20
185.1117292104439
 11
450.0078779742001
 21
175.6055588529569
  0
LINE
  8
0
  6
CONTINUOUS
 62
     7
 10
459.2879509818989
 20
175.1117292104447
 11
459.3120489831159
 21
195.1117001747194
  0
LINE
  8
0
  6
CONTINUOUS
 62
     7
 10
486.7911125457812
 20
142.7110801093946
 11
492.6291816168819
 21
142.7779447555512
  0
LINE
  8
0
  6
CONTINUOUS
 62
     7
 10
500.1117292104447
 20
141.6857730352415
 11
500.1117292104447
 21
92.33820112680877
  0
LINE
  8
0
  6
CONTINUOUS
 62
     7
 10
412.1686057872894
 20
187.6291940506936
 11
412.1719666974237
 21
177.0942761394479
  0
LINE
  8
0
  6
CONTINUOUS
 62
     7
 10
450.0078779742001
 20
194.6178995679325
 11
450.1197698331425
 21
185.1117292104455
  0
LINE
  8
0
  6
CONTINUOUS
 62
     7
 10
449.2692130091247
 20
185.1117292104455
 11
449.1573211501824
 21
194.6178995679325
  0
LINE
  8
0
  6
CONTINUOUS
 62
     7
 10
460.2709110970872
 20
195.1117292104447
 11
400.0492076949175
 21
195.1117292104447
  0
LINE
  8
0
  6
CONTINUOUS
 62
     7
 10
460.3
 20
185.1117292104447
 11
445.767407026249
 21
185.1117292104447
  0
LINE
  8
0
  6
CONTINUOUS
 62
     7
 10
399.6999999999999
 20
185.1117292104447
 11
400.0492076949175
 21
195.1117292104447
  0
LINE
  8
0
  6
CONTINUOUS
 62
     7
 10
406.7802301668575
 20
185.1117292104455
 11
406.8921220257998
 21
194.6178995679325
  0
LINE
  8
0
  6
CONTINUOUS
 62
     7
 10
421.7
 20
185.1117292104447
 11
421.6127313220924
 21
195.1117292104447
  0
LINE
  8
0
  6
CONTINUOUS
 62
     7
 10
407.6307869908753
 20
185.1117292104439
 11
407.7426788498176
 21
175.6055588529569
  0
LINE
  8
0
  6
CONTINUOUS
 62
     7
 10
406.8921220257998
 20
175.6055588529569
 11
406.7802301668575
 21
185.1117292104439
  0
LINE
  8
0
  6
CONTINUOUS
 62
     7
 10
460.329088410637
 20
195.1115599790221
 11
460.2709110970872
 21
175.1117292104447
  0
LINE
  8
0
  6
CONTINUOUS
 62
     7
 10
444.7280333025763
 20
177.0942761394479
 11
444.7313942127106
 21
187.6291940506936
  0
LINE
  8
0
  6
CONTINUOUS
 62
     7
 10
401.7130903016861
 20
186.6117292104447
 11
400.7
 21
186.6117292104447
  0
LINE
  8
0
  6
CONTINUOUS
 62
     7
 10
421.6127313220924
 20
175.1117292104447
 11
421.7
 21
185.1117292104447
  0
LINE
  8
0
  6
CONTINUOUS
 62
     7
 10
444.7305910765907
 20
185.1117292104447
 11
433.45
 21
185.1117292104447
  0
LINE
  8
0
  6
CONTINUOUS
 62
     7
 10
480.1117292104447
 20
92.33820112680877
 11
480.1117292104447
 21
146.378738401
  0
LINE
  8
0
  6
CONTINUOUS
 62
     7
 10
457.2709115893628
 20
175.1118984418672
 11
457.3290889029128
 21
195.1117292104447
  0
LINE
  8
0
  6
CONTINUOUS
 62
     7
 10
400.7
 20
183.6117292104447
 11
401.7130903016861
 21
183.6117292104447
  0
LINE
  8
0
  6
CONTINUOUS
 62
     7
 10
407.7426788498176
 20
194.6178995679325
 11
407.6307869908753
 21
185.1117292104455
  0
LINE
  8
0
  6
CONTINUOUS
 62
     7
 10
423.45
 20
185.1117292104447
 11
412.1694089234093
 21
185.1117292104447
  0
LINE
  8
0
  6
CONTINUOUS
 62
     7
 10
500.0814913369906
 20
146.378738401
 11
500.0814913369906
 21
141.9285822781537
  0
LINE
  8
0
  6
CONTINUOUS
 62
     7
 10
487.597353259359
 20
141.6677469506185
 11
492.6291816168819
 21
141.8450661011765
  0
ARC
  8
0
  6
CONTINUOUS
 62
     7
 10
428.45
 20
122.1382011268088
 40
26.75
 50
139.1189230652849
 51
225.5878710174042
  0
ARC
  8
1
  6
CONTINUOUS
 62
     7
 10
422.6127155497489
 20
96.75102028590838
 40
1.000087836406688
 50
247.502633514694
 51
269.9987221532376
  0
ARC
  8
1
  6
CONTINUOUS
 62
     7
 10
422.6126423031321
 20
96.75084342994073
 40
0.9998964125310063
 50
224.9999999999966
 51
247.5026335146906
  0
ARC
  8
1
  6
CONTINUOUS
 62
     7
 10
422.6126423031321
 20
96.75084342994073
 40
0.9998964125310063
 50
202.4973664853032
 51
224.9999999999966
  0
ARC
  8
1
  6
CONTINUOUS
 62
     7
 10
422.6128191590995
 20
96.75091667655774
 40
1.000087836406522
 50
180.0012778467656
 51
202.4973664853107
  0
ARC
  8
1
  6
CONTINUOUS
 62
     7
 10
434.2871808409005
 20
96.75091667655774
 40
1.000087836406522
 50
337.5026335146894
 51
359.9987221532344
  0
ARC
  8
1
  6
CONTINUOUS
 62
     7
 10
434.2873576968679
 20
96.75084342994073
 40
0.9998964125310063
 50
315.0000000000034
 51
337.5026335146968
  0
ARC
  8
1
  6
CONTINUOUS
 62
     7
 10
434.2873576968679
 20
96.75084342994073
 40
0.9998964125310063
 50
292.4973664853094
 51
315.0000000000034
  0
ARC
  8
1
  6
CONTINUOUS
 62
     7
 10
434.287284450251
 20
96.75102028590838
 40
1.000087836406688
 50
270.0012778467624
 51
292.497366485306
  0
ARC
  8
1
  6
CONTINUOUS
 62
     7
 10
434.2000157723434
 20
96.83828896381596
 40
1.00008783640666
 50
270.0012778467656
 51
292.4973664853069
  0
ARC
  8
1
  6
CONTINUOUS
 62
     7
 10
434.2000890189604
 20
96.83811210784832
 40
0.9998964125309472
 50
292.497366485304
 51
315.0000000000021
  0
ARC
  8
1
  6
CONTINUOUS
 62
     7
 10
434.2000890189599
 20
96.83811210784879
 40
0.9998964125315949
 50
315.0000000000011
 51
337.5026335146822
  0
ARC
  8
1
  6
CONTINUOUS
 62
     7
 10
434.1999121629922
 20
96.83818535446532
 40
1.000087836407243
 50
337.5026335147064
 51
359.9987221532345
  0
ARC
  8
1
  6
CONTINUOUS
 62
     7
 10
422.7000878370078
 20
96.83818535446532
 40
1.000087836407243
 50
180.0012778467656
 51
202.4973664852936
  0
ARC
  8
1
  6
CONTINUOUS
 62
     7
 10
422.69991098104
 20
96.83811210784879
 40
0.9998964125315949
 50
202.4973664853178
 51
224.9999999999989
  0
ARC
  8
1
  6
CONTINUOUS
 62
     7
 10
422.6999109810397
 20
96.83811210784843
 40
0.9998964125311044
 50
224.9999999999978
 51
247.5026335146928
  0
ARC
  8
1
  6
CONTINUOUS
 62
     7
 10
422.6999842276566
 20
96.83828896381611
 40
1.000087836406827
 50
247.502633514697
 51
269.9987221532344
  0
ARC
  8
1
  6
CONTINUOUS
 62
     7
 10
409.0393424524065
 20
102.3250689126117
 40
0.9999580875332243
 50
269.9994616293363
 51
45.58840938806912
  0
ARC
  8
1
  6
CONTINUOUS
 62
     7
 10
400.6999101168904
 20
102.3251489035083
 40
1.000089883109567
 50
337.5013167451792
 51
0.0000000000007958
  0
ARC
  8
1
  6
CONTINUOUS
 62
     7
 10
400.6999985494949
 20
102.3251122759051
 40
0.9999941652592769
 50
315.0004518426405
 51
337.5013167451857
  0
ARC
  8
1
  6
CONTINUOUS
 62
     7
 10
400.6999633693759
 20
102.3251474554692
 40
1.000043917068394
 50
292.5013167867198
 51
315.000451842641
  0
ARC
  8
1
  6
CONTINUOUS
 62
     7
 10
400.7
 20
102.3250590270682
 40
0.9999482019455719
 50
270.0
 51
292.5013167867153
  0
ARC
  8
1
  6
CONTINUOUS
 62
     7
 10
400.6999101168904
 20
102.3382392051945
 40
1.000089883109567
 50
337.5013167451792
 51
0.0
  0
ARC
  8
1
  6
CONTINUOUS
 62
     7
 10
400.6999985494949
 20
102.3382025775912
 40
0.9999941652592769
 50
315.0004518426405
 51
337.5013167451857
  0
ARC
  8
1
  6
CONTINUOUS
 62
     7
 10
400.6999633693759
 20
102.3382377571554
 40
1.000043917068394
 50
292.5013167867198
 51
315.000451842641
  0
ARC
  8
1
  6
CONTINUOUS
 62
     7
 10
400.7
 20
102.3381493287543
 40
0.9999482019455719
 50
270.0
 51
292.5013167867153
  0
ARC
  8
1
  6
CONTINUOUS
 62
     7
 10
447.8606575475187
 20
102.3250689125812
 40
0.9999580875027253
 50
134.4115906076501
 51
270.0005383749482
  0
ARC
  8
1
  6
CONTINUOUS
 62
     7
 10
448.2240716808757
 20
111.2989857880692
 40
0.4999999999995023
 50
151.2705205180133
 51
240.0000000000516
  0
ARC
  8
1
  6
CONTINUOUS
 62
     7
 10
408.6759283191236
 20
111.2989857880694
 40
0.4999999999999523
 50
299.9999999999987
 51
28.72947948193485
  0
ARC
  8
1
  6
CONTINUOUS
 62
     7
 10
448.2240716808762
 20
132.9774164655482
 40
0.4999999999998329
 50
119.9999999999853
 51
208.7294794819496
  0
ARC
  8
0
  6
CONTINUOUS
 62
     7
 10
428.45
 20
122.1382011268088
 40
22.75
 50
133.7456072882736
 51
252.7402973585293
  0
LINE
  8
0
  6
CONTINUOUS
 62
     7
 10
421.6127313220924
 20
96.75089437196533
 11
421.6127313220924
 21
100.4126401444083
  0
ARC
  8
0
  6
CONTINUOUS
 62
     7
 10
428.45
 20
122.1382011268088
 40
26.73690969831386
 50
314.4121289825957
 51
40.88107693471534
  0
LINE
  8
0
  6
CONTINUOUS
 62
     7
 10
435.2
 20
96.75089437196534
 11
435.2
 21
100.4126401444083
  0
LINE
  8
0
  6
CONTINUOUS
 62
     7
 10
447.2874926146266
 20
142.634899407721
 11
447.9237074792335
 21
143.9935454425903
  0
ARC
  8
0
  6
CONTINUOUS
 62
     7
 10
428.45
 20
122.1382011268088
 40
22.75
 50
287.2597026414708
 51
46.25439271172633
  0
ARC
  8
1
  6
CONTINUOUS
 62
     7
 10
409.2294033023157
 20
175.984583271459
 40
0.8766792252423088
 50
279.2304276198416
 51
321.8956253273799
  0
ARC
  8
1
  6
CONTINUOUS
 62
     7
 10
446.8876571211534
 20
177.3057641491442
 40
1.056815820071799
 50
185.9214045137208
 51
221.8481502341031
  0
ARC
  8
1
  6
CONTINUOUS
 62
     7
 10
499.7312220164375
 20
146.378738401
 40
0.3805071940071181
 50
0.0
 51
13.05841374142836
  0
ARC
  8
1
  6
CONTINUOUS
 62
     7
 10
445.5989385426348
 20
187.8367837418215
 40
0.8541820089963579
 50
114.873733681558
 51
194.0661529491681
  0
ARC
  8
1
  6
CONTINUOUS
 62
     7
 10
410.4159482154325
 20
176.6330097424582
 40
1.521243690103877
 50
269.926308877201
 51
272.1624441894693
  0
ARC
  8
1
  6
CONTINUOUS
 62
     7
 10
410.4159482154325
 20
176.6330097424583
 40
1.52124369010396
 50
272.1624441894692
 51
299.0214888573112
  0
ARC
  8
1
  6
CONTINUOUS
 62
     7
 10
410.1457050466965
 20
177.1201103919147
 40
2.078288044665868
 50
299.0214888573133
 51
318.5970442229656
  0
ARC
  8
1
  6
CONTINUOUS
 62
     7
 10
410.3757552886159
 20
176.9172727283646
 40
1.771585857582581
 50
318.5970442229663
 51
343.6085631627487
  0
ARC
  8
1
  6
CONTINUOUS
 62
     7
 10
409.7924060895357
 20
177.0888670017345
 40
2.379649080217249
 50
343.6085631627332
 51
0.1302426283838827
  0
ARC
  8
1
  6
CONTINUOUS
 62
     7
 10
446.5095287351901
 20
194.0008029278586
 40
1.110915490161798
 50
91.14498501699408
 51
103.6836870890321
  0
ARC
  8
1
  6
CONTINUOUS
 62
     7
 10
446.5095287351901
 20
194.0008029278585
 40
1.110915490161937
 50
89.94424488264895
 51
91.14498501699393
  0
ARC
  8
1
  6
CONTINUOUS
 62
     7
 10
444.7652306472443
 20
175.6166141020088
 40
0.42983957611731
 50
235.9717040030757
 51
249.2847408837744
  0
ARC
  8
1
  6
CONTINUOUS
 62
     7
 10
444.7652306472443
 20
175.6166141020089
 40
0.4298395761173815
 50
249.2847408837702
 51
264.5222022764061
  0
ARC
  8
1
  6
CONTINUOUS
 62
     7
 10
499.6117292104447
 20
100.7552768436037
 40
0.5000000000000004
 50
359.9999999999968
 51
89.50000000000266
  0
ARC
  8
1
  6
CONTINUOUS
 62
     7
 10
407.4126894662412
 20
175.6326713931334
 40
0.5212716211396045
 50
182.9814288200178
 51
272.0371152875782
  0
ARC
  8
1
  6
CONTINUOUS
 62
     7
 10
444.7652306472443
 20
194.6068443188805
 40
0.42983957611731
 50
118.6359648894828
 51
124.0282174451906
  0
ARC
  8
1
  6
CONTINUOUS
 62
     7
 10
409.8382420807417
 20
194.7218719990324
 40
0.0997059161315438
 50
39.86659347395391
 51
41.6991505363776
  0
ARC
  8
1
  6
CONTINUOUS
 62
     7
 10
409.8382420807417
 20
194.7218719990324
 40
0.0997059161315615
 50
35.60066701454406
 51
39.86659347396613
  0
ARC
  8
1
  6
CONTINUOUS
 62
     7
 10
424.6457237829907
 20
187.312313676633
 40
0.9994156969927751
 50
89.96725842765584
 51
175.4834530574034
  0
ARC
  8
1
  6
CONTINUOUS
 62
     7
 10
487.5479462218469
 20
142.1240565190005
 40
0.9377554687884555
 50
87.16810189211873
 51
176.7175739146237
  0
ARC
  8
1
  6
CONTINUOUS
 62
     7
 10
412.1347693527557
 20
194.6068443188805
 40
0.42983957611731
 50
55.97170400306747
 51
69.28474088377443
  0
ARC
  8
1
  6
CONTINUOUS
 62
     7
 10
412.1347693527557
 20
194.6068443188804
 40
0.4298395761173815
 50
69.28474088377016
 51
84.5222022764061
  0
ARC
  8
1
  6
CONTINUOUS
 62
     7
 10
409.8382420807417
 20
175.5015864218569
 40
0.0997059161315438
 50
318.3008494636224
 51
320.1334065260461
  0
ARC
  8
1
  6
CONTINUOUS
 62
     7
 10
409.8382420807417
 20
175.5015864218569
 40
0.0997059161315615
 50
320.1334065260339
 51
324.3993329854244
  0
ARC
  8
1
  6
CONTINUOUS
 62
     7
 10
487.7088056283911
 20
141.3339151753221
 40
1.094515581735689
 50
211.7520757961647
 51
263.9936418728848
  0
ARC
  8
1
  6
CONTINUOUS
 62
     7
 10
499.4242607485764
 20
146.3579338598262
 40
0.6863360980690385
 50
8.95664239515084
 51
68.33300193456914
  0
ARC
  8
1
  6
CONTINUOUS
 62
     7
 10
449.4834556584545
 20
194.5865788025496
 40
0.5253554014601409
 50
3.417898208323054
 51
91.60064589926844
  0
ARC
  8
1
  6
CONTINUOUS
 62
     7
 10
447.0617579192584
 20
175.501586421857
 40
0.0997059161316219
 50
218.352551712549
 51
219.8665934739579
  0
ARC
  8
1
  6
CONTINUOUS
 62
     7
 10
447.0617579192584
 20
175.501586421857
 40
0.0997059161315615
 50
219.8665934739662
 51
221.6990828141523
  0
ARC
  8
1
  6
CONTINUOUS
 62
     7
 10
480.8053808990416
 20
146.3529899302009
 40
0.6932247238282903
 50
111.9910745103171
 51
170.7192811599625
  0
ARC
  8
1
  6
CONTINUOUS
 62
     7
 10
410.0440530547897
 20
177.2917254877051
 40
1.0238842914309
 50
317.5531812644862
 51
354.6756818209402
  0
ARC
  8
1
  6
CONTINUOUS
 62
     7
 10
409.2352674880547
 20
194.2488055658753
 40
0.8659469114958857
 50
37.82678569030575
 51
81.04716136247961
  0
ARC
  8
1
  6
CONTINUOUS
 62
     7
 10
449.4834556584545
 20
175.6368796183397
 40
0.5253554014601409
 50
268.3993541007316
 51
356.5821017916769
  0
ARC
  8
1
  6
CONTINUOUS
 62
     7
 10
499.6696030075714
 20
143.7979553256739
 40
0.525732514969426
 50
264.1581584954805
 51
327.2428786812576
  0
ARC
  8
1
  6
CONTINUOUS
 62
     7
 10
410.3904712648099
 20
194.0008029278585
 40
1.110915490161937
 50
88.85501498300607
 51
90.05575511735098
  0
ARC
  8
1
  6
CONTINUOUS
 62
     7
 10
410.3904712648099
 20
194.0008029278586
 40
1.110915490161798
 50
76.31631291097062
 51
88.85501498300597
  0
ARC
  8
1
  6
CONTINUOUS
 62
     7
 10
487.5477681677458
 20
142.7032223247193
 40
0.9493140138098581
 50
198.171291427132
 51
272.8081495386876
  0
ARC
  8
1
  6
CONTINUOUS
 62
     7
 10
408.2002931983087
 20
175.568794837568
 40
0.4590901410780828
 50
175.4068236983328
 51
264.6171935893232
  0
ARC
  8
1
  6
CONTINUOUS
 62
     7
 10
448.6932606633397
 20
175.5742060925923
 40
0.4651197927253701
 50
276.1108597327738
 51
3.865122979564547
  0
ARC
  8
1
  6
CONTINUOUS
 62
     7
 10
412.1347693527558
 20
175.6166141020088
 40
0.429839576117258
 50
275.4777977235803
 51
290.7152591162281
  0
ARC
  8
1
  6
CONTINUOUS
 62
     7
 10
412.1347693527558
 20
175.6166141020087
 40
0.4298395761172061
 50
290.7152591162308
 51
298.6365390455641
  0
ARC
  8
1
  6
CONTINUOUS
 62
     7
 10
408.675922639349
 20
132.977414875958
 40
0.5000042165296796
 50
331.2709930935746
 51
59.99952742448954
  0
ARC
  8
1
  6
CONTINUOUS
 62
     7
 10
447.0617579192584
 20
175.501586421857
 40
0.0997059161316219
 50
215.6005537272263
 51
218.3525517125491
  0
ARC
  8
1
  6
CONTINUOUS
 62
     7
 10
499.1740041634804
 20
141.6845132179673
 40
0.9377053553965154
 50
0.0769758359102184
 51
15.05351012297911
  0
ARC
  8
1
  6
CONTINUOUS
 62
     7
 10
480.4922364044517
 20
146.378738401
 40
0.3805071940070071
 50
166.941762544189
 51
180.0
  0
ARC
  8
1
  6
CONTINUOUS
 62
     7
 10
444.7652306472443
 20
194.6068443188805
 40
0.42983957611731
 50
110.7152591162255
 51
118.6359648894828
  0
ARC
  8
1
  6
CONTINUOUS
 62
     7
 10
444.7652306472443
 20
194.6068443188804
 40
0.4298395761173815
 50
95.47779772359394
 51
110.7152591162298
  0
ARC
  8
1
  6
CONTINUOUS
 62
     7
 10
446.8559469452096
 20
192.9317329331845
 40
1.023884291430202
 50
137.5531812644737
 51
174.6756818209537
  0
ARC
  8
1
  6
CONTINUOUS
 62
     7
 10
447.0617579192582
 20
194.7218719990325
 40
0.0997059161314655
 50
138.3008494636251
 51
140.1334065260501
  0
ARC
  8
1
  6
CONTINUOUS
 62
     7
 10
447.0617579192583
 20
194.7218719990325
 40
0.0997059161315259
 50
140.1334065260583
 51
144.3993329854503
  0
ARC
  8
1
  6
CONTINUOUS
 62
     7
 10
492.6407267121243
 20
142.8183055976529
 40
0.9733079711611586
 50
269.3203582382051
 51
356.0556244444333
  0
ARC
  8
1
  6
CONTINUOUS
 62
     7
 10
499.6736809193536
 20
146.0062685904711
 40
0.4487511044021616
 50
12.53865080400072
 51
97.14054055030016
  0
ARC
  8
1
  6
CONTINUOUS
 62
     7
 10
448.6932606633398
 20
194.6492523282971
 40
0.4651197927253186
 50
356.134877020428
 51
83.88914026723211
  0
ARC
  8
1
  6
CONTINUOUS
 62
     7
 10
411.5795713645916
 20
188.1914036520909
 40
0.4280167650050526
 50
18.18470119703533
 51
79.12180178695202
  0
POLYLINE
  8
1
  6
CONTINUOUS
 62
     7
 66
     1
  0
VERTEX
  8
1
  6
CONTINUOUS
 62
     7
 10
411.9862110101546
 20
188.3249796595988
  0
VERTEX
  8
1
  6
CONTINUOUS
 62
     7
 10
412.0934013769951
 20
187.9843939350865
  0
VERTEX
  8
1
  6
CONTINUOUS
 62
     7
 10
412.1296314678131
 20
187.6291816168819
  0
SEQEND
  8
1
  6
CONTINUOUS
 62
     7
  0
ARC
  8
1
  6
CONTINUOUS
 62
     7
 10
432.2539214751187
 20
187.311930017502
 40
0.9997992163558174
 50
4.53967874485445
 51
90.01239971617396
  0
ARC
  8
1
  6
CONTINUOUS
 62
     7
 10
408.2002931983087
 20
194.6546635833213
 40
0.459090141078088
 50
95.38280641068357
 51
184.5931763016671
  0
ARC
  8
1
  6
CONTINUOUS
 62
     7
 10
447.1075939104654
 20
177.0888670017344
 40
2.379649080218305
 50
179.8697573716148
 51
196.3914368372581
  0
ARC
  8
1
  6
CONTINUOUS
 62
     7
 10
446.5242447113841
 20
176.9172727283646
 40
1.771585857582641
 50
196.3914368372507
 51
221.4029557770331
  0
ARC
  8
1
  6
CONTINUOUS
 62
     7
 10
446.7542949533031
 20
177.1201103919144
 40
2.078288044665379
 50
221.402955777033
 51
240.9785111426912
  0
ARC
  8
1
  6
CONTINUOUS
 62
     7
 10
446.4840517845676
 20
176.6330097424582
 40
1.521243690103821
 50
240.9785111426881
 51
267.8375558105306
  0
ARC
  8
1
  6
CONTINUOUS
 62
     7
 10
446.4840517845676
 20
176.6330097424583
 40
1.52124369010396
 50
267.8375558105308
 51
270.073691122799
  0
ARC
  8
1
  6
CONTINUOUS
 62
     7
 10
407.4126894662412
 20
194.5907870277559
 40
0.5212716211396045
 50
87.96288471242185
 51
177.0185711799822
  0
ARC
  8
1
  6
CONTINUOUS
 62
     7
 10
412.1347693527558
 20
175.6166141020087
 40
0.4298395761172061
 50
298.6365390455641
 51
304.0278212008648
  0
ARC
  8
1
  6
CONTINUOUS
 62
     7
 10
492.6312717699379
 20
143.8180324112516
 40
1.040089755876917
 50
269.8848589474397
 51
320.3451311054945
  0
ARC
  8
1
  6
CONTINUOUS
 62
     7
 10
410.0123428788456
 20
192.9176942717448
 40
1.05681582007278
 50
5.921404513738031
 51
41.84815023408573
  0
ARC
  8
1
  6
CONTINUOUS
 62
     7
 10
499.5836654864355
 20
140.5155897414386
 40
0.5303958767621403
 50
273.593940976849
 51
354.6250389890375
  0
ARC
  8
1
  6
CONTINUOUS
 62
     7
 10
447.664732511945
 20
175.9746528550134
 40
0.8659469114952482
 50
217.8267856902873
 51
261.0471613626179
  0
ARC
  8
1
  6
CONTINUOUS
 62
     7
 10
480.6117292104447
 20
100.7552768436036
 40
0.5000000000000435
 50
90.50000000000361
 51
179.9999999999952
  0
ARC
  8
1
  6
CONTINUOUS
 62
     7
 10
480.5497775015357
 20
146.0062685904711
 40
0.4487511044021616
 50
82.85945944969984
 51
167.4613491959993
  0
LINE
  8
1
  6
CONTINUOUS
 62
     7
 10
479.8117292104447
 20
97.52129087958359
 11
479.8117292104447
 21
97.51683749044513
  0
ARC
  8
1
  6
CONTINUOUS
 62
     7
 10
447.6705966976841
 20
194.2388751494308
 40
0.8766792252418897
 50
99.23042761983136
 51
141.8956253273909
  0
LINE
  8
1
  6
CONTINUOUS
 62
     7
 10
457.3290889029128
 20
95.49229002972154
 11
457.3
 21
95.46320112680877
  0
LINE
  8
1
  6
CONTINUOUS
 62
     7
 10
401.4709110970872
 20
95.30911222389597
 11
401.5
 21
95.33820112680876
  0
LINE
  8
1
  6
CONTINUOUS
 62
     7
 10
433.45
 20
95.83820112680876
 11
433.2505840811975
 21
95.85809257661066
  0
LINE
  8
1
  6
CONTINUOUS
 62
     7
 10
404.7790889029128
 20
98.34966690130162
 11
404.75
 21
98.33820112680876
  0
LINE
  8
1
  6
CONTINUOUS
 62
     7
 10
399.7276471500343
 20
101.2552578051358
 11
399.7
 21
101.3382011268088
  0
LINE
  8
1
  6
CONTINUOUS
 62
     7
 10
399.7290889029128
 20
98.36729002972156
 11
399.7
 21
98.33820112680876
  0
LINE
  8
1
  6
CONTINUOUS
 62
     7
 10
460.3
 20
98.33820112680876
 11
460.2709110970872
 21
98.32615210870772
  0
LINE
  8
1
  6
CONTINUOUS
 62
     7
 10
459.2879509818989
 20
99.30911222389597
 11
459.3
 21
99.33820112680874
  0
LINE
  8
1
  6
CONTINUOUS
 62
     7
 10
410.7101424402943
 20
145.5523366705199
 11
410.7143795134164
 21
145.4966184651082
  0
LINE
  8
1
  6
CONTINUOUS
 62
     7
 10
404.75
 20
95.33820112680877
 11
404.7790889029128
 21
95.32673535231591
  0
LINE
  8
1
  6
CONTINUOUS
 62
     7
 10
446.1856204865836
 20
145.4966184651081
 11
446.1898575597057
 21
145.5523366705198
  0
LINE
  8
1
  6
CONTINUOUS
 62
     7
 10
457.3290889029128
 20
98.18411222389598
 11
457.3
 21
98.21320112680876
  0
LINE
  8
1
  6
CONTINUOUS
 62
     7
 10
401.4709110970872
 20
94.18411222389597
 11
401.5
 21
94.21320112680877
  0
LINE
  8
1
  6
CONTINUOUS
 62
     7
 10
455.1723528499656
 20
101.2552578051358
 11
455.1956366645631
 21
101.3251108251226
  0
LINE
  8
1
  6
CONTINUOUS
 62
     7
 10
403.7126406497208
 20
94.18411222389597
 11
403.7
 21
94.21320112680876
  0
LINE
  8
1
  6
CONTINUOUS
 62
     7
 10
450.0078765855364
 20
143.7539264938826
 11
449.4687809546758
 21
143.8010912501393
  0
LINE
  8
1
  6
CONTINUOUS
 62
     7
 10
460.2709110970872
 20
95.3502501449098
 11
460.3
 21
95.33820112680876
  0
LINE
  8
1
  6
CONTINUOUS
 62
     7
 10
410.5898384250829
 20
145.631911813238
 11
410.7101424402943
 21
145.5523366705198
  0
LINE
  8
1
  6
CONTINUOUS
 62
     7
 10
457.3290889029128
 20
99.30911222389597
 11
457.3
 21
99.33820112680874
  0
LINE
  8
1
  6
CONTINUOUS
 62
     7
 10
423.6494116382424
 20
95.85809214963098
 11
423.45
 21
95.83820112680876
  0
LINE
  8
1
  6
CONTINUOUS
 62
     7
 10
446.1898575597057
 20
145.5523366705198
 11
446.3101615749171
 21
145.631911813238
  0
LINE
  8
1
  6
CONTINUOUS
 62
     7
 10
401.4709110970872
 20
98.36729002972156
 11
401.5
 21
98.33820112680876
  0
LINE
  8
1
  6
CONTINUOUS
 62
     7
 10
448.1530438874314
 20
133.5137588190723
 11
448.3031813672244
 21
133.255208650276
  0
LINE
  8
1
  6
CONTINUOUS
 62
     7
 10
408.5968186327756
 20
133.255208650276
 11
408.7469561125686
 21
133.5137588190723
  0
LINE
  8
1
  6
CONTINUOUS
 62
     7
 10
407.1842492990798
 20
143.0606667882157
 11
407.1444718434836
 21
143.0894997057989
  0
LINE
  8
1
  6
CONTINUOUS
 62
     7
 10
408.7469561125686
 20
110.7626434345452
 11
408.5968186327756
 21
111.0211936033415
  0
LINE
  8
1
  6
CONTINUOUS
 62
     7
 10
406.8921007555488
 20
143.7539287952611
 11
406.7802301669254
 21
143.7892014563652
  0
LINE
  8
1
  6
CONTINUOUS
 62
     7
 10
447.8606669435404
 20
101.3251108251226
 11
455.1956366645631
 21
101.3251108251226
  0
LINE
  8
1
  6
CONTINUOUS
 62
     7
 10
449.1573424204334
 20
146.4515503974305
 11
449.2692130090567
 21
146.4868230585346
  0
LINE
  8
1
  6
CONTINUOUS
 62
     7
 10
407.6307869909432
 20
146.4868230585346
 11
406.7802301669254
 21
143.7892014563652
  0
LINE
  8
1
  6
CONTINUOUS
 62
     7
 10
448.3031813672244
 20
111.0211936033415
 11
448.1530438874314
 21
110.7626434345452
  0
LINE
  8
1
  6
CONTINUOUS
 62
     7
 10
450.1197698330745
 20
143.7892014563652
 11
450.0078992444512
 21
143.7539287952611
  0
LINE
  8
1
  6
CONTINUOUS
 62
     7
 10
407.6307869909432
 20
146.4868230585346
 11
409.670844360516
 21
147.5488097063694
  0
LINE
  8
1
  6
CONTINUOUS
 62
     7
 10
408.3910070342712
 20
140.7579321173012
 11
408.4940973183679
 21
140.2454081670547
  0
LINE
  8
1
  6
CONTINUOUS
 62
     7
 10
450.1197698330745
 20
143.7892014563652
 11
449.2692130090567
 21
146.4868230585346
  0
ARC
  8
1
  6
CONTINUOUS
 62
     7
 10
411.3362610592025
 20
140.0180016523188
 40
2.000097526250034
 50
313.7493396822413
 51
27.49626760603257
  0
ARC
  8
1
  6
CONTINUOUS
 62
     7
 10
445.5637389407997
 20
140.0180016523191
 40
2.000097526251814
 50
152.5037323940057
 51
226.2506603177205
  0
LINE
  8
1
  6
CONTINUOUS
 62
     7
 10
448.4059026816321
 20
140.2454081670546
 11
448.5089929657287
 21
140.7579321173012
  0
LINE
  8
1
  6
CONTINUOUS
 62
     7
 10
447.2291556394841
 20
147.5488097063695
 11
449.2692130090568
 21
146.4868230585346
  0
LINE
  8
1
  6
CONTINUOUS
 62
     7
 10
407.6307869909432
 20
146.4868230585346
 11
407.7426575795666
 21
146.4515503974305
  0
LINE
  8
1
  6
CONTINUOUS
 62
     7
 10
449.7555281565164
 20
143.0894997057989
 11
449.7157507009202
 21
143.0606667882157
  0
ENDSEC
  0
EOF
