  0
SECTION
  2
HEADER
  9
$ACADVER
  1
AC1006
  9
$DWGCODEPAGE
  3
ansi_932
  9
$INSBASE
 10
0.0
 20
0.0
 30
0.0
  9
$EXTMIN
 10
519.0
 20
124.3409090909091
  9
$EXTMAX
 10
603.3
 20
231.5043632677492
  9
$LIMMIN
 10
0.0
 20
0.0
  9
$LIMMAX
 10
12.0
 20
9.0
  9
$ORTHOMODE
 70
     0
  9
$REGENMODE
 70
     1
  9
$FILLMODE
 70
     1
  9
$QTEXTMODE
 70
     0
  9
$MIRRTEXT
 70
     1
  9
$DRAGMODE
 70
     2
  9
$LTSCALE
 40
1.0
  9
$OSMODE
 70
    37
  9
$ATTMODE
 70
     1
  9
$TEXTSIZE
 40
0.2
  9
$TRACEWID
 40
0.05
  9
$TEXTSTYLE
  7
STANDARD
  9
$CLAYER
  8
0
  9
$CELTYPE
  6
BYLAYER
  9
$CECOLOR
 62
   256
  9
$DIMSCALE
 40
1.0
  9
$DIMASZ
 40
3.0
  9
$DIMEXO
 40
0.0625
  9
$DIMDLI
 40
0.38
  9
$DIMRND
 40
0.0
  9
$DIMDLE
 40
0.0
  9
$DIMEXE
 40
1.5
  9
$DIMTP
 40
0.0
  9
$DIMTM
 40
0.0
  9
$DIMTXT
 40
3.0
  9
$DIMCEN
 40
0.09
  9
$DIMTSZ
 40
0.0
  9
$DIMTOL
 70
     0
  9
$DIMLIM
 70
     0
  9
$DIMTIH
 70
     1
  9
$DIMTOH
 70
     1
  9
$DIMSE1
 70
     0
  9
$DIMSE2
 70
     0
  9
$DIMTAD
 70
     1
  9
$DIMZIN
 70
     0
  9
$DIMBLK
  1

  9
$DIMASO
 70
     1
  9
$DIMSHO
 70
     1
  9
$DIMPOST
  1

  9
$DIMAPOST
  1

  9
$DIMALT
 70
     0
  9
$DIMALTD
 70
     2
  9
$DIMALTF
 40
25.4
  9
$DIMLFAC
 40
1.0
  9
$DIMTOFL
 70
     0
  9
$DIMTVP
 40
0.0
  9
$DIMTIX
 70
     0
  9
$DIMSOXD
 70
     0
  9
$DIMSAH
 70
     0
  9
$DIMBLK1
  1

  9
$DIMBLK2
  1

  9
$LUNITS
 70
     2
  9
$LUPREC
 70
     4
  9
$SKETCHINC
 40
0.1
  9
$FILLETRAD
 40
0.5
  9
$AUNITS
 70
     0
  9
$AUPREC
 70
     0
  9
$MENU
  1
.
  9
$ELEVATION
 40
0.0
  9
$THICKNESS
 40
0.0
  9
$LIMCHECK
 70
     0
  9
$CHAMFERA
 40
0.0
  9
$CHAMFERB
 40
0.0
  9
$SKPOLY
 70
     0
  9
$TDCREATE
 40
2459748.685913681
  9
$TDUPDATE
 40
2459748.685913912
  9
$TDINDWG
 40
0.0000000116
  9
$TDUSRTIMER
 40
0.0000000116
  9
$USRTIMER
 70
     1
  9
$ANGBASE
 50
0.0
  9
$ANGDIR
 70
     0
  9
$PDMODE
 70
     0
  9
$PDSIZE
 40
0.0
  9
$PLINEWID
 40
0.0
  9
$COORDS
 70
     1
  9
$SPLFRAME
 70
     0
  9
$SPLINETYPE
 70
     6
  9
$SPLINESEGS
 70
     8
  9
$ATTDIA
 70
     0
  9
$ATTREQ
 70
     1
  9
$HANDLING
 70
     1
  9
$HANDSEED
  5
181
  9
$SURFTAB1
 70
     6
  9
$SURFTAB2
 70
     6
  9
$SURFTYPE
 70
     6
  9
$SURFU
 70
     6
  9
$SURFV
 70
     6
  9
$UCSNAME
  2

  9
$UCSORG
 10
0.0
 20
0.0
 30
0.0
  9
$UCSXDIR
 10
1.0
 20
0.0
 30
0.0
  9
$UCSYDIR
 10
0.0
 20
1.0
 30
0.0
  9
$USERI1
 70
     0
  9
$USERI2
 70
     0
  9
$USERI3
 70
     0
  9
$USERI4
 70
     0
  9
$USERI5
 70
     0
  9
$USERR1
 40
0.0
  9
$USERR2
 40
0.0
  9
$USERR3
 40
0.0
  9
$USERR4
 40
0.0
  9
$USERR5
 40
0.0
  9
$WORLDVIEW
 70
     1
  0
ENDSEC
  0
SECTION
  2
TABLES
  0
TABLE
  2
VPORT
 70
     1
  0
VPORT
  2
*ACTIVE
 70
     0
 10
0.0
 20
0.0
 11
1.0
 21
1.0
 12
561.15
 22
177.9226361793291
 13
0.0
 23
0.0
 14
0.5
 24
0.5
 15
0.5
 25
0.5
 16
0.0
 26
0.0
 36
1.0
 17
0.0
 27
0.0
 37
0.0
 40
107.1634541768401
 41
1.6
 42
50.0
 43
0.0
 44
0.0
 50
0.0
 51
0.0
 71
     0
 72
   100
 73
     1
 74
     3
 75
     0
 76
     0
 77
     0
 78
     0
  0
ENDTAB
  0
TABLE
  2
LTYPE
 70
     2
  0
LTYPE
  2
CONTINUOUS
 70
     0
  3
Solid line
 72
    65
 73
     0
 40
0.0
  0
LTYPE
  2
CENTER
 70
     0
  3

 72
    65
 73
     0
 40
0.0
  0
ENDTAB
  0
TABLE
  2
LAYER
 70
     2
  0
LAYER
  2
0
 70
     0
 62
     7
  6
CONTINUOUS
  0
LAYER
  2
1
 70
     0
 62
     7
  6
CONTINUOUS
  0
ENDTAB
  0
TABLE
  2
STYLE
 70
     2
  0
STYLE
  2
STANDARD
 70
     0
 40
0.0
 41
1.0
 50
0.0
 71
     0
 42
0.2
  3
txt
  4

  0
STYLE
  2
ＭＳ_ゴシック
 70
     0
 40
0.0
 41
1.0
 50
0.0
 71
     0
 42
0.2
  3
ＭＳ ゴシック.shx
  4

  0
ENDTAB
  0
TABLE
  2
VIEW
 70
     0
  0
ENDTAB
  0
TABLE
  2
UCS
 70
     0
  0
ENDTAB
  0
ENDSEC
  0
SECTION
  2
BLOCKS
  0
BLOCK
  8
0
  2
D_FRAME_VIEW_4463
 70
     0
 10
0.0
 20
0.0
 30
0.0
  0
ARC
  5
75
  8
1
  6
CONTINUOUS
 62
     7
 10
526.3869508354175
 20
229.5376176036684
 30
0.0
 40
0.4672164132311324
 50
98.24912393669973
 51
184.081503649197
  0
ARC
  5
76
  8
1
  6
CONTINUOUS
 62
     7
 10
551.6130491645827
 20
229.5376176036684
 30
0.0
 40
0.4672164132311324
 50
355.918496350803
 51
81.75087606330027
  0
ARC
  5
77
  8
1
  6
CONTINUOUS
 62
     7
 10
526.6736523406336
 20
210.451060480946
 30
0.0
 40
0.4541853083233184
 50
174.5966334261939
 51
263.2751373672279
  0
ARC
  5
78
  8
1
  6
CONTINUOUS
 62
     7
 10
551.3263476593664
 20
210.451060480946
 30
0.0
 40
0.4541853083233184
 50
276.7248626327721
 51
5.403366573806125
  0
ARC
  5
79
  8
1
  6
CONTINUOUS
 62
     7
 10
552.2245219376267
 20
210.5218009030688
 30
0.0
 40
0.5221552832828035
 50
267.8889569468798
 51
356.9292630811992
  0
ARC
  5
7A
  8
1
  6
CONTINUOUS
 62
     7
 10
525.7754780623733
 20
210.5218009030688
 30
0.0
 40
0.5221552832828035
 50
183.0707369188009
 51
272.1110430531202
  0
ARC
  5
7B
  8
1
  6
CONTINUOUS
 62
     7
 10
552.3638351407347
 20
229.4773643205571
 30
0.0
 40
0.5229594195932685
 50
2.95933810821605
 51
92.01615688933015
  0
ARC
  5
7C
  8
1
  6
CONTINUOUS
 62
     7
 10
525.6361648592654
 20
229.4773643205571
 30
0.0
 40
0.5229594195932685
 50
87.98384311066984
 51
177.0406618917839
  0
ARC
  5
7D
  8
1
  6
CONTINUOUS
 62
     7
 10
549.7070628652355
 20
229.608533805704
 30
0.0
 40
0.1021622471258479
 50
138.8757133092132
 51
140.1398738942406
  0
ARC
  5
7E
  8
1
  6
CONTINUOUS
 62
     7
 10
549.7070628652353
 20
229.6085338057041
 30
0.0
 40
0.1021622471257093
 50
140.1398738942366
 51
142.2819225568786
  0
ARC
  5
7F
  8
1
  6
CONTINUOUS
 62
     7
 10
528.2929371347645
 20
229.608533805704
 30
0.0
 40
0.1021622471258479
 50
39.86012610575938
 51
41.12428597221061
  0
ARC
  5
80
  8
1
  6
CONTINUOUS
 62
     7
 10
528.2929371347647
 20
229.6085338057041
 30
0.0
 40
0.1021622471257093
 50
37.86173493192296
 51
39.86012610576347
  0
LINE
  5
81
  8
1
  6
CONTINUOUS
 62
     7
 10
548.0863060091335
 20
230.0
 30
0.0
 11
547.5429495120529
 21
229.8892306285051
 31
0.0
  0
ARC
  5
82
  8
1
  6
CONTINUOUS
 62
     7
 10
528.6652521419644
 20
228.4038149654872
 30
0.0
 40
1.596185034512837
 50
87.72573377071853
 51
90.0
  0
LINE
  5
83
  8
1
  6
CONTINUOUS
 62
     7
 10
529.9136939908665
 20
230.0
 30
0.0
 11
530.4570504879471
 21
229.8892306285051
 31
0.0
  0
ARC
  5
84
  8
1
  6
CONTINUOUS
 62
     7
 10
549.7070628652356
 20
210.391466194296
 30
0.0
 40
0.1021622471258657
 50
218.0424609848778
 51
219.8601261057713
  0
ARC
  5
85
  8
1
  6
CONTINUOUS
 62
     7
 10
549.7070628652356
 20
210.391466194296
 30
0.0
 40
0.1021622471258835
 50
219.8601261057833
 51
221.124287407635
  0
ARC
  5
86
  8
1
  6
CONTINUOUS
 62
     7
 10
528.2929371347644
 20
210.391466194296
 30
0.0
 40
0.1021622471258657
 50
320.1398738942287
 51
322.3014562103374
  0
ARC
  5
87
  8
1
  6
CONTINUOUS
 62
     7
 10
528.2929371347644
 20
210.391466194296
 30
0.0
 40
0.1021622471258835
 50
318.8757122390812
 51
320.1398738942167
  0
LINE
  5
88
  8
1
  6
CONTINUOUS
 62
     7
 10
528.45670265321
 20
230.0
 30
0.0
 11
528.45670265321
 21
229.9987784355118
 31
0.0
  0
LINE
  5
89
  8
1
  6
CONTINUOUS
 62
     7
 10
549.54329734679
 20
230.0
 30
0.0
 11
549.54329734679
 21
229.9987784355118
 31
0.0
  0
LINE
  5
8A
  8
1
  6
CONTINUOUS
 62
     7
 10
547.5429495120525
 20
210.1107693714951
 30
0.0
 11
548.0863060091335
 21
210.0
 31
0.0
  0
LINE
  5
8B
  8
1
  6
CONTINUOUS
 62
     7
 10
530.4570504879475
 20
210.1107693714951
 30
0.0
 11
529.9136939908665
 21
210.0
 31
0.0
  0
ARC
  5
8C
  8
1
  6
CONTINUOUS
 62
     7
 10
547.6019972348445
 20
210.5361585162901
 30
0.0
 40
0.4286657835779883
 50
245.33947484148
 51
262.097343742697
  0
ARC
  5
8D
  8
1
  6
CONTINUOUS
 62
     7
 10
547.6019972348446
 20
210.5361585162904
 30
0.0
 40
0.4286657835783373
 50
233.3171493887941
 51
245.3394748414851
  0
ARC
  5
8E
  8
1
  6
CONTINUOUS
 62
     7
 10
530.3980027651547
 20
229.4638414837088
 30
0.0
 40
0.4286657835789807
 50
53.31715587823836
 51
65.33947484147555
  0
ARC
  5
8F
  8
1
  6
CONTINUOUS
 62
     7
 10
530.398002765155
 20
229.4638414837092
 30
0.0
 40
0.4286657835785098
 50
65.33947484147932
 51
82.09734374266257
  0
ARC
  5
90
  8
1
  6
CONTINUOUS
 62
     7
 10
547.6019972348454
 20
229.4638414837088
 30
0.0
 40
0.4286657835789807
 50
114.6605251585245
 51
126.6828442255599
  0
ARC
  5
91
  8
1
  6
CONTINUOUS
 62
     7
 10
547.6019972348452
 20
229.4638414837092
 30
0.0
 40
0.4286657835785098
 50
97.90265625733743
 51
114.6605251585207
  0
ARC
  5
92
  8
1
  6
CONTINUOUS
 62
     7
 10
530.3980027651555
 20
210.5361585162901
 30
0.0
 40
0.4286657835779883
 50
277.9026562573031
 51
294.66052515852
  0
ARC
  5
93
  8
1
  6
CONTINUOUS
 62
     7
 10
530.3980027651554
 20
210.5361585162904
 30
0.0
 40
0.4286657835783373
 50
294.6605251585149
 51
306.6828507505337
  0
ARC
  5
94
  8
1
  6
CONTINUOUS
 62
     7
 10
539.0
 20
219.9999981430337
 30
0.0
 40
6.750000016205185
 50
0.500015761818986
 51
179.499984238181
  0
ARC
  5
95
  8
1
  6
CONTINUOUS
 62
     7
 10
520.0
 20
225.4502071719293
 30
0.0
 40
0.9997928280706947
 50
90.0
 51
112.5052675966751
  0
ARC
  5
96
  8
1
  6
CONTINUOUS
 62
     7
 10
520.0001465545784
 20
225.4498534498631
 30
0.0
 40
1.000175708658563
 50
112.5052675966804
 51
135.0018074394032
  0
ARC
  5
97
  8
1
  6
CONTINUOUS
 62
     7
 10
520.0000058173695
 20
225.4499941781929
 30
0.0
 40
0.9999766824674108
 50
135.0018074394003
 51
157.5052669320181
  0
ARC
  5
98
  8
1
  6
CONTINUOUS
 62
     7
 10
520.0003596066982
 20
225.4498476719561
 30
0.0
 40
1.000359606698198
 50
157.5052669320567
 51
180.0
  0
LINE
  5
99
  8
1
  6
CONTINUOUS
 62
     7
 10
523.0
 20
226.45
 30
0.0
 11
520.0
 21
226.45
 31
0.0
  0
LINE
  5
9A
  8
1
  6
CONTINUOUS
 62
     7
 10
523.0
 20
223.55
 30
0.0
 11
520.0
 21
223.55
 31
0.0
  0
ARC
  5
9B
  8
1
  6
CONTINUOUS
 62
     7
 10
520.0003596066982
 20
224.5501523280439
 30
0.0
 40
1.000359606698198
 50
180.0
 51
202.4947330679433
  0
ARC
  5
9C
  8
1
  6
CONTINUOUS
 62
     7
 10
520.0000058173694
 20
224.5500058218069
 30
0.0
 40
0.999976682467234
 50
202.4947330679755
 51
224.9981925605986
  0
ARC
  5
9D
  8
1
  6
CONTINUOUS
 62
     7
 10
520.0001465545782
 20
224.5501465501368
 30
0.0
 40
1.000175708658464
 50
224.9981925606002
 51
247.4947324033248
  0
ARC
  5
9E
  8
1
  6
CONTINUOUS
 62
     7
 10
520.0
 20
224.5497928280707
 30
0.0
 40
0.9997928280707502
 50
247.4947324033262
 51
270.0
  0
LINE
  5
9F
  8
1
  6
CONTINUOUS
 62
     7
 10
519.0
 20
225.4498476719561
 30
0.0
 11
519.0
 21
224.5501523280439
 31
0.0
  0
ARC
  5
A0
  8
1
  6
CONTINUOUS
 62
     7
 10
558.0
 20
214.5497928280707
 30
0.0
 40
0.9997928280706947
 50
270.0
 51
292.505267596675
  0
ARC
  5
A1
  8
1
  6
CONTINUOUS
 62
     7
 10
557.9998534454216
 20
214.5501465501369
 30
0.0
 40
1.000175708658563
 50
292.5052675966804
 51
315.0018074394032
  0
ARC
  5
A2
  8
1
  6
CONTINUOUS
 62
     7
 10
557.9999941826305
 20
214.5500058218071
 30
0.0
 40
0.9999766824674108
 50
315.0018074394002
 51
337.5052669320181
  0
ARC
  5
A3
  8
1
  6
CONTINUOUS
 62
     7
 10
557.9996403933019
 20
214.5501523280439
 30
0.0
 40
1.000359606698198
 50
337.5052669320553
 51
0.0
  0
LINE
  5
A4
  8
1
  6
CONTINUOUS
 62
     7
 10
555.0
 20
216.45
 30
0.0
 11
558.0
 21
216.45
 31
0.0
  0
ARC
  5
A5
  8
1
  6
CONTINUOUS
 62
     7
 10
557.9996403933019
 20
215.4498476719561
 30
0.0
 40
1.000359606698198
 50
0.0
 51
22.49473306794325
  0
ARC
  5
A6
  8
1
  6
CONTINUOUS
 62
     7
 10
557.9999941826306
 20
215.449994178193
 30
0.0
 40
0.999976682467234
 50
22.49473306797554
 51
44.9981925605986
  0
ARC
  5
A7
  8
1
  6
CONTINUOUS
 62
     7
 10
557.9998534454218
 20
215.4498534498632
 30
0.0
 40
1.000175708658464
 50
44.99819256060017
 51
67.49473240332485
  0
ARC
  5
A8
  8
1
  6
CONTINUOUS
 62
     7
 10
558.0
 20
215.4502071719293
 30
0.0
 40
0.9997928280707502
 50
67.49473240332615
 51
89.99999999999999
  0
LINE
  5
A9
  8
1
  6
CONTINUOUS
 62
     7
 10
559.0
 20
214.5501523280439
 30
0.0
 11
559.0
 21
215.4498476719561
 31
0.0
  0
LINE
  5
AA
  8
1
  6
CONTINUOUS
 62
     7
 10
555.0
 20
213.55
 30
0.0
 11
558.0
 21
213.55
 31
0.0
  0
ARC
  5
AB
  8
1
  6
CONTINUOUS
 62
     7
 10
540.9000000000001
 20
220.0
 30
0.0
 40
2.600000000000001
 50
270.0
 51
90.0
  0
LINE
  5
AC
  8
1
  6
CONTINUOUS
 62
     7
 10
540.9000000000001
 20
222.6
 30
0.0
 11
537.1
 21
222.6
 31
0.0
  0
ARC
  5
AD
  8
1
  6
CONTINUOUS
 62
     7
 10
537.1
 20
220.0
 30
0.0
 40
2.600000000000001
 50
90.0
 51
270.0
  0
LINE
  5
AE
  8
1
  6
CONTINUOUS
 62
     7
 10
537.1
 20
217.4
 30
0.0
 11
540.9000000000001
 21
217.4
 31
0.0
  0
LINE
  5
AF
  8
1
  6
CONTINUOUS
 62
     7
 10
529.5492973658905
 20
212.0933709278061
 30
0.0
 11
529.6182974724741
 21
220.0
 31
0.0
  0
LINE
  5
B0
  8
1
  6
CONTINUOUS
 62
     7
 10
548.3817025275259
 20
220.0
 30
0.0
 11
548.4507026341096
 21
212.0933709278061
 31
0.0
  0
LINE
  5
B1
  8
1
  6
CONTINUOUS
 62
     7
 10
529.6182974724741
 20
220.0
 30
0.0
 11
529.549297366966
 21
227.9066289489593
 31
0.0
  0
LINE
  5
B2
  8
1
  6
CONTINUOUS
 62
     7
 10
548.4507026330341
 20
227.9066289489593
 30
0.0
 11
548.3817025275259
 21
220.0
 31
0.0
  0
ARC
  5
B3
  8
1
  6
CONTINUOUS
 62
     7
 10
549.4640521265749
 20
227.8030396089995
 30
0.0
 40
1.018628624912592
 50
137.3307188986164
 51
174.1643157960378
  0
ARC
  5
B4
  8
1
  6
CONTINUOUS
 62
     7
 10
528.5493561065528
 20
227.8090802765049
 30
0.0
 40
1.004686431322154
 50
5.570724875673672
 51
42.93424042967391
  0
ARC
  5
B5
  8
1
  6
CONTINUOUS
 62
     7
 10
549.4460570337967
 20
212.188855659742
 30
0.0
 40
0.9999235731111215
 50
185.4794533875266
 51
223.0266772710673
  0
ARC
  5
B6
  8
1
  6
CONTINUOUS
 62
     7
 10
528.5343389038856
 20
212.1976879075716
 30
0.0
 40
1.020304901881
 50
317.3619176380164
 51
354.1319517033918
  0
ARC
  5
B7
  8
1
  6
CONTINUOUS
 62
     7
 10
550.3081493481753
 20
229.1368402975373
 30
0.0
 40
0.865868724325824
 50
98.41034259288746
 51
142.3605476470872
  0
ARC
  5
B8
  8
1
  6
CONTINUOUS
 62
     7
 10
527.6891567140153
 20
229.1322459180695
 30
0.0
 40
0.8708099958871595
 50
37.77058287830349
 51
81.45852688197745
  0
ARC
  5
B9
  8
1
  6
CONTINUOUS
 62
     7
 10
550.3108432859844
 20
210.8677540819298
 30
0.0
 40
0.8708099958864316
 50
217.7705828783014
 51
261.4585268817416
  0
ARC
  5
BA
  8
1
  6
CONTINUOUS
 62
     7
 10
527.6918506518247
 20
210.8631597024627
 30
0.0
 40
0.865868724325824
 50
278.4103425928874
 51
322.360547647068
  0
ARC
  5
BB
  8
1
  6
CONTINUOUS
 62
     7
 10
548.0739705848797
 20
211.544679779375
 30
0.0
 40
1.536186045070222
 50
179.4013264024712
 51
241.7007052057584
  0
ARC
  5
BC
  8
1
  6
CONTINUOUS
 62
     7
 10
529.9260294151204
 20
228.455320220625
 30
0.0
 40
1.536186045070111
 50
359.4013264024701
 51
61.70070520579395
  0
ARC
  5
BD
  8
1
  6
CONTINUOUS
 62
     7
 10
548.0699654673165
 20
228.4576842211745
 30
0.0
 40
1.532207735331166
 50
118.2093346482336
 51
180.6886337435055
  0
ARC
  5
BE
  8
1
  6
CONTINUOUS
 62
     7
 10
529.930034532684
 20
211.5423157788253
 30
0.0
 40
1.53220773533089
 50
298.2093346482627
 51
0.6886337435129234
  0
LINE
  5
BF
  8
1
  6
CONTINUOUS
 62
     7
 10
546.4491910223993
 20
219.9999993788354
 30
0.0
 11
546.5378706887522
 21
211.5662516764784
 31
0.0
  0
LINE
  5
C0
  8
1
  6
CONTINUOUS
 62
     7
 10
531.462129311248
 20
211.5662516764784
 30
0.0
 11
531.5508089776008
 21
219.9999993788354
 31
0.0
  0
LINE
  5
C1
  8
1
  6
CONTINUOUS
 62
     7
 10
553.4170566783271
 20
210.4956367322508
 30
0.0
 11
553.5
 21
220.0
 31
0.0
  0
LINE
  5
C2
  8
1
  6
CONTINUOUS
 62
     7
 10
553.5
 20
220.0
 30
0.0
 11
553.4170566783271
 21
229.5043632677492
 31
0.0
  0
LINE
  5
C3
  8
1
  6
CONTINUOUS
 62
     7
 10
524.5829433216729
 20
229.5043632677492
 30
0.0
 11
524.5000000000001
 21
220.0
 31
0.0
  0
LINE
  5
C4
  8
1
  6
CONTINUOUS
 62
     7
 10
524.5000000000001
 20
220.0
 30
0.0
 11
524.5829433216729
 21
210.4956367322508
 31
0.0
  0
ARC
  5
C5
  8
1
  6
CONTINUOUS
 62
     7
 10
525.0829242832051
 20
210.5
 30
0.0
 40
0.5000000000000571
 50
180.4999999999989
 51
270.0000000000004
  0
ARC
  5
C6
  8
1
  6
CONTINUOUS
 62
     7
 10
552.9170757167949
 20
210.5
 30
0.0
 40
0.5000000000000004
 50
269.9999999999996
 51
359.5000000000011
  0
ARC
  5
C7
  8
1
  6
CONTINUOUS
 62
     7
 10
525.0829242832051
 20
229.5
 30
0.0
 40
0.5000000000000004
 50
89.99999999999962
 51
179.5000000000001
  0
ARC
  5
C8
  8
1
  6
CONTINUOUS
 62
     7
 10
552.9170757167949
 20
229.5
 30
0.0
 40
0.5000000000000571
 50
0.499999999999884
 51
90.0000000000004
  0
ENDBLK
  8
0
  0
BLOCK
  8
0
  2
D_FRAME_VIEW_4112
 70
     0
 10
0.0
 20
0.0
 30
0.0
  0
LINE
  5
CD
  8
1
  6
CONTINUOUS
 62
     7
 10
589.4499999999999
 20
158.2629871451788
 30
0.0
 11
589.3243235325168
 21
151.0629871451788
 31
0.0
  0
LINE
  5
CE
  8
1
  6
CONTINUOUS
 62
     7
 10
586.6756764674831
 20
151.0629871451788
 30
0.0
 11
586.55
 21
158.2629871451788
 31
0.0
  0
LINE
  5
CF
  8
1
  6
CONTINUOUS
 62
     7
 10
599.6
 20
158.5629871451788
 30
0.0
 11
599.7169510618118
 21
151.8628653013039
 31
0.0
  0
LINE
  5
D0
  8
1
  6
CONTINUOUS
 62
     7
 10
599.285281413089
 20
158.5629871451788
 30
0.0
 11
599.3967398782086
 21
152.1775359550497
 31
0.0
  0
LINE
  5
D1
  8
1
  6
CONTINUOUS
 62
     7
 10
596.2830489381881
 20
151.8628653013039
 30
0.0
 11
596.3999999999999
 21
158.5629871451788
 31
0.0
  0
LINE
  5
D2
  8
1
  6
CONTINUOUS
 62
     7
 10
596.6032601217912
 20
152.1775359550497
 30
0.0
 11
596.714718586911
 21
158.5629871451788
 31
0.0
  0
ARC
  5
D3
  8
1
  6
CONTINUOUS
 62
     7
 10
583.5
 20
159.4800628619737
 30
0.0
 40
0.5000000000000018
 50
90.5000000000001
 51
180.0
  0
LINE
  5
D4
  8
1
  6
CONTINUOUS
 62
     7
 10
583.4956367322508
 20
159.9800438235058
 30
0.0
 11
593.0
 21
160.0629871451788
 31
0.0
  0
LINE
  5
D5
  8
1
  6
CONTINUOUS
 62
     7
 10
593.0
 20
160.0629871451788
 30
0.0
 11
602.5043632677491
 21
159.9800438235058
 31
0.0
  0
ARC
  5
D6
  8
1
  6
CONTINUOUS
 62
     7
 10
602.4999999999999
 20
159.4800628619737
 30
0.0
 40
0.500000000000056
 50
0.0000000000000035
 51
89.49999999999991
  0
LINE
  5
D7
  8
1
  6
CONTINUOUS
 62
     7
 10
596.3999999999999
 20
158.5629871451788
 30
0.0
 11
599.6
 21
158.5629871451788
 31
0.0
  0
ARC
  5
D8
  8
1
  6
CONTINUOUS
 62
     7
 10
602.5481945363126
 20
185.2317268786289
 30
0.0
 40
0.461424509697671
 50
11.71954250588118
 51
95.45081340359121
  0
LINE
  5
D9
  8
1
  6
CONTINUOUS
 62
     7
 10
602.4938296425122
 20
183.4736586354971
 30
0.0
 11
593.0
 21
183.2133775260805
 31
0.0
  0
LINE
  5
DA
  8
1
  6
CONTINUOUS
 62
     7
 10
593.0
 20
183.2133775260805
 30
0.0
 11
583.4956367322508
 21
183.1732587101941
 31
0.0
  0
ARC
  5
DB
  8
1
  6
CONTINUOUS
 62
     7
 10
602.892259809497
 20
182.5081778132056
 30
0.0
 40
0.1077401905029696
 50
299.8534178677091
 51
0.0
  0
ARC
  5
DC
  8
1
  6
CONTINUOUS
 62
     7
 10
604.0693570286214
 20
180.4572863201646
 30
0.0
 40
2.256940290978266
 50
119.8534178676815
 51
122.5948817532356
  0
ARC
  5
DD
  8
1
  6
CONTINUOUS
 62
     7
 10
602.6587461269374
 20
182.6634312816315
 30
0.0
 40
0.3616277732422032
 50
273.5610781358134
 51
302.5948817532295
  0
ARC
  5
DE
  8
1
  6
CONTINUOUS
 62
     7
 10
602.5000000000002
 20
185.2142790758375
 30
0.0
 40
2.917410393502267
 50
270.0856915196191
 51
273.561078135842
  0
ARC
  5
DF
  8
1
  6
CONTINUOUS
 62
     7
 10
590.4532935601624
 20
181.3175361222082
 30
0.0
 40
0.9546508224044769
 50
87.19567555233537
 51
176.9443844865702
  0
LINE
  5
E0
  8
1
  6
CONTINUOUS
 62
     7
 10
589.5
 20
179.7645407442412
 30
0.0
 11
589.5
 21
181.368424046811
 31
0.0
  0
ARC
  5
E1
  8
1
  6
CONTINUOUS
 62
     7
 10
590.9112489867841
 20
179.7672298222786
 30
0.0
 40
1.411289983304844
 50
180.1091746653463
 51
181.7488565582541
  0
ARC
  5
E2
  8
1
  6
CONTINUOUS
 62
     7
 10
590.9112489867858
 20
179.7672298222786
 30
0.0
 40
1.41128998330651
 50
181.7488565582543
 51
199.6887531051573
  0
ARC
  5
E3
  8
1
  6
CONTINUOUS
 62
     7
 10
590.5254403815479
 20
179.6291757777039
 30
0.0
 40
1.001525173813336
 50
199.6887531052079
 51
225.0725378875403
  0
ARC
  5
E4
  8
1
  6
CONTINUOUS
 62
     7
 10
590.6711434819941
 20
179.7752482735378
 30
0.0
 40
1.207841841871865
 50
225.0725378875366
 51
230.778887461687
  0
ARC
  5
E5
  8
1
  6
CONTINUOUS
 62
     7
 10
583.4415043232616
 20
185.3855604661617
 30
0.0
 40
0.4487009803294782
 50
83.3032058606524
 51
169.7244114594392
  0
ARC
  5
E6
  8
1
  6
CONTINUOUS
 62
     7
 10
602.6009537413717
 20
185.7173393472761
 30
0.0
 40
0.3990462586282995
 50
0.0
 51
12.71866098529871
  0
ARC
  5
E7
  8
1
  6
CONTINUOUS
 62
     7
 10
583.3990462586283
 20
185.7173393472761
 30
0.0
 40
0.3990462586284105
 50
167.2813396780094
 51
179.999999999996
  0
ARC
  5
E8
  8
1
  6
CONTINUOUS
 62
     7
 10
590.4220512694999
 20
181.7997163859532
 30
0.0
 40
0.9615905227008381
 50
198.4476407211975
 51
274.6496288406134
  0
ARC
  5
E9
  8
1
  6
CONTINUOUS
 62
     7
 10
590.5930753133409
 20
179.5256815929772
 30
0.0
 40
0.9741257443695117
 50
225.0449294361656
 51
264.5171654036526
  0
LINE
  5
EA
  8
1
  6
CONTINUOUS
 62
     7
 10
592.9999999999995
 20
178.516713202222
 30
0.0
 11
602.5047576042854
 21
178.6537058261039
 31
0.0
  0
LINE
  5
EB
  8
1
  6
CONTINUOUS
 62
     7
 10
590.5
 20
178.5560126020891
 30
0.0
 11
592.9999999999995
 21
178.516713202222
 31
0.0
  0
ARC
  5
EC
  8
1
  6
CONTINUOUS
 62
     7
 10
602.4283714487661
 20
179.2202140327043
 30
0.0
 40
0.5716348422730797
 50
277.679264441364
 51
0.2688065708290424
  0
LINE
  5
ED
  8
1
  6
CONTINUOUS
 62
     7
 10
603.0
 20
180.8412904218008
 30
0.0
 11
590.5
 21
180.8412904218009
 31
0.0
  0
ARC
  5
EE
  8
1
  6
CONTINUOUS
 62
     7
 10
602.5690392379884
 20
180.9385386455113
 30
0.0
 40
0.4309607620116562
 50
0.0
 51
3.931925570764633
  0
ARC
  5
EF
  8
1
  6
CONTINUOUS
 62
     7
 10
595.7019074827444
 20
181.8743836873597
 30
0.0
 40
0.7980925172555997
 50
333.9619126979533
 51
0.0
  0
ARC
  5
F0
  8
1
  6
CONTINUOUS
 62
     7
 10
595.4948319519278
 20
181.9755516259083
 30
0.0
 40
1.028559927648336
 50
313.8281072707476
 51
333.9619126980039
  0
ARC
  5
F1
  8
1
  6
CONTINUOUS
 62
     7
 10
595.5816382879252
 20
181.8851196608203
 30
0.0
 40
0.9032073039065428
 50
289.238716934847
 51
313.8281072707462
  0
ARC
  5
F2
  8
1
  6
CONTINUOUS
 62
     7
 10
595.5
 20
182.1190438046905
 30
0.0
 40
1.1509679043675
 50
270.0
 51
289.2387169348538
  0
LINE
  5
F3
  8
1
  6
CONTINUOUS
 62
     7
 10
596.5
 20
182.2747318338477
 30
0.0
 11
596.5
 21
181.8743836873597
 31
0.0
  0
ARC
  5
F4
  8
1
  6
CONTINUOUS
 62
     7
 10
595.5197864909563
 20
182.8230239480762
 30
0.0
 40
1.01912395591293
 50
268.8875213341324
 51
327.4223016023162
  0
ARC
  5
F5
  8
1
  6
CONTINUOUS
 62
     7
 10
583.6897317345129
 20
185.6786411319001
 30
0.0
 40
0.6919147061608633
 50
110.2833064230958
 51
169.4555427892163
  0
ARC
  5
F6
  8
1
  6
CONTINUOUS
 62
     7
 10
602.3239954509058
 20
185.6902130207963
 30
0.0
 40
0.6763597830604484
 50
9.793512775510537
 51
70.46763801217777
  0
LINE
  5
F7
  8
1
  6
CONTINUOUS
 62
     7
 10
584.5093884794787
 20
186.7838057443091
 30
0.0
 11
583.4487283076988
 21
186.3271623828354
 31
0.0
  0
LINE
  5
F8
  8
1
  6
CONTINUOUS
 62
     7
 10
602.551271692301
 20
186.3271623828354
 30
0.0
 11
601.4906115205213
 21
186.7838057443092
 31
0.0
  0
LINE
  5
F9
  8
1
  6
CONTINUOUS
 62
     7
 10
601.4906046572027
 20
186.7838086990073
 30
0.0
 11
601.1158715381955
 21
186.8661867169005
 31
0.0
  0
LINE
  5
FA
  8
1
  6
CONTINUOUS
 62
     7
 10
601.1158763308699
 20
186.8661866750755
 30
0.0
 11
593.0
 21
186.9370128548212
 31
0.0
  0
LINE
  5
FB
  8
1
  6
CONTINUOUS
 62
     7
 10
593.0
 20
186.9370128548212
 30
0.0
 11
584.8841795513963
 21
186.8661871627527
 31
0.0
  0
LINE
  5
FC
  8
1
  6
CONTINUOUS
 62
     7
 10
584.8841281785882
 20
186.8661867144289
 30
0.0
 11
584.5093953427975
 21
186.7838086990073
 31
0.0
  0
ENDBLK
  8
0
  0
BLOCK
  8
0
  2
D_FRAME_VIEW_3647
 70
     0
 10
0.0
 20
0.0
 30
0.0
  0
LINE
  5
102
  8
1
  6
CONTINUOUS
 62
     7
 10
532.2497429708964
 20
160.2525612665718
 30
0.0
 11
532.171125005458
 21
160.2125400810813
 31
0.0
  0
LINE
  5
103
  8
1
  6
CONTINUOUS
 62
     7
 10
532.2502570193168
 20
160.2515536855746
 30
0.0
 11
532.2497429708964
 21
160.2525612665718
 31
0.0
  0
LINE
  5
104
  8
1
  6
CONTINUOUS
 62
     7
 10
545.7497429806832
 20
160.2515536855746
 30
0.0
 11
545.7502570291038
 21
160.2525612665718
 31
0.0
  0
LINE
  5
105
  8
1
  6
CONTINUOUS
 62
     7
 10
545.7502570291038
 20
160.2525612665718
 30
0.0
 11
545.8288749945422
 21
160.2125400810813
 31
0.0
  0
LINE
  5
106
  8
1
  6
CONTINUOUS
 62
     7
 10
528.45670265321
 20
180.8412904218008
 30
0.0
 11
527.4001569988582
 21
183.1070598893925
 31
0.0
  0
ARC
  5
107
  8
1
  6
CONTINUOUS
 62
     7
 10
533.1625621299952
 20
155.0629713728354
 30
0.0
 40
1.000087836405966
 50
180.0012778467688
 51
202.4973664853263
  0
ARC
  5
108
  8
1
  6
CONTINUOUS
 62
     7
 10
533.1623852740283
 20
155.0628981262184
 30
0.0
 40
0.9998964125309276
 50
202.4973664853023
 51
224.9999999999966
  0
ARC
  5
109
  8
1
  6
CONTINUOUS
 62
     7
 10
533.1623852740288
 20
155.0628981262188
 30
0.0
 40
0.9998964125315754
 50
224.9999999999978
 51
247.5026335146766
  0
ARC
  5
10A
  8
1
  6
CONTINUOUS
 62
     7
 10
533.1624585206454
 20
155.0630749821864
 30
0.0
 40
1.000087836407076
 50
247.5026335146963
 51
269.9987221532344
  0
LINE
  5
10B
  8
1
  6
CONTINUOUS
 62
     7
 10
533.1624362160528
 20
154.0629871451788
 30
0.0
 11
544.8375637839472
 21
154.0629871451788
 31
0.0
  0
ARC
  5
10C
  8
1
  6
CONTINUOUS
 62
     7
 10
544.8374378700048
 20
155.0629713728354
 30
0.0
 40
1.000087836405966
 50
337.5026335146737
 51
359.9987221532313
  0
ARC
  5
10D
  8
1
  6
CONTINUOUS
 62
     7
 10
544.8376147259717
 20
155.0628981262184
 30
0.0
 40
0.9998964125309276
 50
315.0000000000034
 51
337.5026335146976
  0
ARC
  5
10E
  8
1
  6
CONTINUOUS
 62
     7
 10
544.8376147259712
 20
155.0628981262188
 30
0.0
 40
0.9998964125315754
 50
292.4973664853234
 51
315.0000000000022
  0
ARC
  5
10F
  8
1
  6
CONTINUOUS
 62
     7
 10
544.8375414793547
 20
155.0630749821864
 30
0.0
 40
1.000087836407076
 50
270.0012778467656
 51
292.4973664853037
  0
LINE
  5
110
  8
1
  6
CONTINUOUS
 62
     7
 10
549.54329734679
 20
180.8412904218008
 30
0.0
 11
550.5998430011418
 21
183.1070598893925
 31
0.0
  0
LINE
  5
111
  8
1
  6
CONTINUOUS
 62
     7
 10
552.5
 20
157.5629871451788
 30
0.0
 11
548.5
 21
157.5629871451788
 31
0.0
  0
LINE
  5
112
  8
1
  6
CONTINUOUS
 62
     7
 10
548.5
 20
153.5629871451788
 30
0.0
 11
548.5
 21
157.5629871451788
 31
0.0
  0
LINE
  5
113
  8
1
  6
CONTINUOUS
 62
     7
 10
552.5
 20
153.5629871451788
 30
0.0
 11
548.5
 21
153.5629871451788
 31
0.0
  0
LINE
  5
114
  8
1
  6
CONTINUOUS
 62
     7
 10
552.5
 20
157.5629871451788
 30
0.0
 11
552.5
 21
153.5629871451788
 31
0.0
  0
LINE
  5
115
  8
1
  6
CONTINUOUS
 62
     7
 10
550.7077045550983
 20
178.5560126020891
 30
0.0
 11
550.785321394162
 21
178.8363307427298
 31
0.0
  0
LINE
  5
116
  8
1
  6
CONTINUOUS
 62
     7
 10
550.7077045550983
 20
178.5560126020891
 30
0.0
 11
550.7277285994803
 21
178.516713202222
 31
0.0
  0
ARC
  5
117
  8
1
  6
CONTINUOUS
 62
     7
 10
551.7226421127273
 20
178.4164072464944
 30
0.0
 40
0.9999570908772359
 50
174.2429631014684
 51
214.8333999884217
  0
ARC
  5
118
  8
1
  6
CONTINUOUS
 62
     7
 10
526.2773578872728
 20
178.4164072464944
 30
0.0
 40
0.9999570908772359
 50
325.1666000115783
 51
5.757036898531624
  0
LINE
  5
119
  8
1
  6
CONTINUOUS
 62
     7
 10
527.2922954449017
 20
178.5560126020891
 30
0.0
 11
527.2722714005197
 21
178.516713202222
 31
0.0
  0
LINE
  5
11A
  8
1
  6
CONTINUOUS
 62
     7
 10
527.2922954449017
 20
178.5560126020891
 30
0.0
 11
527.214678605838
 21
178.8363307427298
 31
0.0
  0
ARC
  5
11B
  8
1
  6
CONTINUOUS
 62
     7
 10
526.0386654724504
 20
161.0629078270375
 30
0.0
 40
0.9999206847747389
 50
269.9956243014581
 51
33.26106760661298
  0
ARC
  5
11C
  8
1
  6
CONTINUOUS
 62
     7
 10
551.9613345275496
 20
161.0629078270375
 30
0.0
 40
0.9999206847747389
 50
146.738932393387
 51
270.0043756985419
  0
LINE
  5
11D
  8
1
  6
CONTINUOUS
 62
     7
 10
551.8887596832319
 20
185.8713308226457
 30
0.0
 11
552.079011766628
 21
185.6911984181461
 31
0.0
  0
LINE
  5
11E
  8
1
  6
CONTINUOUS
 62
     7
 10
552.8861302408134
 20
183.4736586354971
 30
0.0
 11
552.079011766628
 21
185.6911984181461
 31
0.0
  0
LINE
  5
11F
  8
1
  6
CONTINUOUS
 62
     7
 10
552.8861302408134
 20
183.4736586354971
 30
0.0
 11
552.8561755672513
 21
183.2133775260805
 31
0.0
  0
LINE
  5
120
  8
1
  6
CONTINUOUS
 62
     7
 10
525.1138697591867
 20
183.4736586354971
 30
0.0
 11
525.9209882333721
 21
185.6911984181461
 31
0.0
  0
LINE
  5
121
  8
1
  6
CONTINUOUS
 62
     7
 10
526.1112403167681
 20
185.8713308226457
 30
0.0
 11
525.9209882333721
 21
185.6911984181461
 31
0.0
  0
LINE
  5
122
  8
1
  6
CONTINUOUS
 62
     7
 10
525.1138697591867
 20
183.4736586354971
 30
0.0
 11
525.1438244327487
 21
183.2133775260805
 31
0.0
  0
LINE
  5
123
  8
1
  6
CONTINUOUS
 62
     7
 10
526.1112403167681
 20
185.8713308226457
 30
0.0
 11
528.1956792107335
 21
186.8433206418578
 31
0.0
  0
LINE
  5
124
  8
1
  6
CONTINUOUS
 62
     7
 10
551.8887596832319
 20
185.8713308226457
 30
0.0
 11
549.8043207892665
 21
186.8433206418578
 31
0.0
  0
ARC
  5
125
  8
1
  6
CONTINUOUS
 62
     7
 10
539.0
 20
169.5629871451788
 30
0.0
 40
14.49999999999998
 50
326.7433080919294
 51
34.83323759602058
  0
LINE
  5
126
  8
1
  6
CONTINUOUS
 62
     7
 10
555.0
 20
160.0629871451788
 30
0.0
 11
551.9614108918389
 21
160.0629871451788
 31
0.0
  0
ARC
  5
127
  8
1
  6
CONTINUOUS
 62
     7
 10
539.0
 20
169.5629871451788
 30
0.0
 40
14.49999999999998
 50
145.1667624039794
 51
213.2566919080707
  0
LINE
  5
128
  8
1
  6
CONTINUOUS
 62
     7
 10
523.0
 20
160.0629871451788
 30
0.0
 11
526.0385891081611
 21
160.0629871451788
 31
0.0
  0
LINE
  5
129
  8
1
  6
CONTINUOUS
 62
     7
 10
525.607314495373
 20
182.2710437001515
 30
0.0
 11
525.5875414247851
 21
182.261823365911
 31
0.0
  0
LINE
  5
12A
  8
1
  6
CONTINUOUS
 62
     7
 10
552.392685504627
 20
182.2710437001515
 30
0.0
 11
552.412458575215
 21
182.261823365911
 31
0.0
  0
ARC
  5
12B
  8
1
  6
CONTINUOUS
 62
     7
 10
548.4490431021854
 20
179.2047276211655
 30
0.0
 40
1.999910183174395
 50
154.9997229613908
 51
225.5785449632666
  0
ARC
  5
12C
  8
1
  6
CONTINUOUS
 62
     7
 10
529.5509568978146
 20
179.2047276211655
 30
0.0
 40
1.999910183174395
 50
314.4214550367334
 51
25.00027703860917
  0
LINE
  5
12D
  8
1
  6
CONTINUOUS
 62
     7
 10
548.7389149178393
 20
185.1709684117022
 30
0.0
 11
548.9441759077395
 21
184.998733990782
 31
0.0
  0
LINE
  5
12E
  8
1
  6
CONTINUOUS
 62
     7
 10
529.2610850821608
 20
185.1709684117022
 30
0.0
 11
529.0558240922605
 21
184.998733990782
 31
0.0
  0
ARC
  5
12F
  8
1
  6
CONTINUOUS
 62
     7
 10
528.6182974724741
 20
185.9370128548212
 30
0.0
 40
0.9999999999999422
 50
310.0000000000001
 51
115.0000000000003
  0
ARC
  5
130
  8
1
  6
CONTINUOUS
 62
     7
 10
549.3817025275259
 20
185.9370128548212
 30
0.0
 40
0.9999999999999422
 50
64.99999999999972
 51
229.9999999999999
  0
LINE
  5
131
  8
1
  6
CONTINUOUS
 62
     7
 10
559.0
 20
158.2629871451788
 30
0.0
 11
559.0
 21
151.0629871451788
 31
0.0
  0
LINE
  5
132
  8
1
  6
CONTINUOUS
 62
     7
 10
529.0373931294598
 20
175.3149009037156
 30
0.0
 11
529.2234975579198
 21
175.2074534618469
 31
0.0
  0
ARC
  5
133
  8
1
  6
CONTINUOUS
 62
     7
 10
528.9734968745007
 20
174.7744405605229
 30
0.0
 40
0.5000005144227961
 50
332.5360958755989
 51
59.9999436046819
  0
ARC
  5
134
  8
1
  6
CONTINUOUS
 62
     7
 10
539.0
 20
169.5629871451788
 30
0.0
 40
10.79999999999995
 50
152.5360394802798
 51
207.4639605197202
  0
ARC
  5
135
  8
1
  6
CONTINUOUS
 62
     7
 10
528.9734969988565
 20
164.3515336935459
 30
0.0
 40
0.5000004208177197
 50
300.0000461335581
 51
27.46391438615598
  0
LINE
  5
136
  8
1
  6
CONTINUOUS
 62
     7
 10
529.0373931294598
 20
163.811073386642
 30
0.0
 11
529.2234975579198
 21
163.9185208285108
 31
0.0
  0
LINE
  5
137
  8
1
  6
CONTINUOUS
 62
     7
 10
548.9626068705402
 20
163.811073386642
 30
0.0
 11
548.7765024420802
 21
163.9185208285108
 31
0.0
  0
ARC
  5
138
  8
1
  6
CONTINUOUS
 62
     7
 10
549.0265030011435
 20
164.3515336935459
 30
0.0
 40
0.5000004208177197
 50
152.536085613844
 51
239.9999538664419
  0
ARC
  5
139
  8
1
  6
CONTINUOUS
 62
     7
 10
539.0
 20
169.5629871451788
 30
0.0
 40
10.79999999999995
 50
332.5360394802797
 51
27.46396051972022
  0
ARC
  5
13A
  8
1
  6
CONTINUOUS
 62
     7
 10
549.0265031254994
 20
174.7744405605229
 30
0.0
 40
0.5000005144227961
 50
120.0000563953181
 51
207.4639041244011
  0
LINE
  5
13B
  8
1
  6
CONTINUOUS
 62
     7
 10
548.9626068705402
 20
175.3149009037156
 30
0.0
 11
548.7765024420802
 21
175.2074534618469
 31
0.0
  0
LINE
  5
13C
  8
1
  6
CONTINUOUS
 62
     7
 10
532.2502570193168
 20
160.2515536855746
 30
0.0
 11
532.3289268377516
 21
160.1846185040172
 31
0.0
  0
ARC
  5
13D
  8
1
  6
CONTINUOUS
 62
     7
 10
538.9998807823129
 20
169.2984465008179
 30
0.0
 40
11.29440070502742
 50
233.7973792763928
 51
306.2263171498529
  0
LINE
  5
13E
  8
1
  6
CONTINUOUS
 62
     7
 10
545.6746034592252
 20
160.1873782609222
 30
0.0
 11
545.7497429806832
 21
160.2515536855746
 31
0.0
  0
LINE
  5
13F
  8
1
  6
CONTINUOUS
 62
     7
 10
519.0
 20
151.0629871451788
 30
0.0
 11
519.0
 21
158.2629871451788
 31
0.0
  0
LINE
  5
140
  8
1
  6
CONTINUOUS
 62
     7
 10
525.1139028451462
 20
183.4738051968216
 30
0.0
 11
525.1138697591867
 21
183.4736586354971
 31
0.0
  0
LINE
  5
141
  8
1
  6
CONTINUOUS
 62
     7
 10
525.9209882333721
 20
185.6911984181461
 30
0.0
 11
525.920919370884
 21
185.6910648784132
 31
0.0
  0
LINE
  5
142
  8
1
  6
CONTINUOUS
 62
     7
 10
552.8860971548539
 20
183.4738051968216
 30
0.0
 11
552.8861302408134
 21
183.4736586354971
 31
0.0
  0
LINE
  5
143
  8
1
  6
CONTINUOUS
 62
     7
 10
552.079011766628
 20
185.6911984181461
 30
0.0
 11
552.079080629116
 21
185.6910648784132
 31
0.0
  0
ENDBLK
  8
0
  0
ENDSEC
  0
SECTION
  2
ENTITIES
  0
LINE
  5
70
  8
1
  6
CENTER
 62
     1
 10
593.0
 20
187.3254520147023
 30
0.0
 11
593.0
 21
149.0629871451788
 31
0.0
  0
ARC
  5
72
  8
1
  6
CONTINUOUS
 62
     7
 10
539.0
 20
169.5629871451788
 30
0.0
 40
11.50000000000002
 50
305.9429116164637
 51
45.57826792465271
  0
ARC
  5
73
  8
1
  6
CONTINUOUS
 62
     7
 10
539.0
 20
169.5629871451788
 30
0.0
 40
11.50000000000004
 50
134.4217320753473
 51
234.0570883835365
  0
INSERT
  5
C9
  8
1
  6
CONTINUOUS
 62
     7
  2
D_FRAME_VIEW_4463
 10
0.0
 20
0.0
 30
0.0
  0
INSERT
  5
FD
  8
1
  6
CONTINUOUS
 62
     7
  2
D_FRAME_VIEW_4112
 10
0.0
 20
0.0
 30
0.0
  0
TEXT
  5
FE
  8
1
  6
CONTINUOUS
 62
     7
 10
556.8083968988371
 20
123.6568400650244
 30
0.0
 40
6.0
  1
LSY-P16
  0
INSERT
  5
144
  8
1
  6
CONTINUOUS
 62
     7
  2
D_FRAME_VIEW_3647
 10
0.0
 20
0.0
 30
0.0
  0
LINE
  5
145
  8
1
  6
CENTER
 62
     1
 10
522.5000000000001
 20
169.5629871451788
 30
0.0
 11
555.5
 21
169.5629871451788
 31
0.0
  0
LINE
  5
146
  8
1
  6
CENTER
 62
     1
 10
539.0
 20
153.0629871451788
 30
0.0
 11
539.0
 21
186.0629871451788
 31
0.0
  0
LINE
  5
147
  8
1
  6
CENTER
 62
     1
 10
539.0
 20
208.4956367322508
 30
0.0
 11
539.0
 21
231.5043632677492
 31
0.0
  0
LINE
  5
148
  8
1
  6
CENTER
 62
     1
 10
557.0
 20
220.0
 30
0.0
 11
521.0
 21
220.0
 31
0.0
  0
LINE
  5
149
  8
1
  6
CONTINUOUS
 62
     7
 10
599.3967398782086
 20
152.1775359550497
 30
0.0
 11
600.5309129869617
 21
151.0629871451789
 31
0.0
  0
LINE
  5
14A
  8
1
  6
CONTINUOUS
 62
     7
 10
519.0
 20
158.2629871451788
 30
0.0
 11
523.0
 21
158.2629871451788
 31
0.0
  0
LINE
  5
14B
  8
1
  6
CONTINUOUS
 62
     7
 10
595.4690870130385
 20
151.0629871451788
 30
0.0
 11
596.6032601217912
 21
152.1775359550497
 31
0.0
  0
LINE
  5
14C
  8
1
  6
CONTINUOUS
 62
     7
 10
603.0
 20
151.0629871451788
 30
0.0
 11
583.0
 21
151.0629871451788
 31
0.0
  0
LINE
  5
14D
  8
1
  6
CONTINUOUS
 62
     7
 10
559.0
 20
151.0629871451788
 30
0.0
 11
519.0
 21
151.0629871451788
 31
0.0
  0
LINE
  5
14E
  8
1
  6
CONTINUOUS
 62
     7
 10
555.0
 20
158.2629871451788
 30
0.0
 11
559.0
 21
158.2629871451788
 31
0.0
  0
LINE
  5
14F
  8
1
  6
CONTINUOUS
 62
     7
 10
586.55
 20
158.2629871451788
 30
0.0
 11
589.4499999999999
 21
158.2629871451788
 31
0.0
  0
LINE
  5
150
  8
1
  6
CONTINUOUS
 62
     7
 10
531.5508089776008
 20
220.0000006211646
 30
0.0
 11
531.4620288503862
 21
228.4433025073222
 31
0.0
  0
LINE
  5
151
  8
1
  6
CONTINUOUS
 62
     7
 10
546.5379731744365
 20
228.4434950750624
 30
0.0
 11
546.4491910223993
 21
220.0000006211646
 31
0.0
  0
LINE
  5
152
  8
1
  6
CONTINUOUS
 62
     7
 10
529.3257214309823
 20
228.5276341797453
 30
0.0
 11
528.3698897021263
 21
229.6757212603918
 31
0.0
  0
LINE
  5
153
  8
1
  6
CONTINUOUS
 62
     7
 10
549.6299006174826
 20
229.6758809227513
 30
0.0
 11
548.7243276712176
 21
228.4866157128253
 31
0.0
  0
LINE
  5
154
  8
1
  6
CONTINUOUS
 62
     7
 10
552.8860971548539
 20
229.5043632677492
 30
0.0
 11
552.915949628092
 21
220.0001877494316
 31
0.0
  0
LINE
  5
155
  8
1
  6
CONTINUOUS
 62
     7
 10
555.0
 20
230.0
 30
0.0
 11
555.0
 21
210.0
 31
0.0
  0
LINE
  5
156
  8
1
  6
CONTINUOUS
 62
     7
 10
525.1139028451462
 20
229.5043632677492
 30
0.0
 11
525.0840503719081
 21
220.0001877494316
 31
0.0
  0
LINE
  5
157
  8
1
  6
CONTINUOUS
 62
     7
 10
523.0
 20
210.0
 30
0.0
 11
555.0
 21
210.0
 31
0.0
  0
LINE
  5
158
  8
1
  6
CONTINUOUS
 62
     7
 10
552.8561755673323
 20
219.9999999999991
 30
0.0
 11
552.7459290690342
 21
210.4938296425122
 31
0.0
  0
LINE
  5
159
  8
1
  6
CONTINUOUS
 62
     7
 10
523.0
 20
230.0
 30
0.0
 11
523.0
 21
210.0
 31
0.0
  0
LINE
  5
15A
  8
1
  6
CONTINUOUS
 62
     7
 10
525.1438244327487
 20
220.0
 30
0.0
 11
525.2540709309659
 21
210.4938296425122
 31
0.0
  0
LINE
  5
15B
  8
1
  6
CONTINUOUS
 62
     7
 10
551.7785131850148
 20
210.4938296425122
 30
0.0
 11
551.9989959954248
 21
229.5052920382319
 31
0.0
  0
LINE
  5
15C
  8
1
  6
CONTINUOUS
 62
     7
 10
545.7502570291038
 20
220.0
 30
0.0
 11
545.8375257070114
 21
210.0
 31
0.0
  0
LINE
  5
15D
  8
1
  6
CONTINUOUS
 62
     7
 10
526.2214868149853
 20
210.4938296425122
 30
0.0
 11
526.0010040045753
 21
229.5052920382319
 31
0.0
  0
LINE
  5
15E
  8
1
  6
CONTINUOUS
 62
     7
 10
523.0
 20
230.0
 30
0.0
 11
555.0
 21
230.0
 31
0.0
  0
LINE
  5
15F
  8
1
  6
CONTINUOUS
 62
     7
 10
548.6742544625234
 20
211.4723442507176
 30
0.0
 11
549.6301102978737
 21
210.3242787396082
 31
0.0
  0
LINE
  5
160
  8
1
  6
CONTINUOUS
 62
     7
 10
528.3701005816588
 20
210.3241181646589
 30
0.0
 11
529.2756717202845
 21
211.5133847287067
 31
0.0
  0
LINE
  5
161
  8
1
  6
CONTINUOUS
 62
     7
 10
532.2497429708964
 20
220.0
 30
0.0
 11
532.1624742929887
 21
210.0
 31
0.0
  0
LINE
  5
162
  8
1
  6
CONTINUOUS
 62
     7
 10
528.4567026532098
 20
180.841290421801
 30
0.0
 11
530.5412105633943
 21
181.8133124238044
 31
0.0
  0
LINE
  5
163
  8
1
  6
CONTINUOUS
 62
     7
 10
527.1901980001575
 20
178.8249152488247
 30
0.0
 11
525.1438244327487
 21
183.2133775260805
 31
0.0
  0
LINE
  5
164
  8
1
  6
CONTINUOUS
 62
     7
 10
546.6641953153792
 20
180.0370264825001
 30
0.0
 11
548.9718582065628
 21
184.9858255228453
 31
0.0
  0
LINE
  5
165
  8
1
  6
CONTINUOUS
 62
     7
 10
550.3279506650308
 20
183.2338453679147
 30
0.0
 11
548.8229760264194
 21
184.7388200065261
 31
0.0
  0
LINE
  5
166
  8
1
  6
CONTINUOUS
 62
     7
 10
552.8164699740739
 20
183.231725810581
 30
0.0
 11
550.785321394162
 21
178.8363307427298
 31
0.0
  0
LINE
  5
167
  8
1
  6
CONTINUOUS
 62
     7
 10
531.3358046846207
 20
180.0370264825001
 30
0.0
 11
529.0281417934373
 21
184.9858255228453
 31
0.0
  0
LINE
  5
168
  8
1
  6
CONTINUOUS
 62
     7
 10
550.5998430011418
 20
183.1070598893925
 30
0.0
 11
550.3279506650308
 21
183.2338453679147
 31
0.0
  0
LINE
  5
169
  8
1
  6
CONTINUOUS
 62
     7
 10
545.8375257070114
 20
160.2125400810813
 30
0.0
 11
545.8375257070114
 21
155.062949068243
 31
0.0
  0
LINE
  5
16A
  8
1
  6
CONTINUOUS
 62
     7
 10
532.1624742929887
 20
160.2125400810813
 30
0.0
 11
532.1624742929887
 21
155.062949068243
 31
0.0
  0
LINE
  5
16B
  8
1
  6
CONTINUOUS
 62
     7
 10
527.4001569988582
 20
183.1070598893925
 30
0.0
 11
527.6720493349692
 21
183.2338453679147
 31
0.0
  0
LINE
  5
16C
  8
1
  6
CONTINUOUS
 62
     7
 10
583.0
 20
183.1968602673481
 30
0.0
 11
583.4956324560869
 21
183.1731692498905
 31
0.0
  0
LINE
  5
16D
  8
1
  6
CONTINUOUS
 62
     7
 10
523.0
 20
151.0629871451788
 30
0.0
 11
523.0
 21
160.0629871451788
 31
0.0
  0
LINE
  5
16E
  8
1
  6
CONTINUOUS
 62
     7
 10
583.4938296425122
 20
185.8312043788626
 30
0.0
 11
593.0
 21
185.8713308226457
 31
0.0
  0
LINE
  5
16F
  8
1
  6
CONTINUOUS
 62
     7
 10
555.0
 20
151.0629871451788
 30
0.0
 11
555.0
 21
160.0629871451788
 31
0.0
  0
LINE
  5
170
  8
1
  6
CONTINUOUS
 62
     7
 10
603.0
 20
151.0629871451788
 30
0.0
 11
603.0
 21
185.7173393472761
 31
0.0
  0
LINE
  5
171
  8
1
  6
CONTINUOUS
 62
     7
 10
527.6720493349692
 20
183.2338453679147
 30
0.0
 11
529.1770239735806
 21
184.7388200065261
 31
0.0
  0
LINE
  5
172
  8
1
  6
CONTINUOUS
 62
     7
 10
593.0
 20
185.8713308226457
 30
0.0
 11
602.504362009845
 21
185.6909985809124
 31
0.0
  0
LINE
  5
173
  8
1
  6
CONTINUOUS
 62
     7
 10
583.0
 20
151.0629871451788
 30
0.0
 11
583.0
 21
185.7173393472761
 31
0.0
  0
LINE
  5
174
  8
1
  6
CONTINUOUS
 62
     7
 10
590.5
 20
182.2710437001515
 30
0.0
 11
602.5041047082918
 21
182.2267709570844
 31
0.0
  0
LINE
  5
175
  8
1
  6
CONTINUOUS
 62
     7
 10
589.6215283463408
 20
181.8257726789518
 30
0.0
 11
595.5
 21
181.804092089564
 31
0.0
  0
LINE
  5
176
  8
1
  6
CONTINUOUS
 62
     7
 10
602.4938465177985
 20
183.473304314451
 30
0.0
 11
603.0
 21
183.4974109402858
 31
0.0
  0
LINE
  5
177
  8
1
  6
CONTINUOUS
 62
     7
 10
549.5432973467902
 20
180.841290421801
 30
0.0
 11
547.4587894366058
 21
181.8133124238044
 31
0.0
  0
ENDSEC
  0
EOF
