  0
SECTION
  2
HEADER
  9
$ACADVER
  1
AC1006
  9
$DWGCODEPAGE
  3
ansi_932
  9
$INSBASE
 10
0.0
 20
0.0
 30
0.0
  9
$EXTMIN
 10
653.2499999999999
 20
124.3409090909091
  9
$EXTMAX
 10
747.3
 20
234.5043632677492
  9
$LIMMIN
 10
0.0
 20
0.0
  9
$LIMMAX
 10
12.0
 20
9.0
  9
$ORTHOMODE
 70
     0
  9
$REGENMODE
 70
     1
  9
$FILLMODE
 70
     1
  9
$QTEXTMODE
 70
     0
  9
$MIRRTEXT
 70
     1
  9
$DRAGMODE
 70
     2
  9
$LTSCALE
 40
1.0
  9
$OSMODE
 70
    37
  9
$ATTMODE
 70
     1
  9
$TEXTSIZE
 40
0.2
  9
$TRACEWID
 40
0.05
  9
$TEXTSTYLE
  7
STANDARD
  9
$CLAYER
  8
0
  9
$CELTYPE
  6
BYLAYER
  9
$CECOLOR
 62
   256
  9
$DIMSCALE
 40
1.0
  9
$DIMASZ
 40
3.0
  9
$DIMEXO
 40
0.0625
  9
$DIMDLI
 40
0.38
  9
$DIMRND
 40
0.0
  9
$DIMDLE
 40
0.0
  9
$DIMEXE
 40
1.5
  9
$DIMTP
 40
0.0
  9
$DIMTM
 40
0.0
  9
$DIMTXT
 40
3.0
  9
$DIMCEN
 40
0.09
  9
$DIMTSZ
 40
0.0
  9
$DIMTOL
 70
     0
  9
$DIMLIM
 70
     0
  9
$DIMTIH
 70
     1
  9
$DIMTOH
 70
     1
  9
$DIMSE1
 70
     0
  9
$DIMSE2
 70
     0
  9
$DIMTAD
 70
     1
  9
$DIMZIN
 70
     0
  9
$DIMBLK
  1

  9
$DIMASO
 70
     1
  9
$DIMSHO
 70
     1
  9
$DIMPOST
  1

  9
$DIMAPOST
  1

  9
$DIMALT
 70
     0
  9
$DIMALTD
 70
     2
  9
$DIMALTF
 40
25.4
  9
$DIMLFAC
 40
1.0
  9
$DIMTOFL
 70
     0
  9
$DIMTVP
 40
0.0
  9
$DIMTIX
 70
     0
  9
$DIMSOXD
 70
     0
  9
$DIMSAH
 70
     0
  9
$DIMBLK1
  1

  9
$DIMBLK2
  1

  9
$LUNITS
 70
     2
  9
$LUPREC
 70
     4
  9
$SKETCHINC
 40
0.1
  9
$FILLETRAD
 40
0.5
  9
$AUNITS
 70
     0
  9
$AUPREC
 70
     0
  9
$MENU
  1
.
  9
$ELEVATION
 40
0.0
  9
$THICKNESS
 40
0.0
  9
$LIMCHECK
 70
     0
  9
$CHAMFERA
 40
0.0
  9
$CHAMFERB
 40
0.0
  9
$SKPOLY
 70
     0
  9
$TDCREATE
 40
2459748.696847292
  9
$TDUPDATE
 40
2459748.6968475
  9
$TDINDWG
 40
0.0000000116
  9
$TDUSRTIMER
 40
0.0000000116
  9
$USRTIMER
 70
     1
  9
$ANGBASE
 50
0.0
  9
$ANGDIR
 70
     0
  9
$PDMODE
 70
     0
  9
$PDSIZE
 40
0.0
  9
$PLINEWID
 40
0.0
  9
$COORDS
 70
     1
  9
$SPLFRAME
 70
     0
  9
$SPLINETYPE
 70
     6
  9
$SPLINESEGS
 70
     8
  9
$ATTDIA
 70
     0
  9
$ATTREQ
 70
     1
  9
$HANDLING
 70
     1
  9
$HANDSEED
  5
17F
  9
$SURFTAB1
 70
     6
  9
$SURFTAB2
 70
     6
  9
$SURFTYPE
 70
     6
  9
$SURFU
 70
     6
  9
$SURFV
 70
     6
  9
$UCSNAME
  2

  9
$UCSORG
 10
0.0
 20
0.0
 30
0.0
  9
$UCSXDIR
 10
1.0
 20
0.0
 30
0.0
  9
$UCSYDIR
 10
0.0
 20
1.0
 30
0.0
  9
$USERI1
 70
     0
  9
$USERI2
 70
     0
  9
$USERI3
 70
     0
  9
$USERI4
 70
     0
  9
$USERI5
 70
     0
  9
$USERR1
 40
0.0
  9
$USERR2
 40
0.0
  9
$USERR3
 40
0.0
  9
$USERR4
 40
0.0
  9
$USERR5
 40
0.0
  9
$WORLDVIEW
 70
     1
  0
ENDSEC
  0
SECTION
  2
TABLES
  0
TABLE
  2
VPORT
 70
     1
  0
VPORT
  2
*ACTIVE
 70
     0
 10
0.0
 20
0.0
 11
1.0
 21
1.0
 12
700.2749999999999
 22
179.4226361793291
 13
0.0
 23
0.0
 14
0.5
 24
0.5
 15
0.5
 25
0.5
 16
0.0
 26
0.0
 36
1.0
 17
0.0
 27
0.0
 37
0.0
 40
110.1634541768401
 41
1.6
 42
50.0
 43
0.0
 44
0.0
 50
0.0
 51
0.0
 71
     0
 72
   100
 73
     1
 74
     3
 75
     0
 76
     0
 77
     0
 78
     0
  0
ENDTAB
  0
TABLE
  2
LTYPE
 70
     2
  0
LTYPE
  2
CONTINUOUS
 70
     0
  3
Solid line
 72
    65
 73
     0
 40
0.0
  0
LTYPE
  2
CENTER
 70
     0
  3

 72
    65
 73
     0
 40
0.0
  0
ENDTAB
  0
TABLE
  2
LAYER
 70
     2
  0
LAYER
  2
0
 70
     0
 62
     7
  6
CONTINUOUS
  0
LAYER
  2
1
 70
     0
 62
     7
  6
CONTINUOUS
  0
ENDTAB
  0
TABLE
  2
STYLE
 70
     2
  0
STYLE
  2
STANDARD
 70
     0
 40
0.0
 41
1.0
 50
0.0
 71
     0
 42
0.2
  3
txt
  4

  0
STYLE
  2
ＭＳ_ゴシック
 70
     0
 40
0.0
 41
1.0
 50
0.0
 71
     0
 42
0.2
  3
ＭＳ ゴシック.shx
  4

  0
ENDTAB
  0
TABLE
  2
VIEW
 70
     0
  0
ENDTAB
  0
TABLE
  2
UCS
 70
     0
  0
ENDTAB
  0
ENDSEC
  0
SECTION
  2
BLOCKS
  0
BLOCK
  8
0
  2
D_FRAME_VIEW_4917
 70
     0
 10
0.0
 20
0.0
 30
0.0
  0
LINE
  5
72
  8
1
  6
CONTINUOUS
 62
     7
 10
730.6756764674831
 20
147.6754496321327
 30
0.0
 11
730.5500000000001
 21
154.8754496321328
 31
0.0
  0
LINE
  5
73
  8
1
  6
CONTINUOUS
 62
     7
 10
733.4499999999999
 20
154.8754496321328
 30
0.0
 11
733.3243235325168
 21
147.6754496321327
 31
0.0
  0
ARC
  5
74
  8
1
  6
CONTINUOUS
 62
     7
 10
727.5
 20
156.0925253489277
 30
0.0
 40
0.5000000000000018
 50
90.5000000000001
 51
180.0
  0
LINE
  5
75
  8
1
  6
CONTINUOUS
 62
     7
 10
727.4956367322508
 20
156.5925063104598
 30
0.0
 11
737.0
 21
156.6754496321328
 31
0.0
  0
LINE
  5
76
  8
1
  6
CONTINUOUS
 62
     7
 10
737.0
 20
156.6754496321328
 30
0.0
 11
746.5043632677491
 21
156.5925063104598
 31
0.0
  0
ARC
  5
77
  8
1
  6
CONTINUOUS
 62
     7
 10
746.4999999999999
 20
156.0925253489277
 30
0.0
 40
0.500000000000056
 50
0.0000000000000035
 51
89.49999999999991
  0
LINE
  5
78
  8
1
  6
CONTINUOUS
 62
     7
 10
743.6
 20
155.1754496321327
 30
0.0
 11
743.7169510618118
 21
148.4753277882579
 31
0.0
  0
LINE
  5
79
  8
1
  6
CONTINUOUS
 62
     7
 10
740.2830489381881
 20
148.4753277882579
 30
0.0
 11
740.4
 21
155.1754496321327
 31
0.0
  0
LINE
  5
7A
  8
1
  6
CONTINUOUS
 62
     7
 10
740.4
 20
155.1754496321327
 30
0.0
 11
743.6
 21
155.1754496321327
 31
0.0
  0
LINE
  5
7B
  8
1
  6
CONTINUOUS
 62
     7
 10
740.6032601217912
 20
148.7899984420037
 30
0.0
 11
740.714718586911
 21
155.1754496321327
 31
0.0
  0
LINE
  5
7C
  8
1
  6
CONTINUOUS
 62
     7
 10
743.285281413089
 20
155.1754496321327
 30
0.0
 11
743.3967398782087
 21
148.7899984420037
 31
0.0
  0
ARC
  5
7D
  8
1
  6
CONTINUOUS
 62
     7
 10
734.4532935601624
 20
184.8863351926616
 30
0.0
 40
0.9546508224044714
 50
87.19567555234205
 51
176.9443844865702
  0
LINE
  5
7E
  8
1
  6
CONTINUOUS
 62
     7
 10
733.5
 20
183.3675380353947
 30
0.0
 11
733.5
 21
184.9372231172644
 31
0.0
  0
ARC
  5
7F
  8
1
  6
CONTINUOUS
 62
     7
 10
734.8639422338506
 20
183.3700722813076
 30
0.0
 40
1.363984578734627
 50
180.1064571683139
 51
181.9171729016567
  0
ARC
  5
80
  8
1
  6
CONTINUOUS
 62
     7
 10
734.8639422338491
 20
183.3700722813075
 30
0.0
 40
1.363984578733072
 50
181.9171729016566
 51
200.2669279317971
  0
ARC
  5
81
  8
1
  6
CONTINUOUS
 62
     7
 10
734.522006192207
 20
183.2438106291591
 30
0.0
 40
0.9994818196528189
 50
200.266927931773
 51
225.4028906795288
  0
ARC
  5
82
  8
1
  6
CONTINUOUS
 62
     7
 10
734.6510020774565
 20
183.374633530178
 30
0.0
 40
1.183205987475957
 50
225.4028906795275
 51
237.8625667593228
  0
LINE
  5
83
  8
1
  6
CONTINUOUS
 62
     7
 10
737.0
 20
186.6009150338706
 30
0.0
 11
727.4956367322508
 21
186.5607962232402
 31
0.0
  0
LINE
  5
84
  8
1
  6
CONTINUOUS
 62
     7
 10
746.4999999999999
 20
186.5257773656362
 30
0.0
 11
737.0
 21
186.6009150338706
 31
0.0
  0
ARC
  5
85
  8
1
  6
CONTINUOUS
 62
     7
 10
746.892259809497
 20
186.0419315672348
 30
0.0
 40
0.1077401905029696
 50
299.8534178677091
 51
0.0
  0
ARC
  5
86
  8
1
  6
CONTINUOUS
 62
     7
 10
748.0693570286214
 20
183.9910400741938
 30
0.0
 40
2.256940290978266
 50
119.8534178676815
 51
122.5948817532356
  0
ARC
  5
87
  8
1
  6
CONTINUOUS
 62
     7
 10
746.6587461269376
 20
186.1971850356605
 30
0.0
 40
0.3616277732420031
 50
273.5610781358153
 51
302.5948817532289
  0
ARC
  5
88
  8
1
  6
CONTINUOUS
 62
     7
 10
746.5000000000002
 20
188.7480328298721
 30
0.0
 40
2.917410393507652
 50
269.9999999999933
 51
273.5610781358375
  0
ARC
  5
89
  8
1
  6
CONTINUOUS
 62
     7
 10
746.5579852130817
 20
188.7375989945194
 30
0.0
 40
0.4492773654964012
 50
10.31602903656903
 51
96.85468049869972
  0
ARC
  5
8A
  8
1
  6
CONTINUOUS
 62
     7
 10
727.4512914434351
 20
188.7598781098968
 30
0.0
 40
0.460826960433206
 50
84.70357588995395
 51
168.324041430126
  0
ARC
  5
8B
  8
1
  6
CONTINUOUS
 62
     7
 10
746.6009537413707
 20
189.1048768603222
 30
0.0
 40
0.3990462586291876
 50
0.0
 51
12.71866098527065
  0
ARC
  5
8C
  8
1
  6
CONTINUOUS
 62
     7
 10
734.423486923107
 20
185.3693751894557
 30
0.0
 40
0.9623322190339622
 50
198.3665493303635
 51
274.5602841478034
  0
LINE
  5
8D
  8
1
  6
CONTINUOUS
 62
     7
 10
734.5
 20
182.2066674963756
 30
0.0
 11
734.018556619831
 21
182.3678908057092
 31
0.0
  0
ARC
  5
8E
  8
1
  6
CONTINUOUS
 62
     7
 10
727.3990462586283
 20
189.1048768603222
 30
0.0
 40
0.3990462586282995
 50
167.2813259232904
 51
180.0
  0
ARC
  5
8F
  8
1
  6
CONTINUOUS
 62
     7
 10
746.4614338737146
 20
182.7303905852562
 30
0.0
 40
0.538581674190519
 50
274.1591959403503
 51
359.564639694188
  0
LINE
  5
90
  8
1
  6
CONTINUOUS
 62
     7
 10
747.0
 20
184.4100894922542
 30
0.0
 11
734.5
 21
184.4100894922543
 31
0.0
  0
ARC
  5
91
  8
1
  6
CONTINUOUS
 62
     7
 10
746.5690392379884
 20
184.5073377159647
 30
0.0
 40
0.4309607620116562
 50
0.0
 51
3.931925570768328
  0
ARC
  5
92
  8
1
  6
CONTINUOUS
 62
     7
 10
739.7019074827433
 20
185.4431827578131
 30
0.0
 40
0.7980925172567099
 50
333.9619126979917
 51
0.0
  0
ARC
  5
93
  8
1
  6
CONTINUOUS
 62
     7
 10
739.4948319519267
 20
185.544350696363
 30
0.0
 40
1.028559927650103
 50
313.8281072707475
 51
333.9619126979726
  0
ARC
  5
94
  8
1
  6
CONTINUOUS
 62
     7
 10
739.5816382879252
 20
185.4539187312737
 30
0.0
 40
0.9032073039065428
 50
289.238716934847
 51
313.8281072707462
  0
ARC
  5
95
  8
1
  6
CONTINUOUS
 62
     7
 10
739.5
 20
185.687842875144
 30
0.0
 40
1.1509679043675
 50
270.0
 51
289.2387169348538
  0
LINE
  5
96
  8
1
  6
CONTINUOUS
 62
     7
 10
740.5
 20
185.8306224363645
 30
0.0
 11
740.5
 21
185.4431827578131
 31
0.0
  0
ARC
  5
97
  8
1
  6
CONTINUOUS
 62
     7
 10
734.2980925172566
 20
185.3163972792909
 30
0.0
 40
0.7980925172567099
 50
193.732721886536
 51
206.0380873020083
  0
ARC
  5
98
  8
1
  6
CONTINUOUS
 62
     7
 10
734.5051680480733
 20
185.4175652178407
 30
0.0
 40
1.028559927650103
 50
206.0380873020273
 51
226.1718927292525
  0
ARC
  5
99
  8
1
  6
CONTINUOUS
 62
     7
 10
734.4183617120748
 20
185.3271332527515
 30
0.0
 40
0.9032073039065428
 50
226.1718927292538
 51
250.7612830651529
  0
ARC
  5
9A
  8
1
  6
CONTINUOUS
 62
     7
 10
734.4999999999999
 20
185.5610573966217
 30
0.0
 40
1.1509679043675
 50
250.7612830651463
 51
270.0
  0
ARC
  5
9B
  8
1
  6
CONTINUOUS
 62
     7
 10
739.5191847759525
 20
186.3938193994051
 30
0.0
 40
1.021108478863773
 50
268.9234528992158
 51
326.526277248063
  0
ARC
  5
9C
  8
1
  6
CONTINUOUS
 62
     7
 10
746.3239954509058
 20
189.0777505338423
 30
0.0
 40
0.6763597830604438
 50
9.79351277550822
 51
70.46763801217776
  0
ARC
  5
9D
  8
1
  6
CONTINUOUS
 62
     7
 10
727.6897317345129
 20
189.0661786449462
 30
0.0
 40
0.6919147061608633
 50
110.2833064230958
 51
169.4555427892163
  0
LINE
  5
9E
  8
1
  6
CONTINUOUS
 62
     7
 10
746.551271692301
 20
189.7146998958815
 30
0.0
 11
745.4906115205212
 21
190.1713432573552
 31
0.0
  0
LINE
  5
9F
  8
1
  6
CONTINUOUS
 62
     7
 10
728.5093884794787
 20
190.1713432573552
 30
0.0
 11
727.4487283076988
 21
189.7146998958815
 31
0.0
  0
LINE
  5
A0
  8
1
  6
CONTINUOUS
 62
     7
 10
745.4906046572025
 20
190.1713462120534
 30
0.0
 11
745.1158715381956
 21
190.2537242299466
 31
0.0
  0
LINE
  5
A1
  8
1
  6
CONTINUOUS
 62
     7
 10
745.1158760487817
 20
190.2537241905834
 30
0.0
 11
737.0
 21
190.3245503678673
 31
0.0
  0
LINE
  5
A2
  8
1
  6
CONTINUOUS
 62
     7
 10
728.8841281785882
 20
190.2537242274751
 30
0.0
 11
728.5093953427975
 21
190.1713462120534
 31
0.0
  0
ENDBLK
  8
0
  0
BLOCK
  8
0
  2
D_FRAME_VIEW_5273
 70
     0
 10
0.0
 20
0.0
 30
0.0
  0
ARC
  5
A7
  8
1
  6
CONTINUOUS
 62
     7
 10
662.4043138266562
 20
213.461981184667
 30
0.0
 40
0.4667717506676137
 50
176.087590495683
 51
261.7841802977267
  0
ARC
  5
A8
  8
1
  6
CONTINUOUS
 62
     7
 10
691.5956861733437
 20
213.461981184667
 30
0.0
 40
0.4667717506676137
 50
278.2158197022733
 51
3.912409504316998
  0
ARC
  5
A9
  8
1
  6
CONTINUOUS
 62
     7
 10
691.684165973786
 20
232.54854021325
 30
0.0
 40
0.4546141588903768
 50
354.4235051121086
 51
83.24657547122347
  0
ARC
  5
AA
  8
1
  6
CONTINUOUS
 62
     7
 10
662.3158340262138
 20
232.54854021325
 30
0.0
 40
0.4546141588903768
 50
96.7534245287765
 51
185.5764948878913
  0
ARC
  5
AB
  8
1
  6
CONTINUOUS
 62
     7
 10
692.5064456388739
 20
213.5228208725214
 30
0.0
 40
0.5231411383442494
 50
267.9950402890178
 51
356.8231797390611
  0
ARC
  5
AC
  8
1
  6
CONTINUOUS
 62
     7
 10
661.493554361126
 20
213.5228208725214
 30
0.0
 40
0.5231411383442494
 50
183.1768202609389
 51
272.0049597109822
  0
ARC
  5
AD
  8
1
  6
CONTINUOUS
 62
     7
 10
661.4172871455532
 20
232.4785174095418
 30
0.0
 40
0.5218434528966315
 50
87.86909847451922
 51
177.3015724954834
  0
ARC
  5
AE
  8
1
  6
CONTINUOUS
 62
     7
 10
692.5827128544466
 20
232.4785174095418
 30
0.0
 40
0.5218434528966315
 50
2.698427504516587
 51
92.1309015254808
  0
ARC
  5
AF
  8
1
  6
CONTINUOUS
 62
     7
 10
689.9899182240183
 20
232.608533805704
 30
0.0
 40
0.1021622471258835
 50
138.8757133093186
 51
140.1398738942167
  0
ARC
  5
B0
  8
1
  6
CONTINUOUS
 62
     7
 10
689.9899182240183
 20
232.608533805704
 30
0.0
 40
0.1021622471258657
 50
140.1398738942286
 51
142.2819225569671
  0
ARC
  5
B1
  8
1
  6
CONTINUOUS
 62
     7
 10
664.0100817759815
 20
232.608533805704
 30
0.0
 40
0.1021622471258835
 50
39.86012610578325
 51
41.12428597216961
  0
ARC
  5
B2
  8
1
  6
CONTINUOUS
 62
     7
 10
664.0100817759815
 20
232.608533805704
 30
0.0
 40
0.1021622471258657
 50
37.86173493183417
 51
39.86012610577131
  0
ARC
  5
B3
  8
1
  6
CONTINUOUS
 62
     7
 10
664.2978731308334
 20
231.4038149654872
 30
0.0
 40
1.596185034512837
 50
87.72573377071853
 51
90.0
  0
LINE
  5
B4
  8
1
  6
CONTINUOUS
 62
     7
 10
665.6157753856239
 20
233.0
 30
0.0
 11
666.120568124422
 21
232.9065169411629
 31
0.0
  0
LINE
  5
B5
  8
1
  6
CONTINUOUS
 62
     7
 10
688.384224614376
 20
233.0
 30
0.0
 11
687.8794318755779
 21
232.9065169411629
 31
0.0
  0
ARC
  5
B6
  8
1
  6
CONTINUOUS
 62
     7
 10
689.7021268691664
 20
231.4038149654872
 30
0.0
 40
1.596185034512837
 50
90.00000000000006
 51
92.27426622928147
  0
ARC
  5
B7
  8
1
  6
CONTINUOUS
 62
     7
 10
689.9899182240182
 20
213.391466194296
 30
0.0
 40
0.1021622471258657
 50
218.0424609847904
 51
219.8601261057713
  0
ARC
  5
B8
  8
1
  6
CONTINUOUS
 62
     7
 10
689.9899182240182
 20
213.391466194296
 30
0.0
 40
0.1021622471258835
 50
219.8601261057833
 51
221.1242874076467
  0
ARC
  5
B9
  8
1
  6
CONTINUOUS
 62
     7
 10
664.0100817759816
 20
213.391466194296
 30
0.0
 40
0.1021622471258657
 50
320.1398738942287
 51
322.3014562104618
  0
ARC
  5
BA
  8
1
  6
CONTINUOUS
 62
     7
 10
664.0100817759816
 20
213.391466194296
 30
0.0
 40
0.1021622471258835
 50
318.8757122390812
 51
320.1398738942167
  0
LINE
  5
BB
  8
1
  6
CONTINUOUS
 62
     7
 10
689.9106763579208
 20
233.0
 30
0.0
 11
689.9106763579208
 21
232.9987784355118
 31
0.0
  0
LINE
  5
BC
  8
1
  6
CONTINUOUS
 62
     7
 10
664.0893236420791
 20
233.0
 30
0.0
 11
664.0893236420791
 21
232.9987784355118
 31
0.0
  0
LINE
  5
BD
  8
1
  6
CONTINUOUS
 62
     7
 10
688.384224614376
 20
213.0
 30
0.0
 11
687.8794318755779
 21
213.0934830588371
 31
0.0
  0
LINE
  5
BE
  8
1
  6
CONTINUOUS
 62
     7
 10
665.6157753856239
 20
213.0
 30
0.0
 11
666.120568124422
 21
213.0934830588371
 31
0.0
  0
ARC
  5
BF
  8
1
  6
CONTINUOUS
 62
     7
 10
687.9296262845121
 20
232.4962345673313
 30
0.0
 40
0.4127664410362508
 50
96.9749692426533
 51
112.3867746833905
  0
ARC
  5
C0
  8
1
  6
CONTINUOUS
 62
     7
 10
687.929626284512
 20
232.4962345673316
 30
0.0
 40
0.4127664410358749
 50
112.3867746833953
 51
125.7585003967301
  0
ARC
  5
C1
  8
1
  6
CONTINUOUS
 62
     7
 10
666.0703737154877
 20
213.5037654326688
 30
0.0
 40
0.4127664410363535
 50
292.3867746833846
 51
305.7585018770498
  0
ARC
  5
C2
  8
1
  6
CONTINUOUS
 62
     7
 10
666.0703737154877
 20
213.5037654326688
 30
0.0
 40
0.4127664410363792
 50
276.974969242651
 51
292.3867746833832
  0
ARC
  5
C3
  8
1
  6
CONTINUOUS
 62
     7
 10
666.0703737154877
 20
232.4962345673313
 30
0.0
 40
0.4127664410362508
 50
67.61322531660949
 51
83.02503075734667
  0
ARC
  5
C4
  8
1
  6
CONTINUOUS
 62
     7
 10
666.0703737154878
 20
232.4962345673316
 30
0.0
 40
0.4127664410358749
 50
54.24149960077153
 51
67.61322531660467
  0
ARC
  5
C5
  8
1
  6
CONTINUOUS
 62
     7
 10
687.9296262845121
 20
213.5037654326688
 30
0.0
 40
0.4127664410363535
 50
234.2414978971859
 51
247.6132253166153
  0
ARC
  5
C6
  8
1
  6
CONTINUOUS
 62
     7
 10
687.9296262845121
 20
213.5037654326688
 30
0.0
 40
0.4127664410363792
 50
247.6132253166169
 51
263.025030757349
  0
ARC
  5
C7
  8
1
  6
CONTINUOUS
 62
     7
 10
676.9999999999999
 20
222.9999894129364
 30
0.0
 40
6.750000092396736
 50
0.5000898623634384
 51
179.4999101376366
  0
LINE
  5
C8
  8
1
  6
CONTINUOUS
 62
     7
 10
657.2499999999999
 20
226.55
 30
0.0
 11
654.25
 21
226.55
 31
0.0
  0
ARC
  5
C9
  8
1
  6
CONTINUOUS
 62
     7
 10
654.2503596066964
 20
227.5501523280439
 30
0.0
 40
1.000359606696533
 50
180.0
 51
202.4947330679822
  0
ARC
  5
CA
  8
1
  6
CONTINUOUS
 62
     7
 10
654.2500058173682
 20
227.550005821806
 30
0.0
 40
0.9999766824658406
 50
202.4947330679499
 51
224.9981925605997
  0
ARC
  5
CB
  8
1
  6
CONTINUOUS
 62
     7
 10
654.2501465545786
 20
227.5501465501372
 30
0.0
 40
1.000175708659033
 50
224.9981925605968
 51
247.4947324033092
  0
ARC
  5
CC
  8
1
  6
CONTINUOUS
 62
     7
 10
654.2499999999999
 20
227.5497928280713
 30
0.0
 40
0.9997928280713053
 50
247.4947324033384
 51
270.0
  0
LINE
  5
CD
  8
1
  6
CONTINUOUS
 62
     7
 10
653.2499999999999
 20
228.4498476719561
 30
0.0
 11
653.2499999999999
 21
227.5501523280439
 31
0.0
  0
ARC
  5
CE
  8
1
  6
CONTINUOUS
 62
     7
 10
654.2499999999999
 20
228.4502071719288
 30
0.0
 40
0.9997928280712498
 50
90.0
 51
112.5052675966629
  0
ARC
  5
CF
  8
1
  6
CONTINUOUS
 62
     7
 10
654.2501465545786
 20
228.4498534498627
 30
0.0
 40
1.000175708659073
 50
112.5052675966895
 51
135.0018074394009
  0
ARC
  5
D0
  8
1
  6
CONTINUOUS
 62
     7
 10
654.2500058173683
 20
228.4499941781939
 30
0.0
 40
0.9999766824659782
 50
135.0018074394014
 51
157.5052669320481
  0
ARC
  5
D1
  8
1
  6
CONTINUOUS
 62
     7
 10
654.2503596066966
 20
228.4498476719561
 30
0.0
 40
1.000359606696755
 50
157.5052669320227
 51
180.0
  0
LINE
  5
D2
  8
1
  6
CONTINUOUS
 62
     7
 10
657.2499999999999
 20
229.45
 30
0.0
 11
654.25
 21
229.45
 31
0.0
  0
ARC
  5
D3
  8
1
  6
CONTINUOUS
 62
     7
 10
699.75
 20
217.5497928280712
 30
0.0
 40
0.9997928280712498
 50
270.0
 51
292.5052675966629
  0
ARC
  5
D4
  8
1
  6
CONTINUOUS
 62
     7
 10
699.7498534454213
 20
217.5501465501373
 30
0.0
 40
1.000175708659073
 50
292.5052675966895
 51
315.0018074394009
  0
ARC
  5
D5
  8
1
  6
CONTINUOUS
 62
     7
 10
699.7499941826314
 20
217.5500058218061
 30
0.0
 40
0.9999766824659782
 50
315.0018074394013
 51
337.5052669320481
  0
ARC
  5
D6
  8
1
  6
CONTINUOUS
 62
     7
 10
699.7496403933033
 20
217.5501523280439
 30
0.0
 40
1.000359606696755
 50
337.5052669320213
 51
0.0
  0
LINE
  5
D7
  8
1
  6
CONTINUOUS
 62
     7
 10
696.75
 20
216.55
 30
0.0
 11
699.7499999999999
 21
216.55
 31
0.0
  0
LINE
  5
D8
  8
1
  6
CONTINUOUS
 62
     7
 10
696.75
 20
219.45
 30
0.0
 11
699.7499999999999
 21
219.45
 31
0.0
  0
ARC
  5
D9
  8
1
  6
CONTINUOUS
 62
     7
 10
699.7496403933033
 20
218.4498476719561
 30
0.0
 40
1.000359606696755
 50
0.0
 51
22.4947330679773
  0
ARC
  5
DA
  8
1
  6
CONTINUOUS
 62
     7
 10
699.7499941826316
 20
218.4499941781941
 30
0.0
 40
0.9999766824658014
 50
22.49473306794552
 51
44.9981925605975
  0
ARC
  5
DB
  8
1
  6
CONTINUOUS
 62
     7
 10
699.7498534454213
 20
218.4498534498628
 30
0.0
 40
1.000175708659033
 50
44.99819256059681
 51
67.49473240330929
  0
ARC
  5
DC
  8
1
  6
CONTINUOUS
 62
     7
 10
699.75
 20
218.4502071719287
 30
0.0
 40
0.9997928280713053
 50
67.49473240333836
 51
90.0
  0
LINE
  5
DD
  8
1
  6
CONTINUOUS
 62
     7
 10
700.75
 20
217.5501523280439
 30
0.0
 11
700.75
 21
218.4498476719561
 31
0.0
  0
ARC
  5
DE
  8
1
  6
CONTINUOUS
 62
     7
 10
678.9
 20
223.0
 30
0.0
 40
2.600000000000001
 50
270.0
 51
90.0
  0
LINE
  5
DF
  8
1
  6
CONTINUOUS
 62
     7
 10
678.9
 20
225.6
 30
0.0
 11
675.0999999999999
 21
225.6
 31
0.0
  0
ARC
  5
E0
  8
1
  6
CONTINUOUS
 62
     7
 10
675.0999999999999
 20
223.0
 30
0.0
 40
2.600000000000001
 50
90.0
 51
270.0
  0
LINE
  5
E1
  8
1
  6
CONTINUOUS
 62
     7
 10
675.0999999999999
 20
220.4
 30
0.0
 11
678.9
 21
220.4
 31
0.0
  0
LINE
  5
E2
  8
1
  6
CONTINUOUS
 62
     7
 10
665.2664420320258
 20
215.0933737831246
 30
0.0
 11
665.3354421136913
 21
223.0
 31
0.0
  0
LINE
  5
E3
  8
1
  6
CONTINUOUS
 62
     7
 10
688.6645578863086
 20
223.0
 30
0.0
 11
688.7335557174113
 21
215.0936316720812
 31
0.0
  0
LINE
  5
E4
  8
1
  6
CONTINUOUS
 62
     7
 10
688.7335579418939
 20
230.9066232283875
 30
0.0
 11
688.6645578863086
 21
223.0
 31
0.0
  0
LINE
  5
E5
  8
1
  6
CONTINUOUS
 62
     7
 10
665.3354421136913
 20
223.0
 30
0.0
 11
665.266444526221
 21
230.9063404104073
 31
0.0
  0
ARC
  5
E6
  8
1
  6
CONTINUOUS
 62
     7
 10
689.7469074853575
 20
230.8030396089994
 30
0.0
 40
1.018628624912592
 50
137.3307188986164
 51
174.1643157960362
  0
ARC
  5
E7
  8
1
  6
CONTINUOUS
 62
     7
 10
664.2665007477699
 20
230.8090802765048
 30
0.0
 40
1.004686431322157
 50
5.570724875675245
 51
42.93424042967391
  0
ARC
  5
E8
  8
1
  6
CONTINUOUS
 62
     7
 10
664.2514835451029
 20
215.1976879075716
 30
0.0
 40
1.02030490188078
 50
317.3619176380114
 51
354.1319517033937
  0
ARC
  5
E9
  8
1
  6
CONTINUOUS
 62
     7
 10
689.7289123925792
 20
215.1888556597421
 30
0.0
 40
0.9999235731111269
 50
185.4794533875298
 51
223.0266772710685
  0
ARC
  5
EA
  8
1
  6
CONTINUOUS
 62
     7
 10
690.5936986447672
 20
213.8677540819301
 30
0.0
 40
0.8708099958866554
 50
217.7705828783084
 51
261.4585268817438
  0
ARC
  5
EB
  8
1
  6
CONTINUOUS
 62
     7
 10
663.4089952930418
 20
213.8631597024626
 30
0.0
 40
0.8658687243257254
 50
278.410342592881
 51
322.3605476470725
  0
ARC
  5
EC
  8
1
  6
CONTINUOUS
 62
     7
 10
663.4063013552326
 20
232.1322459180698
 30
0.0
 40
0.870809995886831
 50
37.77058287829945
 51
81.45852688173818
  0
ARC
  5
ED
  8
1
  6
CONTINUOUS
 62
     7
 10
690.5910047069581
 20
232.1368402975372
 30
0.0
 40
0.8658687243259338
 50
98.4103425928864
 51
142.3605476470799
  0
ARC
  5
EE
  8
1
  6
CONTINUOUS
 62
     7
 10
688.3587629313381
 20
231.4585247195532
 30
0.0
 40
1.528005101150754
 50
116.0312998206809
 51
180.6959453243088
  0
ARC
  5
EF
  8
1
  6
CONTINUOUS
 62
     7
 10
665.6412370686618
 20
214.5414752804468
 30
0.0
 40
1.528005101150754
 50
296.0312998206809
 51
0.6959453243088092
  0
ARC
  5
F0
  8
1
  6
CONTINUOUS
 62
     7
 10
665.6272685329444
 20
231.4499189889661
 30
0.0
 40
1.541893047526556
 50
359.6301210535509
 51
63.64263380145894
  0
ARC
  5
F1
  8
1
  6
CONTINUOUS
 62
     7
 10
688.3727314670555
 20
214.5500810110339
 30
0.0
 40
1.541893047526556
 50
179.6301210535509
 51
243.6426338014589
  0
LINE
  5
F2
  8
1
  6
CONTINUOUS
 62
     7
 10
667.2584803350996
 20
222.999999413313
 30
0.0
 11
667.1691417996961
 21
231.4361531640504
 31
0.0
  0
LINE
  5
F3
  8
1
  6
CONTINUOUS
 62
     7
 10
686.8308582003036
 20
231.4361531640505
 30
0.0
 11
686.7415196780391
 21
223.0000006535126
 31
0.0
  0
LINE
  5
F4
  8
1
  6
CONTINUOUS
 62
     7
 10
695.1670566783268
 20
213.4956367322511
 30
0.0
 11
695.2499999999999
 21
223.0
 31
0.0
  0
LINE
  5
F5
  8
1
  6
CONTINUOUS
 62
     7
 10
658.7499999999999
 20
223.0
 30
0.0
 11
658.8329433216729
 21
213.4956367322511
 31
0.0
  0
LINE
  5
F6
  8
1
  6
CONTINUOUS
 62
     7
 10
658.8329433216729
 20
232.5043632677492
 30
0.0
 11
658.7499999999999
 21
223.0
 31
0.0
  0
LINE
  5
F7
  8
1
  6
CONTINUOUS
 62
     7
 10
695.2499999999999
 20
223.0
 30
0.0
 11
695.1670566783268
 21
232.5043632677492
 31
0.0
  0
ARC
  5
F8
  8
1
  6
CONTINUOUS
 62
     7
 10
694.6670757167949
 20
213.5
 30
0.0
 40
0.5000000000000004
 50
270.0
 51
359.5000000000271
  0
ARC
  5
F9
  8
1
  6
CONTINUOUS
 62
     7
 10
659.332924283205
 20
213.5
 30
0.0
 40
0.4999999999999438
 50
180.4999999999729
 51
270.0
  0
ARC
  5
FA
  8
1
  6
CONTINUOUS
 62
     7
 10
694.6670757167949
 20
232.5
 30
0.0
 40
0.499999999999946
 50
0.4999999999998825
 51
90.0
  0
ARC
  5
FB
  8
1
  6
CONTINUOUS
 62
     7
 10
659.332924283205
 20
232.5
 30
0.0
 40
0.5000000000000004
 50
90.0
 51
179.5000000000001
  0
ENDBLK
  8
0
  0
BLOCK
  8
0
  2
D_FRAME_VIEW_4465
 70
     0
 10
0.0
 20
0.0
 30
0.0
  0
LINE
  5
100
  8
1
  6
CONTINUOUS
 62
     7
 10
670.2497429708962
 20
156.3007821758092
 30
0.0
 11
670.1711250054578
 21
156.2520027240386
 31
0.0
  0
LINE
  5
101
  8
1
  6
CONTINUOUS
 62
     7
 10
670.2502570193167
 20
156.2999551827247
 30
0.0
 11
670.2497429708962
 21
156.3007821758092
 31
0.0
  0
LINE
  5
102
  8
1
  6
CONTINUOUS
 62
     7
 10
683.7497429806831
 20
156.2999551827247
 30
0.0
 11
683.7502570291036
 21
156.3007821758092
 31
0.0
  0
LINE
  5
103
  8
1
  6
CONTINUOUS
 62
     7
 10
683.7502570291036
 20
156.3007821758092
 30
0.0
 11
683.828874994542
 21
156.2520027240386
 31
0.0
  0
LINE
  5
104
  8
1
  6
CONTINUOUS
 62
     7
 10
664.0893236420791
 20
184.4100894922543
 30
0.0
 11
663.0327779877273
 21
186.6758589598459
 31
0.0
  0
ARC
  5
105
  8
1
  6
CONTINUOUS
 62
     7
 10
671.1625621299951
 20
151.6754338597894
 30
0.0
 40
1.000087836405966
 50
180.0012778467688
 51
202.4973664853263
  0
ARC
  5
106
  8
1
  6
CONTINUOUS
 62
     7
 10
671.1623852740282
 20
151.6753606131723
 30
0.0
 40
0.9998964125309276
 50
202.4973664853023
 51
224.9999999999966
  0
ARC
  5
107
  8
1
  6
CONTINUOUS
 62
     7
 10
671.1623852740287
 20
151.6753606131728
 30
0.0
 40
0.9998964125315754
 50
224.9999999999978
 51
247.5026335146766
  0
ARC
  5
108
  8
1
  6
CONTINUOUS
 62
     7
 10
671.1624585206453
 20
151.6755374691404
 30
0.0
 40
1.000087836407076
 50
247.5026335146963
 51
269.9987221532344
  0
LINE
  5
109
  8
1
  6
CONTINUOUS
 62
     7
 10
671.1624362160527
 20
150.6754496321327
 30
0.0
 11
682.8375637839471
 21
150.6754496321327
 31
0.0
  0
ARC
  5
10A
  8
1
  6
CONTINUOUS
 62
     7
 10
682.8374378700047
 20
151.6754338597894
 30
0.0
 40
1.000087836405966
 50
337.5026335146737
 51
359.9987221532313
  0
ARC
  5
10B
  8
1
  6
CONTINUOUS
 62
     7
 10
682.8376147259715
 20
151.6753606131723
 30
0.0
 40
0.9998964125309276
 50
315.0000000000034
 51
337.5026335146976
  0
ARC
  5
10C
  8
1
  6
CONTINUOUS
 62
     7
 10
682.8376147259711
 20
151.6753606131728
 30
0.0
 40
0.9998964125315754
 50
292.4973664853234
 51
315.0000000000022
  0
ARC
  5
10D
  8
1
  6
CONTINUOUS
 62
     7
 10
682.8375414793546
 20
151.6755374691404
 30
0.0
 40
1.000087836407076
 50
270.0012778467656
 51
292.4973664853037
  0
LINE
  5
10E
  8
1
  6
CONTINUOUS
 62
     7
 10
694.2499999999999
 20
154.1754496321327
 30
0.0
 11
686.2499999999999
 21
154.1754496321327
 31
0.0
  0
LINE
  5
10F
  8
1
  6
CONTINUOUS
 62
     7
 10
686.2499999999999
 20
150.1754496321327
 30
0.0
 11
686.2499999999999
 21
154.1754496321327
 31
0.0
  0
LINE
  5
110
  8
1
  6
CONTINUOUS
 62
     7
 10
686.2499999999999
 20
150.1754496321327
 30
0.0
 11
694.2499999999999
 21
150.1754496321327
 31
0.0
  0
LINE
  5
111
  8
1
  6
CONTINUOUS
 62
     7
 10
694.2499999999999
 20
154.1754496321327
 30
0.0
 11
694.2499999999999
 21
150.1754496321327
 31
0.0
  0
LINE
  5
112
  8
1
  6
CONTINUOUS
 62
     7
 10
689.9106763579208
 20
184.4100894922543
 30
0.0
 11
690.9672220122726
 21
186.6758589598459
 31
0.0
  0
ARC
  5
113
  8
1
  6
CONTINUOUS
 62
     7
 10
691.8076626311271
 20
157.6753604496514
 30
0.0
 40
0.9999108234473794
 50
140.2791288359099
 51
270.0062393457358
  0
ARC
  5
114
  8
1
  6
CONTINUOUS
 62
     7
 10
662.1923373688727
 20
157.6753604496514
 30
0.0
 40
0.9999108234473794
 50
269.9937606542642
 51
39.72087116409006
  0
ARC
  5
115
  8
1
  6
CONTINUOUS
 62
     7
 10
661.9268673438366
 20
181.9488807002156
 30
0.0
 40
0.9999968734266361
 50
321.5394536157549
 51
13.07323433115852
  0
LINE
  5
116
  8
1
  6
CONTINUOUS
 62
     7
 10
662.91774338494
 20
182.2066674963756
 30
0.0
 11
662.9009460392417
 21
182.1750762837732
 31
0.0
  0
LINE
  5
117
  8
1
  6
CONTINUOUS
 62
     7
 10
662.91774338494
 20
182.2066674963756
 30
0.0
 11
662.8635691085213
 21
182.3678908057092
 31
0.0
  0
LINE
  5
118
  8
1
  6
CONTINUOUS
 62
     7
 10
691.0822566150598
 20
182.2066674963756
 30
0.0
 11
691.1364308914784
 21
182.3678908057092
 31
0.0
  0
LINE
  5
119
  8
1
  6
CONTINUOUS
 62
     7
 10
691.0822566150598
 20
182.2066674963756
 30
0.0
 11
691.099053960758
 21
182.1750762837732
 31
0.0
  0
ARC
  5
11A
  8
1
  6
CONTINUOUS
 62
     7
 10
692.0731326561632
 20
181.9488807002156
 30
0.0
 40
0.9999968734266361
 50
166.9267656688414
 51
218.460546384245
  0
LINE
  5
11B
  8
1
  6
CONTINUOUS
 62
     7
 10
660.8609690764168
 20
186.6009150338706
 30
0.0
 11
661.8283266693635
 21
189.258813147494
 31
0.0
  0
LINE
  5
11C
  8
1
  6
CONTINUOUS
 62
     7
 10
693.1390309235829
 20
186.6009150338706
 30
0.0
 11
692.1716733306363
 21
189.258813147494
 31
0.0
  0
LINE
  5
11D
  8
1
  6
CONTINUOUS
 62
     7
 10
692.1716150420145
 20
189.2588683356917
 30
0.0
 11
690.0871761480491
 21
190.2308581549039
 31
0.0
  0
LINE
  5
11E
  8
1
  6
CONTINUOUS
 62
     7
 10
657.2499999999999
 20
156.6754496321328
 30
0.0
 11
662.1922284814577
 21
156.6754496321328
 31
0.0
  0
LINE
  5
11F
  8
1
  6
CONTINUOUS
 62
     7
 10
661.8283849579853
 20
189.2588683356917
 30
0.0
 11
663.9128238519507
 21
190.2308581549039
 31
0.0
  0
LINE
  5
120
  8
1
  6
CONTINUOUS
 62
     7
 10
696.75
 20
156.6754496321328
 30
0.0
 11
691.8077715185422
 21
156.6754496321328
 31
0.0
  0
LINE
  5
121
  8
1
  6
CONTINUOUS
 62
     7
 10
661.2399354842421
 20
185.8398427706049
 30
0.0
 11
661.220162413654
 21
185.8306224363645
 31
0.0
  0
LINE
  5
122
  8
1
  6
CONTINUOUS
 62
     7
 10
692.7600645157578
 20
185.8398427706049
 30
0.0
 11
692.7798375863458
 21
185.8306224363645
 31
0.0
  0
ARC
  5
123
  8
1
  6
CONTINUOUS
 62
     7
 10
676.9999999999999
 20
169.9754496321328
 30
0.0
 40
18.24999999999998
 50
320.2853681816445
 51
38.46203522949304
  0
ARC
  5
124
  8
1
  6
CONTINUOUS
 62
     7
 10
676.9999999999999
 20
169.9754496321328
 30
0.0
 40
18.24999999999998
 50
141.537964770507
 51
219.7146318183554
  0
ARC
  5
125
  8
1
  6
CONTINUOUS
 62
     7
 10
688.7414156583714
 20
182.6126522218972
 30
0.0
 40
1.99991973771091
 50
154.9999143203986
 51
227.1044497291183
  0
ARC
  5
126
  8
1
  6
CONTINUOUS
 62
     7
 10
665.2585843416285
 20
182.6126522218972
 30
0.0
 40
1.99991973771091
 50
312.8955502708816
 51
25.0000856796014
  0
LINE
  5
127
  8
1
  6
CONTINUOUS
 62
     7
 10
664.9782297233779
 20
188.5585059247483
 30
0.0
 11
664.7729687334778
 21
188.3862715038281
 31
0.0
  0
LINE
  5
128
  8
1
  6
CONTINUOUS
 62
     7
 10
689.021770276622
 20
188.5585059247483
 30
0.0
 11
689.2270312665221
 21
188.3862715038281
 31
0.0
  0
ARC
  5
129
  8
1
  6
CONTINUOUS
 62
     7
 10
689.6645578863086
 20
189.3245503678673
 30
0.0
 40
0.999999999999967
 50
64.99999999999997
 51
229.9999999999997
  0
ARC
  5
12A
  8
1
  6
CONTINUOUS
 62
     7
 10
664.3354421136913
 20
189.3245503678673
 30
0.0
 40
0.999999999999967
 50
310.0000000000002
 51
115.0000000000001
  0
LINE
  5
12B
  8
1
  6
CONTINUOUS
 62
     7
 10
700.75
 20
154.8754496321328
 30
0.0
 11
700.75
 21
147.6754496321327
 31
0.0
  0
LINE
  5
12C
  8
1
  6
CONTINUOUS
 62
     7
 10
690.2102021347318
 20
162.3485358735959
 30
0.0
 11
690.0264874390604
 21
162.4546036025959
 31
0.0
  0
ARC
  5
12D
  8
1
  6
CONTINUOUS
 62
     7
 10
690.2764879782374
 20
162.8876164586052
 30
0.0
 40
0.5000004030579995
 50
151.903909285094
 51
239.9999553228003
  0
ARC
  5
12E
  8
1
  6
CONTINUOUS
 62
     7
 10
676.9999999999999
 20
169.9754496321328
 30
0.0
 40
14.54999999999996
 50
331.9038646078957
 51
28.09613539210431
  0
ARC
  5
12F
  8
1
  6
CONTINUOUS
 62
     7
 10
690.2764881128192
 20
177.0632827671917
 30
0.0
 40
0.5000005036636969
 50
120.0000558288841
 51
208.0960795632237
  0
LINE
  5
130
  8
1
  6
CONTINUOUS
 62
     7
 10
690.2102021347318
 20
177.6023633906696
 30
0.0
 11
690.0264874390604
 21
177.4962956616696
 31
0.0
  0
ARC
  5
131
  8
1
  6
CONTINUOUS
 62
     7
 10
663.7235118871807
 20
177.0632827671917
 30
0.0
 40
0.5000005036636969
 50
331.9039204367763
 51
59.99994417111583
  0
ARC
  5
132
  8
1
  6
CONTINUOUS
 62
     7
 10
676.9999999999999
 20
169.9754496321328
 30
0.0
 40
14.54999999999996
 50
151.9038646078957
 51
208.0961353921043
  0
ARC
  5
133
  8
1
  6
CONTINUOUS
 62
     7
 10
663.7235120217625
 20
162.8876164586052
 30
0.0
 40
0.5000004030579995
 50
300.0000446771996
 51
28.09609071490604
  0
LINE
  5
134
  8
1
  6
CONTINUOUS
 62
     7
 10
663.789797865268
 20
162.3485358735959
 30
0.0
 11
663.9735125609395
 21
162.4546036025959
 31
0.0
  0
LINE
  5
135
  8
1
  6
CONTINUOUS
 62
     7
 10
663.789797865268
 20
177.6023633906696
 30
0.0
 11
663.9735125609395
 21
177.4962956616696
 31
0.0
  0
LINE
  5
136
  8
1
  6
CONTINUOUS
 62
     7
 10
670.2502570193167
 20
156.2999551827247
 30
0.0
 11
670.3413880314935
 21
156.2451861617476
 31
0.0
  0
ARC
  5
137
  8
1
  6
CONTINUOUS
 62
     7
 10
676.9989901894157
 20
169.4943564777645
 30
0.0
 40
14.82781779480697
 50
243.3208376207147
 51
296.785812867418
  0
LINE
  5
138
  8
1
  6
CONTINUOUS
 62
     7
 10
683.6812428337441
 20
156.2576015826491
 30
0.0
 11
683.7497429806831
 21
156.2999551827247
 31
0.0
  0
LINE
  5
139
  8
1
  6
CONTINUOUS
 62
     7
 10
653.2499999999999
 20
147.6754496321327
 30
0.0
 11
653.2499999999999
 21
154.8754496321328
 31
0.0
  0
ENDBLK
  8
0
  0
ENDSEC
  0
SECTION
  2
ENTITIES
  0
TEXT
  5
70
  8
1
  6
CONTINUOUS
 62
     7
 10
700.8083968988373
 20
123.6568400650244
 30
0.0
 40
6.0
  1
LSY-P22
  0
INSERT
  5
A3
  8
1
  6
CONTINUOUS
 62
     7
  2
D_FRAME_VIEW_4917
 10
0.0
 20
0.0
 30
0.0
  0
INSERT
  5
FC
  8
1
  6
CONTINUOUS
 62
     7
  2
D_FRAME_VIEW_5273
 10
0.0
 20
0.0
 30
0.0
  0
INSERT
  5
13A
  8
1
  6
CONTINUOUS
 62
     7
  2
D_FRAME_VIEW_4465
 10
0.0
 20
0.0
 30
0.0
  0
LINE
  5
13B
  8
1
  6
CONTINUOUS
 62
     7
 10
696.75
 20
154.8754496321328
 30
0.0
 11
700.75
 21
154.8754496321328
 31
0.0
  0
LINE
  5
13C
  8
1
  6
CONTINUOUS
 62
     7
 10
664.0872452228758
 20
213.3241181646588
 30
0.0
 11
664.9928163615018
 21
214.5133847287067
 31
0.0
  0
LINE
  5
13D
  8
1
  6
CONTINUOUS
 62
     7
 10
689.9127559762653
 20
232.6758809227513
 30
0.0
 11
689.0071830300002
 21
231.4866157128253
 31
0.0
  0
LINE
  5
13E
  8
1
  6
CONTINUOUS
 62
     7
 10
743.3967398782087
 20
148.7899984420037
 30
0.0
 11
744.5309129869617
 21
147.6754496321328
 31
0.0
  0
LINE
  5
13F
  8
1
  6
CONTINUOUS
 62
     7
 10
667.169097392487
 20
214.5572030165539
 30
0.0
 11
667.2255190151476
 21
223.0002196149654
 31
0.0
  0
LINE
  5
140
  8
1
  6
CONTINUOUS
 62
     7
 10
696.75
 20
233.0
 30
0.0
 11
696.75
 21
213.0
 31
0.0
  0
LINE
  5
141
  8
1
  6
CONTINUOUS
 62
     7
 10
747.0
 20
147.6754496321327
 30
0.0
 11
727.0
 21
147.6754496321327
 31
0.0
  0
LINE
  5
142
  8
1
  6
CONTINUOUS
 62
     7
 10
730.5500000000001
 20
154.8754496321328
 30
0.0
 11
733.4499999999999
 21
154.8754496321328
 31
0.0
  0
LINE
  5
143
  8
1
  6
CONTINUOUS
 62
     7
 10
736.9999999999994
 20
190.3245503679244
 30
0.0
 11
728.8816397749846
 21
190.2537025115058
 31
0.0
  0
LINE
  5
144
  8
1
  6
CONTINUOUS
 62
     7
 10
700.75
 20
147.6754496321327
 30
0.0
 11
653.2499999999999
 21
147.6754496321327
 31
0.0
  0
LINE
  5
145
  8
1
  6
CONTINUOUS
 62
     7
 10
653.2499999999999
 20
154.8754496321328
 30
0.0
 11
657.2499999999999
 21
154.8754496321328
 31
0.0
  0
LINE
  5
146
  8
1
  6
CONTINUOUS
 62
     7
 10
665.0428660722158
 20
231.5276341797598
 30
0.0
 11
664.0870343433435
 21
232.6757212603918
 31
0.0
  0
LINE
  5
147
  8
1
  6
CONTINUOUS
 62
     7
 10
686.8309026075128
 20
214.5572030165539
 30
0.0
 11
686.7744809765642
 21
223.0002208551973
 31
0.0
  0
LINE
  5
148
  8
1
  6
CONTINUOUS
 62
     7
 10
657.2499999999999
 20
213.0
 30
0.0
 11
696.75
 21
213.0
 31
0.0
  0
LINE
  5
149
  8
1
  6
CONTINUOUS
 62
     7
 10
688.9569689637815
 20
214.4722181794112
 30
0.0
 11
689.9129656566564
 21
213.3242787396082
 31
0.0
  0
LINE
  5
14A
  8
1
  6
CONTINUOUS
 62
     7
 10
739.4690870130383
 20
147.6754496321327
 30
0.0
 11
740.6032601217912
 21
148.7899984420037
 31
0.0
  0
LINE
  5
14B
  8
1
  6
CONTINUOUS
 62
     7
 10
692.0613685437974
 20
213.4938296425122
 30
0.0
 11
692.1716150420956
 21
222.9999999999991
 31
0.0
  0
LINE
  5
14C
  8
1
  6
CONTINUOUS
 62
     7
 10
727.4956324560869
 20
186.5607067629367
 30
0.0
 11
727.0
 21
186.5843977803942
 31
0.0
  0
LINE
  5
14D
  8
1
  6
CONTINUOUS
 62
     7
 10
747.0
 20
186.5493768605613
 30
0.0
 11
746.500007507243
 21
186.5256193706135
 31
0.0
  0
LINE
  5
14E
  8
1
  6
CONTINUOUS
 62
     7
 10
670.2497429708962
 20
223.0
 30
0.0
 11
670.1624742929886
 21
213.0
 31
0.0
  0
LINE
  5
14F
  8
1
  6
CONTINUOUS
 62
     7
 10
660.8609690764168
 20
223.0
 30
0.0
 11
660.9712155721825
 21
213.4938296425122
 31
0.0
  0
LINE
  5
150
  8
1
  6
CONTINUOUS
 62
     7
 10
727.0
 20
147.6754496321327
 30
0.0
 11
727.0
 21
189.1048768603222
 31
0.0
  0
LINE
  5
151
  8
1
  6
CONTINUOUS
 62
     7
 10
661.8283266697035
 20
223.0029086790302
 30
0.0
 11
661.8633693041947
 21
232.5043632677492
 31
0.0
  0
LINE
  5
152
  8
1
  6
CONTINUOUS
 62
     7
 10
683.7502570291036
 20
223.0
 30
0.0
 11
683.8375257070113
 21
213.0
 31
0.0
  0
LINE
  5
153
  8
1
  6
CONTINUOUS
 62
     7
 10
661.9386314562024
 20
213.4938296425122
 30
0.0
 11
661.8283849579043
 21
222.9999999999991
 31
0.0
  0
LINE
  5
154
  8
1
  6
CONTINUOUS
 62
     7
 10
660.8960177255781
 20
232.5030853131941
 30
0.0
 11
660.8609690764168
 21
223.0
 31
0.0
  0
LINE
  5
155
  8
1
  6
CONTINUOUS
 62
     7
 10
727.4938296425122
 20
189.2187418919086
 30
0.0
 11
737.0000000000001
 21
189.2588683356531
 31
0.0
  0
LINE
  5
156
  8
1
  6
CONTINUOUS
 62
     7
 10
734.4999999999999
 20
185.8306224363645
 30
0.0
 11
746.4999999999999
 21
185.8306224363645
 31
0.0
  0
LINE
  5
157
  8
1
  6
CONTINUOUS
 62
     7
 10
737.0029086790305
 20
189.2588131473877
 30
0.0
 11
746.5043632677491
 21
189.1836639745854
 31
0.0
  0
LINE
  5
158
  8
1
  6
CONTINUOUS
 62
     7
 10
686.9565563893696
 20
183.4449490675924
 30
0.0
 11
689.2547135653451
 21
188.3733630358915
 31
0.0
  0
LINE
  5
159
  8
1
  6
CONTINUOUS
 62
     7
 10
664.0893236420793
 20
184.4100894922537
 30
0.0
 11
666.1738315522634
 21
185.3821114942579
 31
0.0
  0
LINE
  5
15A
  8
1
  6
CONTINUOUS
 62
     7
 10
733.6215283463407
 20
185.3945717494053
 30
0.0
 11
739.5
 21
185.3728911600174
 31
0.0
  0
LINE
  5
15B
  8
1
  6
CONTINUOUS
 62
     7
 10
657.2499999999999
 20
233.0
 30
0.0
 11
657.2499999999999
 21
213.0
 31
0.0
  0
LINE
  5
15C
  8
1
  6
CONTINUOUS
 62
     7
 10
667.0434436106302
 20
183.4449490675924
 30
0.0
 11
664.7452864346546
 21
188.3733630358915
 31
0.0
  0
LINE
  5
15D
  8
1
  6
CONTINUOUS
 62
     7
 10
689.9106763579206
 20
184.4100894922537
 30
0.0
 11
687.8261684477364
 21
185.3821114942579
 31
0.0
  0
LINE
  5
15E
  8
1
  6
CONTINUOUS
 62
     7
 10
663.3046703238386
 20
186.8026444383678
 30
0.0
 11
664.8908054540316
 21
188.1335698411105
 31
0.0
  0
LINE
  5
15F
  8
1
  6
CONTINUOUS
 62
     7
 10
690.6953296761612
 20
186.8026444383678
 30
0.0
 11
689.1091945459683
 21
188.1335698411105
 31
0.0
  0
LINE
  5
160
  8
1
  6
CONTINUOUS
 62
     7
 10
693.0979261893391
 20
186.6198771696907
 30
0.0
 11
691.1364308914784
 21
182.3678908057092
 31
0.0
  0
LINE
  5
161
  8
1
  6
CONTINUOUS
 62
     7
 10
657.2499999999999
 20
233.0
 30
0.0
 11
696.75
 21
233.0
 31
0.0
  0
LINE
  5
162
  8
1
  6
CONTINUOUS
 62
     7
 10
693.1039822744218
 20
232.5030853131941
 30
0.0
 11
693.1390309235829
 21
223.0
 31
0.0
  0
LINE
  5
163
  8
1
  6
CONTINUOUS
 62
     7
 10
747.0
 20
147.6754496321327
 30
0.0
 11
747.0
 21
189.1048768603222
 31
0.0
  0
LINE
  5
164
  8
1
  6
CONTINUOUS
 62
     7
 10
734.5000694927746
 20
182.170297750811
 30
0.0
 11
746.5004960855047
 21
182.1932273294541
 31
0.0
  0
LINE
  5
165
  8
1
  6
CONTINUOUS
 62
     7
 10
692.1716733302962
 20
223.0029086790302
 30
0.0
 11
692.1366306958051
 21
232.5043632677492
 31
0.0
  0
LINE
  5
166
  8
1
  6
CONTINUOUS
 62
     7
 10
693.1390309261147
 20
222.9999999999706
 30
0.0
 11
693.0287844278168
 21
213.4938296425122
 31
0.0
  0
LINE
  5
167
  8
1
  6
CONTINUOUS
 62
     7
 10
662.8399881923569
 20
182.3568948439153
 30
0.0
 11
660.8609690764168
 21
186.6009150338706
 31
0.0
  0
LINE
  5
168
  8
1
  6
CONTINUOUS
 62
     7
 10
696.75
 20
147.6754496321327
 30
0.0
 11
696.75
 21
156.6754496321328
 31
0.0
  0
LINE
  5
169
  8
1
  6
CONTINUOUS
 62
     7
 10
663.0327779877273
 20
186.6758589598459
 30
0.0
 11
663.3046703238384
 21
186.8026444383681
 31
0.0
  0
ARC
  5
16A
  8
1
  6
CONTINUOUS
 62
     7
 10
676.9999999999999
 20
169.9754496321328
 30
0.0
 40
15.25
 50
132.8956359504825
 51
243.727567220305
  0
LINE
  5
16B
  8
1
  6
CONTINUOUS
 62
     7
 10
670.1624742929886
 20
156.2520027240386
 30
0.0
 11
670.1624742929886
 21
151.6754115551969
 31
0.0
  0
ARC
  5
16C
  8
1
  6
CONTINUOUS
 62
     7
 10
676.9999999999999
 20
169.9754496321328
 30
0.0
 40
15.24999999999996
 50
296.272432779695
 51
47.10436404951746
  0
LINE
  5
16D
  8
1
  6
CONTINUOUS
 62
     7
 10
657.2499999999999
 20
147.6754496321327
 30
0.0
 11
657.2499999999999
 21
156.6754496321328
 31
0.0
  0
LINE
  5
16E
  8
1
  6
CONTINUOUS
 62
     7
 10
690.9672220122726
 20
186.6758589598459
 30
0.0
 11
690.6953296761615
 21
186.8026444383681
 31
0.0
  0
LINE
  5
16F
  8
1
  6
CONTINUOUS
 62
     7
 10
683.8375257070113
 20
156.2520027240386
 30
0.0
 11
683.8375257070113
 21
151.6754115551969
 31
0.0
  0
LINE
  5
170
  8
1
  6
CENTER
 62
     1
 10
737.0
 20
190.8531386082029
 30
0.0
 11
737.0
 21
145.6754496321327
 31
0.0
  0
LINE
  5
172
  8
1
  6
CENTER
 62
     1
 10
656.7499999999999
 20
169.9754496321328
 30
0.0
 11
697.2499999999999
 21
169.9754496321328
 31
0.0
  0
LINE
  5
173
  8
1
  6
CENTER
 62
     1
 10
698.75
 20
223.0
 30
0.0
 11
655.2499999999999
 21
223.0
 31
0.0
  0
LINE
  5
174
  8
1
  6
CENTER
 62
     1
 10
676.9999999999999
 20
149.7254496321328
 30
0.0
 11
676.9999999999999
 21
190.2254496321327
 31
0.0
  0
LINE
  5
175
  8
1
  6
CENTER
 62
     1
 10
676.9999999999999
 20
211.4956367322508
 30
0.0
 11
676.9999999999999
 21
234.5043632677492
 31
0.0
  0
ENDSEC
  0
EOF
