  0
SECTION
  2
HEADER
  9
$ACADVER
  1
AC1006
  9
$DWGCODEPAGE
  3
ansi_932
  9
$INSBASE
 10
0.0
 20
0.0
 30
0.0
  9
$EXTMIN
 10
330.0
 20
-7.215909090909094
  9
$EXTMAX
 10
427.5000000000001
 20
99.49999999999997
  9
$LIMMIN
 10
0.0
 20
0.0
  9
$LIMMAX
 10
12.0
 20
9.0
  9
$ORTHOMODE
 70
     0
  9
$REGENMODE
 70
     1
  9
$FILLMODE
 70
     1
  9
$QTEXTMODE
 70
     0
  9
$MIRRTEXT
 70
     1
  9
$DRAGMODE
 70
     2
  9
$LTSCALE
 40
1.0
  9
$OSMODE
 70
    37
  9
$ATTMODE
 70
     1
  9
$TEXTSIZE
 40
0.2
  9
$TRACEWID
 40
0.05
  9
$TEXTSTYLE
  7
STANDARD
  9
$CLAYER
  8
0
  9
$CELTYPE
  6
BYLAYER
  9
$CECOLOR
 62
   256
  9
$DIMSCALE
 40
1.0
  9
$DIMASZ
 40
3.0
  9
$DIMEXO
 40
0.0625
  9
$DIMDLI
 40
0.38
  9
$DIMRND
 40
0.0
  9
$DIMDLE
 40
0.0
  9
$DIMEXE
 40
1.5
  9
$DIMTP
 40
0.0
  9
$DIMTM
 40
0.0
  9
$DIMTXT
 40
3.0
  9
$DIMCEN
 40
0.09
  9
$DIMTSZ
 40
0.0
  9
$DIMTOL
 70
     0
  9
$DIMLIM
 70
     0
  9
$DIMTIH
 70
     1
  9
$DIMTOH
 70
     1
  9
$DIMSE1
 70
     0
  9
$DIMSE2
 70
     0
  9
$DIMTAD
 70
     1
  9
$DIMZIN
 70
     0
  9
$DIMBLK
  1

  9
$DIMASO
 70
     1
  9
$DIMSHO
 70
     1
  9
$DIMPOST
  1

  9
$DIMAPOST
  1

  9
$DIMALT
 70
     0
  9
$DIMALTD
 70
     2
  9
$DIMALTF
 40
25.4
  9
$DIMLFAC
 40
1.0
  9
$DIMTOFL
 70
     0
  9
$DIMTVP
 40
0.0
  9
$DIMTIX
 70
     0
  9
$DIMSOXD
 70
     0
  9
$DIMSAH
 70
     0
  9
$DIMBLK1
  1

  9
$DIMBLK2
  1

  9
$LUNITS
 70
     2
  9
$LUPREC
 70
     4
  9
$SKETCHINC
 40
0.1
  9
$FILLETRAD
 40
0.5
  9
$AUNITS
 70
     0
  9
$AUPREC
 70
     0
  9
$MENU
  1
.
  9
$ELEVATION
 40
0.0
  9
$THICKNESS
 40
0.0
  9
$LIMCHECK
 70
     0
  9
$CHAMFERA
 40
0.0
  9
$CHAMFERB
 40
0.0
  9
$SKPOLY
 70
     0
  9
$TDCREATE
 40
2459748.701670509
  9
$TDUPDATE
 40
2459748.701670741
  9
$TDINDWG
 40
0.0000000116
  9
$TDUSRTIMER
 40
0.0000000116
  9
$USRTIMER
 70
     1
  9
$ANGBASE
 50
0.0
  9
$ANGDIR
 70
     0
  9
$PDMODE
 70
     0
  9
$PDSIZE
 40
0.0
  9
$PLINEWID
 40
0.0
  9
$COORDS
 70
     1
  9
$SPLFRAME
 70
     0
  9
$SPLINETYPE
 70
     6
  9
$SPLINESEGS
 70
     8
  9
$ATTDIA
 70
     0
  9
$ATTREQ
 70
     1
  9
$HANDLING
 70
     1
  9
$HANDSEED
  5
199
  9
$SURFTAB1
 70
     6
  9
$SURFTAB2
 70
     6
  9
$SURFTYPE
 70
     6
  9
$SURFU
 70
     6
  9
$SURFV
 70
     6
  9
$UCSNAME
  2

  9
$UCSORG
 10
0.0
 20
0.0
 30
0.0
  9
$UCSXDIR
 10
1.0
 20
0.0
 30
0.0
  9
$UCSYDIR
 10
0.0
 20
1.0
 30
0.0
  9
$USERI1
 70
     0
  9
$USERI2
 70
     0
  9
$USERI3
 70
     0
  9
$USERI4
 70
     0
  9
$USERI5
 70
     0
  9
$USERR1
 40
0.0
  9
$USERR2
 40
0.0
  9
$USERR3
 40
0.0
  9
$USERR4
 40
0.0
  9
$USERR5
 40
0.0
  9
$WORLDVIEW
 70
     1
  0
ENDSEC
  0
SECTION
  2
TABLES
  0
TABLE
  2
VPORT
 70
     1
  0
VPORT
  2
*ACTIVE
 70
     0
 10
0.0
 20
0.0
 11
1.0
 21
1.0
 12
378.75
 22
46.14204545454544
 13
0.0
 23
0.0
 14
0.5
 24
0.5
 15
0.5
 25
0.5
 16
0.0
 26
0.0
 36
1.0
 17
0.0
 27
0.0
 37
0.0
 40
106.7159090909091
 41
1.6
 42
50.0
 43
0.0
 44
0.0
 50
0.0
 51
0.0
 71
     0
 72
   100
 73
     1
 74
     3
 75
     0
 76
     0
 77
     0
 78
     0
  0
ENDTAB
  0
TABLE
  2
LTYPE
 70
     2
  0
LTYPE
  2
CONTINUOUS
 70
     0
  3
Solid line
 72
    65
 73
     0
 40
0.0
  0
LTYPE
  2
CENTER
 70
     0
  3

 72
    65
 73
     0
 40
0.0
  0
ENDTAB
  0
TABLE
  2
LAYER
 70
     2
  0
LAYER
  2
0
 70
     0
 62
     7
  6
CONTINUOUS
  0
LAYER
  2
1
 70
     0
 62
     7
  6
CONTINUOUS
  0
ENDTAB
  0
TABLE
  2
STYLE
 70
     2
  0
STYLE
  2
STANDARD
 70
     0
 40
0.0
 41
1.0
 50
0.0
 71
     0
 42
0.2
  3
txt
  4

  0
STYLE
  2
ＭＳ_ゴシック
 70
     0
 40
0.0
 41
1.0
 50
0.0
 71
     0
 42
0.2
  3
ＭＳ ゴシック.shx
  4

  0
ENDTAB
  0
TABLE
  2
VIEW
 70
     0
  0
ENDTAB
  0
TABLE
  2
UCS
 70
     0
  0
ENDTAB
  0
ENDSEC
  0
SECTION
  2
BLOCKS
  0
BLOCK
  8
0
  2
D_FRAME_VIEW_4718
 70
     0
 10
0.0
 20
0.0
 30
0.0
  0
LINE
  5
87
  8
1
  6
CONTINUOUS
 62
     7
 10
364.3614066163451
 20
12.06298714517881
 30
0.0
 11
364.3614066163451
 21
14.56298714517882
 31
0.0
  0
LINE
  5
88
  8
1
  6
CONTINUOUS
 62
     7
 10
335.6385933836549
 20
12.06298714517881
 30
0.0
 11
335.6385933836549
 21
14.56298714517882
 31
0.0
  0
LINE
  5
89
  8
1
  6
CONTINUOUS
 62
     7
 10
364.3614066163451
 20
14.56298714517882
 30
0.0
 11
335.6385933836549
 21
14.56298714517882
 31
0.0
  0
LINE
  5
8A
  8
1
  6
CONTINUOUS
 62
     7
 10
343.2497429708963
 20
21.25256126657177
 30
0.0
 11
343.171125005458
 21
21.21254008108129
 31
0.0
  0
LINE
  5
8B
  8
1
  6
CONTINUOUS
 62
     7
 10
343.2502570193169
 20
21.25155368557457
 30
0.0
 11
343.2497429708963
 21
21.25256126657177
 31
0.0
  0
LINE
  5
8C
  8
1
  6
CONTINUOUS
 62
     7
 10
356.7497429806832
 20
21.25155368557457
 30
0.0
 11
356.7502570291038
 21
21.25256126657177
 31
0.0
  0
LINE
  5
8D
  8
1
  6
CONTINUOUS
 62
     7
 10
356.7502570291038
 20
21.25256126657177
 30
0.0
 11
356.8288749945421
 21
21.21254008108129
 31
0.0
  0
LINE
  5
8E
  8
1
  6
CONTINUOUS
 62
     7
 10
339.45670265321
 20
41.84129042180084
 30
0.0
 11
338.4001569988583
 21
44.10705988939245
 31
0.0
  0
ARC
  5
8F
  8
1
  6
CONTINUOUS
 62
     7
 10
344.1625621299956
 20
16.06297137283535
 30
0.0
 40
1.000087836406355
 50
180.0012778467646
 51
202.4973664853125
  0
ARC
  5
90
  8
1
  6
CONTINUOUS
 62
     7
 10
344.1623852740282
 20
16.06289812621829
 30
0.0
 40
0.9998964125308211
 50
202.4973664853022
 51
224.9999999999995
  0
ARC
  5
91
  8
1
  6
CONTINUOUS
 62
     7
 10
344.1623852740283
 20
16.06289812621847
 30
0.0
 40
0.9998964125310639
 50
224.9999999999999
 51
247.5026335146921
  0
ARC
  5
92
  8
1
  6
CONTINUOUS
 62
     7
 10
344.1624585206453
 20
16.06307498218604
 30
0.0
 40
1.000087836406683
 50
247.5026335146939
 51
269.9987221532376
  0
LINE
  5
93
  8
1
  6
CONTINUOUS
 62
     7
 10
344.1624362160529
 20
15.06298714517881
 30
0.0
 11
355.8375637839471
 21
15.06298714517881
 31
0.0
  0
ARC
  5
94
  8
1
  6
CONTINUOUS
 62
     7
 10
355.8374378700044
 20
16.06297137283535
 30
0.0
 40
1.000087836406355
 50
337.5026335146875
 51
359.9987221532355
  0
ARC
  5
95
  8
1
  6
CONTINUOUS
 62
     7
 10
355.8376147259718
 20
16.06289812621829
 30
0.0
 40
0.9998964125308211
 50
315.0000000000005
 51
337.5026335146978
  0
ARC
  5
96
  8
1
  6
CONTINUOUS
 62
     7
 10
355.8376147259717
 20
16.06289812621847
 30
0.0
 40
0.9998964125310639
 50
292.4973664853078
 51
315.0
  0
ARC
  5
97
  8
1
  6
CONTINUOUS
 62
     7
 10
355.8375414793548
 20
16.06307498218604
 30
0.0
 40
1.000087836406683
 50
270.0012778467624
 51
292.4973664853061
  0
LINE
  5
98
  8
1
  6
CONTINUOUS
 62
     7
 10
360.54329734679
 20
41.84129042180084
 30
0.0
 11
361.5998430011418
 21
44.10705988939245
 31
0.0
  0
LINE
  5
99
  8
1
  6
CONTINUOUS
 62
     7
 10
363.5000000000001
 20
18.56298714517882
 30
0.0
 11
363.5000000000001
 21
14.56298714517881
 31
0.0
  0
LINE
  5
9A
  8
1
  6
CONTINUOUS
 62
     7
 10
363.5000000000001
 20
18.56298714517882
 30
0.0
 11
359.5000000000001
 21
18.56298714517881
 31
0.0
  0
LINE
  5
9B
  8
1
  6
CONTINUOUS
 62
     7
 10
359.5000000000001
 20
14.56298714517882
 30
0.0
 11
359.5000000000001
 21
18.56298714517881
 31
0.0
  0
LINE
  5
9C
  8
1
  6
CONTINUOUS
 62
     7
 10
361.7077045550983
 20
39.55601260208906
 30
0.0
 11
361.7853213941621
 21
39.83633074272984
 31
0.0
  0
LINE
  5
9D
  8
1
  6
CONTINUOUS
 62
     7
 10
361.7077045550983
 20
39.55601260208906
 30
0.0
 11
361.7277285994804
 21
39.51671320222204
 31
0.0
  0
ARC
  5
9E
  8
1
  6
CONTINUOUS
 62
     7
 10
362.7226421127269
 20
39.41640724649421
 30
0.0
 40
0.9999570908768219
 50
174.2429631014559
 51
214.8333999884265
  0
ARC
  5
9F
  8
1
  6
CONTINUOUS
 62
     7
 10
337.2773578872732
 20
39.41640724649421
 30
0.0
 40
0.9999570908768219
 50
325.1666000115735
 51
5.757036898544072
  0
LINE
  5
A0
  8
1
  6
CONTINUOUS
 62
     7
 10
338.2922954449018
 20
39.55601260208906
 30
0.0
 11
338.2722714005196
 21
39.51671320222204
 31
0.0
  0
LINE
  5
A1
  8
1
  6
CONTINUOUS
 62
     7
 10
338.2922954449018
 20
39.55601260208906
 30
0.0
 11
338.214678605838
 21
39.83633074272984
 31
0.0
  0
ARC
  5
A2
  8
1
  6
CONTINUOUS
 62
     7
 10
337.0386654724505
 20
22.0629078270375
 30
0.0
 40
0.9999206847746784
 50
269.9956243014518
 51
33.26106760661929
  0
ARC
  5
A3
  8
1
  6
CONTINUOUS
 62
     7
 10
362.9613345275496
 20
22.0629078270375
 30
0.0
 40
0.9999206847746784
 50
146.7389323933807
 51
270.0043756985483
  0
LINE
  5
A4
  8
1
  6
CONTINUOUS
 62
     7
 10
336.1138697591867
 20
44.47365863549714
 30
0.0
 11
336.920988233372
 21
46.69119841814612
 31
0.0
  0
LINE
  5
A5
  8
1
  6
CONTINUOUS
 62
     7
 10
337.1112403167681
 20
46.87133082264566
 30
0.0
 11
336.920988233372
 21
46.69119841814612
 31
0.0
  0
LINE
  5
A6
  8
1
  6
CONTINUOUS
 62
     7
 10
336.1138697591867
 20
44.47365863549714
 30
0.0
 11
336.1438244327487
 21
44.21337752608055
 31
0.0
  0
LINE
  5
A7
  8
1
  6
CONTINUOUS
 62
     7
 10
362.8887596832319
 20
46.87133082264566
 30
0.0
 11
363.079011766628
 21
46.69119841814612
 31
0.0
  0
LINE
  5
A8
  8
1
  6
CONTINUOUS
 62
     7
 10
363.8861302408133
 20
44.47365863549714
 30
0.0
 11
363.079011766628
 21
46.69119841814612
 31
0.0
  0
LINE
  5
A9
  8
1
  6
CONTINUOUS
 62
     7
 10
363.8861302408133
 20
44.47365863549714
 30
0.0
 11
363.8561755672513
 21
44.21337752608055
 31
0.0
  0
LINE
  5
AA
  8
1
  6
CONTINUOUS
 62
     7
 10
337.1112403167681
 20
46.87133082264566
 30
0.0
 11
339.1956792107334
 21
47.84332064185784
 31
0.0
  0
LINE
  5
AB
  8
1
  6
CONTINUOUS
 62
     7
 10
362.8887596832319
 20
46.87133082264566
 30
0.0
 11
360.8043207892666
 21
47.84332064185784
 31
0.0
  0
LINE
  5
AC
  8
1
  6
CONTINUOUS
 62
     7
 10
334.0
 20
21.06298714517882
 30
0.0
 11
337.0385891081611
 21
21.06298714517882
 31
0.0
  0
LINE
  5
AD
  8
1
  6
CONTINUOUS
 62
     7
 10
366.0000000000001
 20
21.06298714517882
 30
0.0
 11
362.9614108918389
 21
21.06298714517882
 31
0.0
  0
ARC
  5
AE
  8
1
  6
CONTINUOUS
 62
     7
 10
350.0
 20
30.56298714517881
 30
0.0
 40
14.49999999999998
 50
145.1667624039794
 51
213.2566919080707
  0
ARC
  5
AF
  8
1
  6
CONTINUOUS
 62
     7
 10
350.0
 20
30.56298714517881
 30
0.0
 40
14.49999999999998
 50
326.7433080919294
 51
34.83323759602058
  0
LINE
  5
B0
  8
1
  6
CONTINUOUS
 62
     7
 10
336.607314495373
 20
43.27104370015147
 30
0.0
 11
336.587541424785
 21
43.26182336591104
 31
0.0
  0
LINE
  5
B1
  8
1
  6
CONTINUOUS
 62
     7
 10
363.392685504627
 20
43.27104370015147
 30
0.0
 11
363.4124585752151
 21
43.26182336591104
 31
0.0
  0
ARC
  5
B2
  8
1
  6
CONTINUOUS
 62
     7
 10
340.5509568978146
 20
40.20472762116545
 30
0.0
 40
1.999910183174364
 50
314.4214550367365
 51
25.00027703861235
  0
ARC
  5
B3
  8
1
  6
CONTINUOUS
 62
     7
 10
359.4490431021854
 20
40.20472762116545
 30
0.0
 40
1.999910183174364
 50
154.9997229613876
 51
225.5785449632635
  0
LINE
  5
B4
  8
1
  6
CONTINUOUS
 62
     7
 10
359.7389149178394
 20
46.17096841170223
 30
0.0
 11
359.9441759077394
 21
45.99873399078199
 31
0.0
  0
LINE
  5
B5
  8
1
  6
CONTINUOUS
 62
     7
 10
340.2610850821607
 20
46.17096841170223
 30
0.0
 11
340.0558240922607
 21
45.99873399078199
 31
0.0
  0
ARC
  5
B6
  8
1
  6
CONTINUOUS
 62
     7
 10
339.6182974724742
 20
46.93701285482119
 30
0.0
 40
1.000000000000008
 50
310.0000000000001
 51
115.0000000000003
  0
ARC
  5
B7
  8
1
  6
CONTINUOUS
 62
     7
 10
360.3817025275259
 20
46.93701285482119
 30
0.0
 40
1.000000000000008
 50
64.99999999999972
 51
229.9999999999999
  0
LINE
  5
B8
  8
1
  6
CONTINUOUS
 62
     7
 10
370.0000000000001
 20
19.26298714517882
 30
0.0
 11
370.0000000000001
 21
12.06298714517882
 31
0.0
  0
LINE
  5
B9
  8
1
  6
CONTINUOUS
 62
     7
 10
359.9626068705402
 20
24.81107338664201
 30
0.0
 11
359.7765024420802
 21
24.91852082851078
 31
0.0
  0
ARC
  5
BA
  8
1
  6
CONTINUOUS
 62
     7
 10
360.0265030011435
 20
25.35153369354585
 30
0.0
 40
0.5000004208176452
 50
152.5360856138329
 51
239.9999538664436
  0
ARC
  5
BB
  8
1
  6
CONTINUOUS
 62
     7
 10
350.0
 20
30.56298714517881
 30
0.0
 40
10.8
 50
332.5360394802797
 51
27.46396051972022
  0
ARC
  5
BC
  8
1
  6
CONTINUOUS
 62
     7
 10
360.0265031254995
 20
35.77444056052288
 30
0.0
 40
0.5000005144228119
 50
120.0000563953244
 51
207.4639041244003
  0
LINE
  5
BD
  8
1
  6
CONTINUOUS
 62
     7
 10
359.9626068705402
 20
36.3149009037156
 30
0.0
 11
359.7765024420802
 21
36.20745346184684
 31
0.0
  0
ARC
  5
BE
  8
1
  6
CONTINUOUS
 62
     7
 10
339.9734968745006
 20
35.77444056052288
 30
0.0
 40
0.5000005144228119
 50
332.5360958755996
 51
59.99994360467559
  0
ARC
  5
BF
  8
1
  6
CONTINUOUS
 62
     7
 10
350.0
 20
30.56298714517881
 30
0.0
 40
10.8
 50
152.5360394802798
 51
207.4639605197202
  0
ARC
  5
C0
  8
1
  6
CONTINUOUS
 62
     7
 10
339.9734969988566
 20
25.35153369354585
 30
0.0
 40
0.5000004208176452
 50
300.0000461335565
 51
27.46391438616717
  0
LINE
  5
C1
  8
1
  6
CONTINUOUS
 62
     7
 10
340.0373931294599
 20
24.81107338664201
 30
0.0
 11
340.2234975579199
 21
24.91852082851078
 31
0.0
  0
LINE
  5
C2
  8
1
  6
CONTINUOUS
 62
     7
 10
340.0373931294599
 20
36.3149009037156
 30
0.0
 11
340.2234975579199
 21
36.20745346184684
 31
0.0
  0
LINE
  5
C3
  8
1
  6
CONTINUOUS
 62
     7
 10
343.2502570193169
 20
21.25155368557457
 30
0.0
 11
343.3289268377517
 21
21.18461850401724
 31
0.0
  0
ARC
  5
C4
  8
1
  6
CONTINUOUS
 62
     7
 10
349.9998807823129
 20
30.29844650081784
 30
0.0
 40
11.29440070502734
 50
233.7973792763928
 51
306.2263171498531
  0
LINE
  5
C5
  8
1
  6
CONTINUOUS
 62
     7
 10
356.6746034592251
 20
21.18737826092218
 30
0.0
 11
356.7497429806832
 21
21.25155368557457
 31
0.0
  0
LINE
  5
C6
  8
1
  6
CONTINUOUS
 62
     7
 10
330.0
 20
12.06298714517882
 30
0.0
 11
330.0
 21
19.26298714517882
 31
0.0
  0
LINE
  5
C7
  8
1
  6
CONTINUOUS
 62
     7
 10
336.1139028451461
 20
44.47380519682157
 30
0.0
 11
336.1138697591867
 21
44.47365863549714
 31
0.0
  0
LINE
  5
C8
  8
1
  6
CONTINUOUS
 62
     7
 10
336.920988233372
 20
46.69119841814612
 30
0.0
 11
336.920919370884
 21
46.69106487841321
 31
0.0
  0
LINE
  5
C9
  8
1
  6
CONTINUOUS
 62
     7
 10
363.886097154854
 20
44.47380519682157
 30
0.0
 11
363.8861302408133
 21
44.47365863549714
 31
0.0
  0
LINE
  5
CA
  8
1
  6
CONTINUOUS
 62
     7
 10
363.079011766628
 20
46.69119841814612
 30
0.0
 11
363.079080629116
 21
46.69106487841321
 31
0.0
  0
ENDBLK
  8
0
  0
BLOCK
  8
0
  2
D_FRAME_VIEW_5568
 70
     0
 10
0.0
 20
0.0
 30
0.0
  0
LINE
  5
CF
  8
1
  6
CONTINUOUS
 62
     7
 10
403.6756764674832
 20
12.06298714517882
 30
0.0
 11
403.55
 21
19.26298714517882
 31
0.0
  0
LINE
  5
D0
  8
1
  6
CONTINUOUS
 62
     7
 10
406.45
 20
19.26298714517882
 30
0.0
 11
406.3243235325168
 21
12.06298714517883
 31
0.0
  0
LINE
  5
D1
  8
1
  6
CONTINUOUS
 62
     7
 10
416.6
 20
19.56298714517882
 30
0.0
 11
416.7169510618118
 21
12.86286530130392
 31
0.0
  0
LINE
  5
D2
  8
1
  6
CONTINUOUS
 62
     7
 10
416.2852814130891
 20
19.56298714517882
 30
0.0
 11
416.3967398782087
 21
13.17753595504972
 31
0.0
  0
LINE
  5
D3
  8
1
  6
CONTINUOUS
 62
     7
 10
413.4
 20
19.56298714517882
 30
0.0
 11
416.6
 21
19.56298714517882
 31
0.0
  0
LINE
  5
D4
  8
1
  6
CONTINUOUS
 62
     7
 10
413.2830489381882
 20
12.86286530130392
 30
0.0
 11
413.4
 21
19.56298714517882
 31
0.0
  0
ARC
  5
D5
  8
1
  6
CONTINUOUS
 62
     7
 10
400.5
 20
20.48006286197374
 30
0.0
 40
0.4999999999999978
 50
90.5000000000001
 51
180.0
  0
LINE
  5
D6
  8
1
  6
CONTINUOUS
 62
     7
 10
400.4956367322508
 20
20.98004382350582
 30
0.0
 11
410.0
 21
21.06298714517882
 31
0.0
  0
LINE
  5
D7
  8
1
  6
CONTINUOUS
 62
     7
 10
410.0
 20
21.06298714517882
 30
0.0
 11
419.5043632677492
 21
20.98004382350582
 31
0.0
  0
ARC
  5
D8
  8
1
  6
CONTINUOUS
 62
     7
 10
419.5000000000001
 20
20.48006286197374
 30
0.0
 40
0.5000000000000004
 50
0.0000000000000035
 51
89.49999999999991
  0
LINE
  5
D9
  8
1
  6
CONTINUOUS
 62
     7
 10
413.6032601217913
 20
13.17753595504972
 30
0.0
 11
413.714718586911
 21
19.56298714517882
 31
0.0
  0
LINE
  5
DA
  8
1
  6
CONTINUOUS
 62
     7
 10
400.0
 20
14.56298714517882
 30
0.0
 11
392.5
 21
14.56298714517882
 31
0.0
  0
LINE
  5
DB
  8
1
  6
CONTINUOUS
 62
     7
 10
427.5000000000001
 20
14.56298714517882
 30
0.0
 11
420.0000000000001
 21
14.56298714517882
 31
0.0
  0
ARC
  5
DC
  8
1
  6
CONTINUOUS
 62
     7
 10
419.5481945363126
 20
46.23172687862879
 30
0.0
 40
0.4614245096977624
 50
11.71954250589408
 51
95.4508134035832
  0
LINE
  5
DD
  8
1
  6
CONTINUOUS
 62
     7
 10
410.0
 20
44.21337752608055
 30
0.0
 11
400.4956367322508
 21
44.17325871019408
 31
0.0
  0
ARC
  5
DE
  8
1
  6
CONTINUOUS
 62
     7
 10
419.8922598094971
 20
43.50817781320562
 30
0.0
 40
0.1077401905029141
 50
299.8534178676927
 51
359.9999999999964
  0
ARC
  5
DF
  8
1
  6
CONTINUOUS
 62
     7
 10
421.0693570286272
 20
41.45728632015643
 30
0.0
 40
2.256940290988279
 50
119.8534178677045
 51
122.5948817532453
  0
ARC
  5
E0
  8
1
  6
CONTINUOUS
 62
     7
 10
419.6587461269375
 20
43.6634312816315
 30
0.0
 40
0.3616277732422221
 50
273.5610781358312
 51
302.5948817532485
  0
ARC
  5
E1
  8
1
  6
CONTINUOUS
 62
     7
 10
419.5000000000002
 20
46.21427907585154
 30
0.0
 40
2.917410393516243
 50
269.9999999999968
 51
273.5610781358282
  0
ARC
  5
E2
  8
1
  6
CONTINUOUS
 62
     7
 10
419.5000000000002
 20
46.21427907584719
 30
0.0
 40
2.917410393511899
 50
266.4389218641597
 51
269.9999999999967
  0
ARC
  5
E3
  8
1
  6
CONTINUOUS
 62
     7
 10
419.3412538730626
 20
43.66343128163157
 30
0.0
 40
0.3616277732422397
 50
237.4051182467533
 51
266.4389218641691
  0
ARC
  5
E4
  8
1
  6
CONTINUOUS
 62
     7
 10
417.9306429713725
 20
41.45728632015617
 30
0.0
 40
2.256940290988704
 50
57.40511824675167
 51
60.14658213229191
  0
ARC
  5
E5
  8
1
  6
CONTINUOUS
 62
     7
 10
419.107740190503
 20
43.50817781320566
 30
0.0
 40
0.1077401905029141
 50
179.9999999999964
 51
240.1465821323054
  0
ARC
  5
E6
  8
1
  6
CONTINUOUS
 62
     7
 10
419.107740190503
 20
43.50817781320566
 30
0.0
 40
0.1077401905029141
 50
119.8534178676926
 51
179.9999999999964
  0
ARC
  5
E7
  8
1
  6
CONTINUOUS
 62
     7
 10
417.9306429713728
 20
45.55906930625486
 30
0.0
 40
2.256940290988279
 50
299.8534178677045
 51
302.5948817532453
  0
ARC
  5
E8
  8
1
  6
CONTINUOUS
 62
     7
 10
419.3412538730626
 20
43.35292434477978
 30
0.0
 40
0.3616277732422221
 50
93.56107813583124
 51
122.5948817532485
  0
ARC
  5
E9
  8
1
  6
CONTINUOUS
 62
     7
 10
419.4999999999999
 20
40.80207655055975
 30
0.0
 40
2.917410393516243
 50
89.99999999999682
 51
93.56107813582821
  0
ARC
  5
EA
  8
1
  6
CONTINUOUS
 62
     7
 10
419.4999999999999
 20
40.8020765505641
 30
0.0
 40
2.917410393511899
 50
86.43892186415985
 51
89.9999999999967
  0
ARC
  5
EB
  8
1
  6
CONTINUOUS
 62
     7
 10
419.6587461269375
 20
43.35292434477972
 30
0.0
 40
0.3616277732422397
 50
57.40511824675332
 51
86.4389218641691
  0
ARC
  5
EC
  8
1
  6
CONTINUOUS
 62
     7
 10
421.0693570286276
 20
45.55906930625511
 30
0.0
 40
2.256940290988704
 50
237.4051182467517
 51
240.1465821322919
  0
ARC
  5
ED
  8
1
  6
CONTINUOUS
 62
     7
 10
419.8922598094971
 20
43.50817781320562
 30
0.0
 40
0.1077401905029141
 50
359.9999999999963
 51
60.14658213230548
  0
ARC
  5
EE
  8
1
  6
CONTINUOUS
 62
     7
 10
407.4532935601626
 20
42.31753612220801
 30
0.0
 40
0.95465082240466
 50
87.19567555234927
 51
176.9443844865588
  0
LINE
  5
EF
  8
1
  6
CONTINUOUS
 62
     7
 10
406.5
 20
40.76454074424122
 30
0.0
 11
406.5
 21
42.36842404681099
 31
0.0
  0
ARC
  5
F0
  8
1
  6
CONTINUOUS
 62
     7
 10
407.911248986784
 20
40.76722982227854
 30
0.0
 40
1.411289983304733
 50
180.1091746653464
 51
181.7488565582537
  0
ARC
  5
F1
  8
1
  6
CONTINUOUS
 62
     7
 10
407.9112489867836
 20
40.76722982227853
 30
0.0
 40
1.411289983304288
 50
181.7488565582537
 51
199.6887531051854
  0
ARC
  5
F2
  8
1
  6
CONTINUOUS
 62
     7
 10
407.525440381547
 20
40.62917577770286
 30
0.0
 40
1.001525173811908
 50
199.6887531051705
 51
225.0725378875351
  0
ARC
  5
F3
  8
1
  6
CONTINUOUS
 62
     7
 10
407.6711434819943
 20
40.77524827353805
 30
0.0
 40
1.207841841872154
 50
225.0725378875354
 51
230.7788874616846
  0
ARC
  5
F4
  8
1
  6
CONTINUOUS
 62
     7
 10
400.4415043232617
 20
46.38556046616169
 30
0.0
 40
0.4487009803294819
 50
83.30320586064568
 51
169.7244114594366
  0
ARC
  5
F5
  8
1
  6
CONTINUOUS
 62
     7
 10
419.6009537413723
 20
46.7173393472761
 30
0.0
 40
0.3990462586277443
 50
0.0
 51
12.71866098532091
  0
ARC
  5
F6
  8
1
  6
CONTINUOUS
 62
     7
 10
400.3990462586278
 20
46.71733934727609
 30
0.0
 40
0.3990462586277443
 50
167.281339677992
 51
180.0
  0
ARC
  5
F7
  8
1
  6
CONTINUOUS
 62
     7
 10
407.4220512694998
 20
42.79971638595299
 30
0.0
 40
0.9615905227006011
 50
198.4476407211865
 51
274.6496288406179
  0
ARC
  5
F8
  8
1
  6
CONTINUOUS
 62
     7
 10
407.593075313341
 20
40.52568159297721
 30
0.0
 40
0.9741257443695723
 50
225.0449294361679
 51
264.5171654036496
  0
LINE
  5
F9
  8
1
  6
CONTINUOUS
 62
     7
 10
407.5
 20
39.55601260208906
 30
0.0
 11
409.9999999999996
 21
39.51671320222204
 31
0.0
  0
LINE
  5
FA
  8
1
  6
CONTINUOUS
 62
     7
 10
409.9999999999996
 20
39.51671320222204
 30
0.0
 11
419.5047576042854
 21
39.65370582610391
 31
0.0
  0
ARC
  5
FB
  8
1
  6
CONTINUOUS
 62
     7
 10
419.4283714487663
 20
40.22021403270426
 30
0.0
 40
0.5716348422730515
 50
277.6792644413588
 51
0.2688065708297813
  0
LINE
  5
FC
  8
1
  6
CONTINUOUS
 62
     7
 10
420.0000000000001
 20
41.84129042180081
 30
0.0
 11
407.5
 21
41.84129042180085
 31
0.0
  0
ARC
  5
FD
  8
1
  6
CONTINUOUS
 62
     7
 10
419.5690392379882
 20
41.93853864551127
 30
0.0
 40
0.4309607620117673
 50
0.000000000001819
 51
3.931925570768271
  0
ARC
  5
FE
  8
1
  6
CONTINUOUS
 62
     7
 10
412.7019074827434
 20
42.8743836873597
 30
0.0
 40
0.7980925172566544
 50
333.9619126979905
 51
0.0
  0
ARC
  5
FF
  8
1
  6
CONTINUOUS
 62
     7
 10
412.494831951927
 20
42.9755516259093
 30
0.0
 40
1.028559927649677
 50
313.8281072707446
 51
333.9619126979781
  0
ARC
  5
100
  8
1
  6
CONTINUOUS
 62
     7
 10
412.581638287925
 20
42.88511966082055
 30
0.0
 40
0.9032073039068133
 50
289.2387169348524
 51
313.8281072707443
  0
ARC
  5
101
  8
1
  6
CONTINUOUS
 62
     7
 10
412.5
 20
43.11904380469056
 30
0.0
 40
1.150967904367514
 50
270.0
 51
289.2387169348535
  0
LINE
  5
102
  8
1
  6
CONTINUOUS
 62
     7
 10
413.5
 20
43.27473183384765
 30
0.0
 11
413.5
 21
42.8743836873597
 31
0.0
  0
ARC
  5
103
  8
1
  6
CONTINUOUS
 62
     7
 10
407.2980925172566
 20
42.74759820883747
 30
0.0
 40
0.7980925172565989
 50
193.7327219011639
 51
206.0380873020108
  0
ARC
  5
104
  8
1
  6
CONTINUOUS
 62
     7
 10
407.505168048073
 20
42.84876614738702
 30
0.0
 40
1.028559927649604
 50
206.0380873020205
 51
226.1718927292557
  0
ARC
  5
105
  8
1
  6
CONTINUOUS
 62
     7
 10
407.418361712075
 20
42.75833418229826
 30
0.0
 40
0.9032073039067348
 50
226.1718927292557
 51
250.7612830651496
  0
ARC
  5
106
  8
1
  6
CONTINUOUS
 62
     7
 10
407.5
 20
42.99225832616821
 30
0.0
 40
1.150967904367403
 50
250.7612830651446
 51
270.0
  0
ARC
  5
107
  8
1
  6
CONTINUOUS
 62
     7
 10
412.5197864909564
 20
43.82302394807624
 30
0.0
 40
1.019123955912876
 50
268.8875213341355
 51
327.4223016023151
  0
LINE
  5
108
  8
1
  6
CONTINUOUS
 62
     7
 10
392.5
 20
14.56298714517882
 30
0.0
 11
392.5
 21
12.06298714517881
 31
0.0
  0
LINE
  5
109
  8
1
  6
CONTINUOUS
 62
     7
 10
427.5000000000001
 20
12.06298714517881
 30
0.0
 11
427.5000000000001
 21
14.56298714517882
 31
0.0
  0
ARC
  5
10A
  8
1
  6
CONTINUOUS
 62
     7
 10
400.6897317345132
 20
46.67864113189992
 30
0.0
 40
0.6919147061611418
 50
110.2833064231118
 51
169.4555427892042
  0
ARC
  5
10B
  8
1
  6
CONTINUOUS
 62
     7
 10
419.3239954509057
 20
46.69021302079603
 30
0.0
 40
0.6763597830607585
 50
9.793512775524448
 51
70.46763801216166
  0
LINE
  5
10C
  8
1
  6
CONTINUOUS
 62
     7
 10
401.5093884794788
 20
47.78380574430915
 30
0.0
 11
400.448728307699
 21
47.32716238283538
 31
0.0
  0
LINE
  5
10D
  8
1
  6
CONTINUOUS
 62
     7
 10
419.5512716923011
 20
47.3271623828354
 30
0.0
 11
418.4906115205213
 21
47.78380574430916
 31
0.0
  0
LINE
  5
10E
  8
1
  6
CONTINUOUS
 62
     7
 10
418.1158726164767
 20
47.86618670749056
 30
0.0
 11
410.0
 21
47.93701285482118
 31
0.0
  0
LINE
  5
10F
  8
1
  6
CONTINUOUS
 62
     7
 10
418.4906046572027
 20
47.7838086990073
 30
0.0
 11
418.1158715381956
 21
47.86618671690046
 31
0.0
  0
LINE
  5
110
  8
1
  6
CONTINUOUS
 62
     7
 10
401.8841281785881
 20
47.86618671442896
 30
0.0
 11
401.5093953427975
 21
47.7838086990073
 31
0.0
  0
LINE
  5
111
  8
1
  6
CONTINUOUS
 62
     7
 10
410.0
 20
47.93701285482118
 30
0.0
 11
401.8841237749926
 21
47.86618667599939
 31
0.0
  0
ENDBLK
  8
0
  0
BLOCK
  8
0
  2
D_FRAME_VIEW_5391
 70
     0
 10
0.0
 20
0.0
 30
0.0
  0
ARC
  5
116
  8
1
  6
CONTINUOUS
 62
     7
 10
337.3869508354173
 20
89.53761760366852
 30
0.0
 40
0.4672164132310296
 50
98.2491239366816
 51
184.0815036492116
  0
ARC
  5
117
  8
1
  6
CONTINUOUS
 62
     7
 10
362.6130491645828
 20
89.53761760366852
 30
0.0
 40
0.4672164132310296
 50
355.9184963507884
 51
81.7508760633184
  0
ARC
  5
118
  8
1
  6
CONTINUOUS
 62
     7
 10
362.3263476593665
 20
70.45106048094598
 30
0.0
 40
0.4541853083232908
 50
276.7248626327724
 51
5.403366573807772
  0
ARC
  5
119
  8
1
  6
CONTINUOUS
 62
     7
 10
337.6736523406336
 20
70.45106048094598
 30
0.0
 40
0.4541853083232908
 50
174.5966334261922
 51
263.2751373672274
  0
ARC
  5
11A
  8
1
  6
CONTINUOUS
 62
     7
 10
363.2245219376265
 20
70.521800903069
 30
0.0
 40
0.5221552832829638
 50
267.8889569468988
 51
356.9292630811793
  0
ARC
  5
11B
  8
1
  6
CONTINUOUS
 62
     7
 10
336.7754780623735
 20
70.521800903069
 30
0.0
 40
0.5221552832829638
 50
183.0707369188208
 51
272.1110430531012
  0
ARC
  5
11C
  8
1
  6
CONTINUOUS
 62
     7
 10
336.6361648592654
 20
89.47736432055699
 30
0.0
 40
0.5229594195933831
 50
87.9838431106699
 51
177.0406618917768
  0
ARC
  5
11D
  8
1
  6
CONTINUOUS
 62
     7
 10
363.3638351407346
 20
89.47736432055699
 30
0.0
 40
0.5229594195933831
 50
2.959338108223196
 51
92.01615688933006
  0
ARC
  5
11E
  8
1
  6
CONTINUOUS
 62
     7
 10
339.2929371347644
 20
89.60853380570398
 30
0.0
 40
0.1021622471259865
 50
39.86012610575534
 51
41.12428597222532
  0
ARC
  5
11F
  8
1
  6
CONTINUOUS
 62
     7
 10
339.2929371347644
 20
89.60853380570397
 30
0.0
 40
0.1021622471259954
 50
37.86173493188886
 51
39.86012610576131
  0
ARC
  5
120
  8
1
  6
CONTINUOUS
 62
     7
 10
360.7070628652356
 20
89.60853380570398
 30
0.0
 40
0.1021622471259865
 50
138.8757133092454
 51
140.1398738942447
  0
ARC
  5
121
  8
1
  6
CONTINUOUS
 62
     7
 10
360.7070628652356
 20
89.60853380570397
 30
0.0
 40
0.1021622471259954
 50
140.1398738942387
 51
142.2819225567314
  0
ARC
  5
122
  8
1
  6
CONTINUOUS
 62
     7
 10
339.6652521419644
 20
88.40381496548716
 30
0.0
 40
1.596185034512837
 50
87.7257337707185
 51
90.0
  0
LINE
  5
123
  8
1
  6
CONTINUOUS
 62
     7
 10
340.9136939908665
 20
90.0
 30
0.0
 11
341.4570504879471
 21
89.88923062850508
 31
0.0
  0
LINE
  5
124
  8
1
  6
CONTINUOUS
 62
     7
 10
359.0863060091335
 20
90.0
 30
0.0
 11
358.5429495120529
 21
89.88923062850508
 31
0.0
  0
ARC
  5
125
  8
1
  6
CONTINUOUS
 62
     7
 10
360.3347478580357
 20
88.40381496548716
 30
0.0
 40
1.596185034512837
 50
90.00000000000006
 51
92.27426622928151
  0
ARC
  5
126
  8
1
  6
CONTINUOUS
 62
     7
 10
339.2929371347644
 20
70.39146619429603
 30
0.0
 40
0.1021622471259528
 50
320.1398738942187
 51
322.3014562099327
  0
ARC
  5
127
  8
1
  6
CONTINUOUS
 62
     7
 10
339.2929371347644
 20
70.39146619429602
 30
0.0
 40
0.102162247125935
 50
318.8757122390634
 51
320.1398738942307
  0
ARC
  5
128
  8
1
  6
CONTINUOUS
 62
     7
 10
360.7070628652356
 20
70.39146619429603
 30
0.0
 40
0.1021622471259528
 50
218.0424609848954
 51
219.8601261057813
  0
ARC
  5
129
  8
1
  6
CONTINUOUS
 62
     7
 10
360.7070628652356
 20
70.39146619429602
 30
0.0
 40
0.102162247125935
 50
219.8601261057693
 51
221.1242874076086
  0
LINE
  5
12A
  8
1
  6
CONTINUOUS
 62
     7
 10
339.45670265321
 20
90.0
 30
0.0
 11
339.45670265321
 21
89.99877843551178
 31
0.0
  0
LINE
  5
12B
  8
1
  6
CONTINUOUS
 62
     7
 10
360.54329734679
 20
90.0
 30
0.0
 11
360.54329734679
 21
89.99877843551178
 31
0.0
  0
LINE
  5
12C
  8
1
  6
CONTINUOUS
 62
     7
 10
341.4570504879476
 20
70.11076937149511
 30
0.0
 11
340.9136939908665
 21
70.0
 31
0.0
  0
LINE
  5
12D
  8
1
  6
CONTINUOUS
 62
     7
 10
358.5429495120525
 20
70.11076937149511
 30
0.0
 11
359.0863060091335
 21
70.0
 31
0.0
  0
ARC
  5
12E
  8
1
  6
CONTINUOUS
 62
     7
 10
341.3980027651549
 20
89.46384148370912
 30
0.0
 40
0.4286657835786716
 50
53.31715587823629
 51
65.33947484148109
  0
ARC
  5
12F
  8
1
  6
CONTINUOUS
 62
     7
 10
341.398002765155
 20
89.46384148370923
 30
0.0
 40
0.4286657835785475
 50
65.33947484148163
 51
82.09734374269246
  0
ARC
  5
130
  8
1
  6
CONTINUOUS
 62
     7
 10
358.6019972348452
 20
89.46384148370912
 30
0.0
 40
0.4286657835786716
 50
114.6605251585189
 51
126.6828442255609
  0
ARC
  5
131
  8
1
  6
CONTINUOUS
 62
     7
 10
358.6019972348451
 20
89.46384148370923
 30
0.0
 40
0.4286657835785475
 50
97.90265625730751
 51
114.6605251585184
  0
ARC
  5
132
  8
1
  6
CONTINUOUS
 62
     7
 10
341.3980027651557
 20
70.53615851628992
 30
0.0
 40
0.4286657835778264
 50
277.902656257313
 51
294.6605251585218
  0
ARC
  5
133
  8
1
  6
CONTINUOUS
 62
     7
 10
341.3980027651556
 20
70.53615851629002
 30
0.0
 40
0.4286657835779378
 50
294.6605251585231
 51
306.6828507505446
  0
ARC
  5
134
  8
1
  6
CONTINUOUS
 62
     7
 10
358.6019972348444
 20
70.53615851628992
 30
0.0
 40
0.4286657835778264
 50
245.3394748414782
 51
262.0973437426872
  0
ARC
  5
135
  8
1
  6
CONTINUOUS
 62
     7
 10
358.6019972348444
 20
70.53615851629002
 30
0.0
 40
0.4286657835779378
 50
233.317149388774
 51
245.3394748414769
  0
ARC
  5
136
  8
1
  6
CONTINUOUS
 62
     7
 10
350.0
 20
80.0
 30
0.0
 40
6.749999999999993
 50
0.5
 51
179.5
  0
ARC
  5
137
  8
1
  6
CONTINUOUS
 62
     7
 10
331.0
 20
85.45020717192929
 30
0.0
 40
0.9997928280707086
 50
90.0
 51
112.5052675966721
  0
ARC
  5
138
  8
1
  6
CONTINUOUS
 62
     7
 10
331.0001465545781
 20
85.44985344986341
 30
0.0
 40
1.000175708658111
 50
112.5052675966668
 51
135.0018074394021
  0
ARC
  5
139
  8
1
  6
CONTINUOUS
 62
     7
 10
331.000005817369
 20
85.4499941781934
 30
0.0
 40
0.9999766824666846
 50
135.0018074394014
 51
157.5052669320338
  0
ARC
  5
13A
  8
1
  6
CONTINUOUS
 62
     7
 10
331.0003596066975
 20
85.44984767195609
 30
0.0
 40
1.000359606697476
 50
157.5052669320397
 51
180.0
  0
LINE
  5
13B
  8
1
  6
CONTINUOUS
 62
     7
 10
334.0000000000001
 20
83.55
 30
0.0
 11
331.0
 21
83.55
 31
0.0
  0
ARC
  5
13C
  8
1
  6
CONTINUOUS
 62
     7
 10
331.0003596066975
 20
84.55015232804391
 30
0.0
 40
1.000359606697476
 50
180.0
 51
202.4947330679603
  0
ARC
  5
13D
  8
1
  6
CONTINUOUS
 62
     7
 10
331.000005817369
 20
84.55000582180661
 30
0.0
 40
0.9999766824666846
 50
202.4947330679662
 51
224.9981925605986
  0
ARC
  5
13E
  8
1
  6
CONTINUOUS
 62
     7
 10
331.0001465545781
 20
84.55014655013659
 30
0.0
 40
1.000175708658111
 50
224.9981925605979
 51
247.4947324033332
  0
ARC
  5
13F
  8
1
  6
CONTINUOUS
 62
     7
 10
331.0
 20
84.54979282807072
 30
0.0
 40
0.9997928280707086
 50
247.4947324033279
 51
270.0
  0
LINE
  5
140
  8
1
  6
CONTINUOUS
 62
     7
 10
330.0
 20
85.44984767195609
 30
0.0
 11
330.0
 21
84.55015232804391
 31
0.0
  0
LINE
  5
141
  8
1
  6
CONTINUOUS
 62
     7
 10
334.0
 20
86.45000000000002
 30
0.0
 11
331.0
 21
86.45000000000002
 31
0.0
  0
ARC
  5
142
  8
1
  6
CONTINUOUS
 62
     7
 10
369.0000000000001
 20
74.54979282807071
 30
0.0
 40
0.9997928280707086
 50
270.0
 51
292.5052675966721
  0
ARC
  5
143
  8
1
  6
CONTINUOUS
 62
     7
 10
368.999853445422
 20
74.55014655013659
 30
0.0
 40
1.000175708658111
 50
292.5052675966668
 51
315.0018074394021
  0
ARC
  5
144
  8
1
  6
CONTINUOUS
 62
     7
 10
368.999994182631
 20
74.5500058218066
 30
0.0
 40
0.9999766824666846
 50
315.0018074394013
 51
337.5052669320338
  0
ARC
  5
145
  8
1
  6
CONTINUOUS
 62
     7
 10
368.9996403933026
 20
74.55015232804391
 30
0.0
 40
1.000359606697476
 50
337.5052669320397
 51
0.0
  0
LINE
  5
146
  8
1
  6
CONTINUOUS
 62
     7
 10
366.0
 20
76.45
 30
0.0
 11
369.0000000000001
 21
76.45
 31
0.0
  0
ARC
  5
147
  8
1
  6
CONTINUOUS
 62
     7
 10
368.9996403933026
 20
75.44984767195609
 30
0.0
 40
1.000359606697476
 50
0.0
 51
22.49473306796027
  0
ARC
  5
148
  8
1
  6
CONTINUOUS
 62
     7
 10
368.999994182631
 20
75.44999417819339
 30
0.0
 40
0.9999766824666846
 50
22.49473306796618
 51
44.99819256059861
  0
ARC
  5
149
  8
1
  6
CONTINUOUS
 62
     7
 10
368.999853445422
 20
75.44985344986341
 30
0.0
 40
1.000175708658111
 50
44.99819256059791
 51
67.49473240333316
  0
ARC
  5
14A
  8
1
  6
CONTINUOUS
 62
     7
 10
369.0000000000001
 20
75.45020717192928
 30
0.0
 40
0.9997928280707086
 50
67.4947324033279
 51
90.00000000000001
  0
LINE
  5
14B
  8
1
  6
CONTINUOUS
 62
     7
 10
370.0000000000001
 20
74.55015232804391
 30
0.0
 11
370.0000000000001
 21
75.44984767195609
 31
0.0
  0
LINE
  5
14C
  8
1
  6
CONTINUOUS
 62
     7
 10
366.0000000000001
 20
73.55
 30
0.0
 11
369.0000000000001
 21
73.55
 31
0.0
  0
ARC
  5
14D
  8
1
  6
CONTINUOUS
 62
     7
 10
351.9
 20
80.0
 30
0.0
 40
2.600000000000001
 50
270.0
 51
90.00000000000124
  0
LINE
  5
14E
  8
1
  6
CONTINUOUS
 62
     7
 10
351.9
 20
82.60000000000001
 30
0.0
 11
348.1000000000001
 21
82.60000000000001
 31
0.0
  0
ARC
  5
14F
  8
1
  6
CONTINUOUS
 62
     7
 10
348.1
 20
80.0
 30
0.0
 40
2.600000000000001
 50
89.99999999999875
 51
270.0
  0
LINE
  5
150
  8
1
  6
CONTINUOUS
 62
     7
 10
348.1
 20
77.39999999999999
 30
0.0
 11
351.9
 21
77.39999999999999
 31
0.0
  0
ARC
  5
151
  8
1
  6
CONTINUOUS
 62
     7
 10
350.0
 20
80.0
 30
0.0
 40
17.49999999999998
 50
216.0562346850294
 51
325.1500954209534
  0
ARC
  5
152
  8
1
  6
CONTINUOUS
 62
     7
 10
350.0
 20
80.0
 30
0.0
 40
17.49999999999998
 50
36.0556978441839
 51
145.1500954209536
  0
LINE
  5
153
  8
1
  6
CONTINUOUS
 62
     7
 10
340.5492973681378
 20
72.09337118531748
 30
0.0
 11
340.6182974724742
 21
80.0
 31
0.0
  0
LINE
  5
154
  8
1
  6
CONTINUOUS
 62
     7
 10
359.3817025275259
 20
80.0
 30
0.0
 11
359.4507000445271
 21
72.0936676645539
 31
0.0
  0
LINE
  5
155
  8
1
  6
CONTINUOUS
 62
     7
 10
340.6182974724742
 20
80.0
 30
0.0
 11
340.5492995754005
 21
87.90637588743472
 31
0.0
  0
LINE
  5
156
  8
1
  6
CONTINUOUS
 62
     7
 10
359.4507026029486
 20
87.9066255015069
 30
0.0
 11
359.3817025275259
 21
80.0
 31
0.0
  0
ARC
  5
157
  8
1
  6
CONTINUOUS
 62
     7
 10
360.4640521265758
 20
87.80303960899903
 30
0.0
 40
1.018628624913628
 50
137.3307188986361
 51
174.1643157960186
  0
ARC
  5
158
  8
1
  6
CONTINUOUS
 62
     7
 10
339.5493561065518
 20
87.80908027650447
 30
0.0
 40
1.00468643132319
 50
5.570724875692544
 51
42.93424042965303
  0
ARC
  5
159
  8
1
  6
CONTINUOUS
 62
     7
 10
360.4460570337966
 20
72.18885565974205
 30
0.0
 40
0.9999235731111794
 50
185.4794533875279
 51
223.0266772710657
  0
ARC
  5
15A
  8
1
  6
CONTINUOUS
 62
     7
 10
339.534338903884
 20
72.19768790757242
 30
0.0
 40
1.020304901882751
 50
317.3619176380476
 51
354.1319517033572
  0
ARC
  5
15B
  8
1
  6
CONTINUOUS
 62
     7
 10
361.308149348175
 20
89.13684029753786
 30
0.0
 40
0.8658687243252424
 50
98.4103425926147
 51
142.360547647086
  0
ARC
  5
15C
  8
1
  6
CONTINUOUS
 62
     7
 10
338.6891567140156
 20
89.13224591807003
 30
0.0
 40
0.8708099958865874
 50
37.77058287830262
 51
81.45852688199398
  0
ARC
  5
15D
  8
1
  6
CONTINUOUS
 62
     7
 10
338.6918506518251
 20
70.86315970246184
 30
0.0
 40
0.8658687243249598
 50
278.4103425926137
 51
322.360547647096
  0
ARC
  5
15E
  8
1
  6
CONTINUOUS
 62
     7
 10
361.3108432859844
 20
70.86775408192966
 30
0.0
 40
0.8708099958862687
 50
217.7705828782934
 51
261.4585268819982
  0
ARC
  5
15F
  8
1
  6
CONTINUOUS
 62
     7
 10
340.92602941512
 20
88.45532022062469
 30
0.0
 40
1.536186045070662
 50
359.4013264024823
 51
61.70070520578338
  0
ARC
  5
160
  8
1
  6
CONTINUOUS
 62
     7
 10
359.0699654673163
 20
88.4576842211745
 30
0.0
 40
1.532207735331087
 50
118.2093346482281
 51
180.6886337435061
  0
ARC
  5
161
  8
1
  6
CONTINUOUS
 62
     7
 10
340.9300345326835
 20
71.54231577882561
 30
0.0
 40
1.532207735331344
 50
298.2093346482724
 51
0.6886337435017822
  0
ARC
  5
162
  8
1
  6
CONTINUOUS
 62
     7
 10
359.0739705848802
 20
71.54467977937531
 30
0.0
 40
1.536186045070718
 50
179.4013264024823
 51
241.7007052057443
  0
LINE
  5
163
  8
1
  6
CONTINUOUS
 62
     7
 10
342.462129311248
 20
71.5662516764784
 30
0.0
 11
342.5508089800411
 21
79.9999996107981
 31
0.0
  0
LINE
  5
164
  8
1
  6
CONTINUOUS
 62
     7
 10
357.449191019959
 20
79.9999996107981
 30
0.0
 11
357.5378706887521
 21
71.5662516764784
 31
0.0
  0
LINE
  5
165
  8
1
  6
CONTINUOUS
 62
     7
 10
335.582943321673
 20
89.50436326774918
 30
0.0
 11
335.5
 21
80.0
 31
0.0
  0
LINE
  5
166
  8
1
  6
CONTINUOUS
 62
     7
 10
364.5000000000001
 20
80.0
 30
0.0
 11
364.417056678327
 21
89.50436326774918
 31
0.0
  0
LINE
  5
167
  8
1
  6
CONTINUOUS
 62
     7
 10
335.5
 20
80.0
 30
0.0
 11
335.582943321673
 21
70.49563673225083
 31
0.0
  0
LINE
  5
168
  8
1
  6
CONTINUOUS
 62
     7
 10
364.417056678327
 20
70.49563673225083
 30
0.0
 11
364.5000000000001
 21
80.0
 31
0.0
  0
ARC
  5
169
  8
1
  6
CONTINUOUS
 62
     7
 10
336.0829242832051
 20
70.5
 30
0.0
 40
0.5000000000000014
 50
180.4999999999989
 51
270.0000000000004
  0
ARC
  5
16A
  8
1
  6
CONTINUOUS
 62
     7
 10
363.917075716795
 20
70.5
 30
0.0
 40
0.5000000000000004
 50
269.9999999999996
 51
359.5000000000011
  0
ARC
  5
16B
  8
1
  6
CONTINUOUS
 62
     7
 10
363.917075716795
 20
89.5
 30
0.0
 40
0.5000000000000016
 50
0.499999999999884
 51
90.0000000000004
  0
ARC
  5
16C
  8
1
  6
CONTINUOUS
 62
     7
 10
336.0829242832051
 20
89.5
 30
0.0
 40
0.5000000000000004
 50
89.99999999999962
 51
179.5000000000001
  0
ENDBLK
  8
0
  0
ENDSEC
  0
SECTION
  2
ENTITIES
  0
LINE
  5
70
  8
1
  6
CONTINUOUS
 62
     7
 10
356.8375257070113
 20
21.21254008108129
 30
0.0
 11
356.8375257070113
 21
16.06294906824298
 31
0.0
  0
LINE
  5
71
  8
1
  6
CONTINUOUS
 62
     7
 10
336.1139028451461
 20
89.50436326774918
 30
0.0
 11
336.084050371958
 21
80.00018774943115
 31
0.0
  0
LINE
  5
72
  8
1
  6
CONTINUOUS
 62
     7
 10
360.5432973467899
 20
41.84129042180044
 30
0.0
 11
358.4587894366057
 21
42.81331242380445
 31
0.0
  0
LINE
  5
73
  8
1
  6
CONTINUOUS
 62
     7
 10
343.2497429708963
 20
79.99999999999997
 30
0.0
 11
343.1624742929887
 21
70.0
 31
0.0
  0
LINE
  5
74
  8
1
  6
CONTINUOUS
 62
     7
 10
362.7785131850148
 20
70.4938296425122
 30
0.0
 11
362.9989959954231
 21
89.50529203823194
 31
0.0
  0
LINE
  5
75
  8
1
  6
CONTINUOUS
 62
     7
 10
363.8561755673315
 20
79.99999999999909
 30
0.0
 11
363.7459290690342
 21
70.4938296425122
 31
0.0
  0
LINE
  5
76
  8
1
  6
CONTINUOUS
 62
     7
 10
356.7502570291038
 20
79.99999999999997
 30
0.0
 11
356.8375257070113
 21
70.0
 31
0.0
  0
LINE
  5
77
  8
1
  6
CONTINUOUS
 62
     7
 10
339.4567026532102
 20
41.84129042180044
 30
0.0
 11
341.5412105633943
 21
42.81331242380445
 31
0.0
  0
LINE
  5
78
  8
1
  6
CONTINUOUS
 62
     7
 10
336.1438244327487
 20
80.00000000000001
 30
0.0
 11
336.2540709309658
 21
70.4938296425122
 31
0.0
  0
LINE
  5
79
  8
1
  6
CONTINUOUS
 62
     7
 10
337.2214868149853
 20
70.4938296425122
 30
0.0
 11
337.0010040045769
 21
89.50529203823194
 31
0.0
  0
LINE
  5
7A
  8
1
  6
CONTINUOUS
 62
     7
 10
363.886097154854
 20
89.50436326774918
 30
0.0
 11
363.915949628042
 21
80.00018774943115
 31
0.0
  0
LINE
  5
7B
  8
1
  6
CONTINUOUS
 62
     7
 10
343.1624742929887
 20
21.21254008108129
 30
0.0
 11
343.1624742929887
 21
16.06294906824298
 31
0.0
  0
LINE
  5
7C
  8
1
  6
CONTINUOUS
 62
     7
 10
334.0
 20
70.0
 30
0.0
 11
366.0000000000001
 21
70.0
 31
0.0
  0
ARC
  5
7D
  8
1
  6
CONTINUOUS
 62
     7
 10
350.0
 20
30.56298714517881
 30
0.0
 40
11.49999999999999
 50
134.4217320753472
 51
234.0570883835362
  0
ARC
  5
7E
  8
1
  6
CONTINUOUS
 62
     7
 10
350.0
 20
30.56298714517881
 30
0.0
 40
11.49999999999999
 50
305.9429116164638
 51
45.57826792465278
  0
LINE
  5
7F
  8
1
  6
CENTER
 62
     1
 10
410.0
 20
10.06298714517881
 30
0.0
 11
410.0
 21
48.46560109515682
 31
0.0
  0
LINE
  5
81
  8
1
  6
CENTER
 62
     1
 10
350.0
 20
14.06298714517883
 30
0.0
 11
350.0
 21
47.06298714517879
 31
0.0
  0
LINE
  5
82
  8
1
  6
CENTER
 62
     1
 10
333.5000000000001
 20
30.56298714517881
 30
0.0
 11
366.5
 21
30.56298714517881
 31
0.0
  0
LINE
  5
83
  8
1
  6
CENTER
 62
     1
 10
330.5000000000001
 20
80.0
 30
0.0
 11
369.5
 21
80.0
 31
0.0
  0
LINE
  5
84
  8
1
  6
CENTER
 62
     1
 10
350.0
 20
60.50000000000002
 30
0.0
 11
350.0
 21
99.49999999999997
 31
0.0
  0
TEXT
  5
85
  8
1
  6
CONTINUOUS
 62
     7
 10
368.3857852944855
 20
-7.785966612479685
 30
0.0
 40
5.0
  1
LSYD-P16
  0
INSERT
  5
CB
  8
1
  6
CONTINUOUS
 62
     7
  2
D_FRAME_VIEW_4718
 10
0.0
 20
0.0
 30
0.0
  0
INSERT
  5
112
  8
1
  6
CONTINUOUS
 62
     7
  2
D_FRAME_VIEW_5568
 10
0.0
 20
0.0
 30
0.0
  0
INSERT
  5
16D
  8
1
  6
CONTINUOUS
 62
     7
  2
D_FRAME_VIEW_5391
 10
0.0
 20
0.0
 30
0.0
  0
LINE
  5
16E
  8
1
  6
CONTINUOUS
 62
     7
 10
412.4690870130384
 20
12.06298714517881
 30
0.0
 11
413.6032601217913
 21
13.17753595504972
 31
0.0
  0
LINE
  5
16F
  8
1
  6
CONTINUOUS
 62
     7
 10
416.3967398782087
 20
13.17753595504972
 30
0.0
 11
417.5309129869617
 21
12.06298714517882
 31
0.0
  0
LINE
  5
170
  8
1
  6
CONTINUOUS
 62
     7
 10
420.0000000000001
 20
12.06298714517881
 30
0.0
 11
420.0000000000001
 21
46.71733934727609
 31
0.0
  0
LINE
  5
171
  8
1
  6
CONTINUOUS
 62
     7
 10
407.5
 20
43.27104370015147
 30
0.0
 11
419.5041047082919
 21
43.22677095708443
 31
0.0
  0
LINE
  5
172
  8
1
  6
CONTINUOUS
 62
     7
 10
340.0381690844907
 20
45.9906763962555
 30
0.0
 11
342.3052182051094
 21
41.02334157843189
 31
0.0
  0
LINE
  5
173
  8
1
  6
CONTINUOUS
 62
     7
 10
366.0000000000001
 20
90.0
 30
0.0
 11
334.0
 21
90.0
 31
0.0
  0
LINE
  5
174
  8
1
  6
CONTINUOUS
 62
     7
 10
403.55
 20
19.26298714517882
 30
0.0
 11
406.45
 21
19.26298714517882
 31
0.0
  0
LINE
  5
175
  8
1
  6
CONTINUOUS
 62
     7
 10
392.5
 20
12.06298714517881
 30
0.0
 11
427.5000000000001
 21
12.06298714517881
 31
0.0
  0
LINE
  5
176
  8
1
  6
CONTINUOUS
 62
     7
 10
366.0000000000001
 20
19.26298714517882
 30
0.0
 11
370.0000000000001
 21
19.26298714517882
 31
0.0
  0
LINE
  5
177
  8
1
  6
CONTINUOUS
 62
     7
 10
361.3279506650311
 20
44.23384536791493
 30
0.0
 11
359.8229760264193
 21
45.73882000652613
 31
0.0
  0
LINE
  5
178
  8
1
  6
CONTINUOUS
 62
     7
 10
336.1835300259263
 20
44.23172581058112
 30
0.0
 11
338.214678605838
 21
39.83633074272983
 31
0.0
  0
LINE
  5
179
  8
1
  6
CONTINUOUS
 62
     7
 10
370.0000000000001
 20
12.06298714517881
 30
0.0
 11
330.0
 21
12.06298714517881
 31
0.0
  0
LINE
  5
17A
  8
1
  6
CONTINUOUS
 62
     7
 10
334.0
 20
12.06298714517881
 30
0.0
 11
334.0
 21
21.06298714517882
 31
0.0
  0
LINE
  5
17B
  8
1
  6
CONTINUOUS
 62
     7
 10
361.5998430011418
 20
44.10705988939245
 30
0.0
 11
361.3279506650308
 21
44.23384536791465
 31
0.0
  0
LINE
  5
17C
  8
1
  6
CONTINUOUS
 62
     7
 10
338.4001569988583
 20
44.10705988939245
 30
0.0
 11
338.6720493349692
 21
44.23384536791465
 31
0.0
  0
LINE
  5
17D
  8
1
  6
CONTINUOUS
 62
     7
 10
359.9618309155094
 20
45.9906763962555
 30
0.0
 11
357.6947817948906
 21
41.02334157843189
 31
0.0
  0
LINE
  5
17E
  8
1
  6
CONTINUOUS
 62
     7
 10
363.8164699740738
 20
44.23172581058112
 30
0.0
 11
361.7853213941621
 21
39.83633074272983
 31
0.0
  0
LINE
  5
17F
  8
1
  6
CONTINUOUS
 62
     7
 10
366.0000000000001
 20
12.06298714517881
 30
0.0
 11
366.0000000000001
 21
21.06298714517882
 31
0.0
  0
LINE
  5
180
  8
1
  6
CONTINUOUS
 62
     7
 10
338.672049334969
 20
44.23384536791493
 30
0.0
 11
340.1770239735807
 21
45.73882000652613
 31
0.0
  0
LINE
  5
181
  8
1
  6
CONTINUOUS
 62
     7
 10
334.0
 20
70.0
 30
0.0
 11
334.0
 21
90.0
 31
0.0
  0
LINE
  5
182
  8
1
  6
CONTINUOUS
 62
     7
 10
330.0
 20
19.26298714517882
 30
0.0
 11
334.0000000000001
 21
19.26298714517882
 31
0.0
  0
LINE
  5
183
  8
1
  6
CONTINUOUS
 62
     7
 10
366.0000000000001
 20
70.0
 30
0.0
 11
366.0000000000001
 21
90.0
 31
0.0
  0
LINE
  5
184
  8
1
  6
CONTINUOUS
 62
     7
 10
339.3701005816588
 20
70.32411816465884
 30
0.0
 11
340.2756717202846
 21
71.5133847287067
 31
0.0
  0
LINE
  5
185
  8
1
  6
CONTINUOUS
 62
     7
 10
410.0
 20
46.87133082264566
 30
0.0
 11
419.504362009845
 21
46.69099858091245
 31
0.0
  0
LINE
  5
186
  8
1
  6
CONTINUOUS
 62
     7
 10
360.6299006174827
 20
89.67588092275126
 30
0.0
 11
359.7243276712175
 21
88.48661571282528
 31
0.0
  0
LINE
  5
187
  8
1
  6
CONTINUOUS
 62
     7
 10
340.3257214309922
 20
88.52763417975403
 30
0.0
 11
339.3698897021264
 21
89.6757212603918
 31
0.0
  0
LINE
  5
188
  8
1
  6
CONTINUOUS
 62
     7
 10
406.6215283463409
 20
42.82577267895186
 30
0.0
 11
412.5
 21
42.80409208956402
 31
0.0
  0
LINE
  5
189
  8
1
  6
CONTINUOUS
 62
     7
 10
400.4938296425123
 20
46.83120437886256
 30
0.0
 11
410.0
 21
46.87133082264566
 31
0.0
  0
LINE
  5
18A
  8
1
  6
CONTINUOUS
 62
     7
 10
420.0002705341767
 20
44.48754312701425
 30
0.0
 11
410.0
 21
44.21337752608055
 31
0.0
  0
LINE
  5
18B
  8
1
  6
CONTINUOUS
 62
     7
 10
400.0
 20
44.19686026734809
 30
0.0
 11
400.495632456087
 21
44.17316924989055
 31
0.0
  0
LINE
  5
18C
  8
1
  6
CONTINUOUS
 62
     7
 10
357.5379731744364
 20
88.44349507506244
 30
0.0
 11
357.449191019959
 21
80.00000038920177
 31
0.0
  0
LINE
  5
18D
  8
1
  6
CONTINUOUS
 62
     7
 10
359.6742544625184
 20
71.47234425071314
 30
0.0
 11
360.6301102978737
 21
70.3242787396082
 31
0.0
  0
LINE
  5
18E
  8
1
  6
CONTINUOUS
 62
     7
 10
400.0
 20
12.06298714517881
 30
0.0
 11
400.0
 21
46.71733934727609
 31
0.0
  0
LINE
  5
18F
  8
1
  6
CONTINUOUS
 62
     7
 10
342.5508089800411
 20
80.00000038920177
 30
0.0
 11
342.4620288503862
 21
88.44330250732224
 31
0.0
  0
ENDSEC
  0
EOF
