  0
SECTION
  2
HEADER
  9
$ACADVER
  1
AC1006
  9
$DWGCODEPAGE
  3
ansi_932
  9
$INSBASE
 10
0.0
 20
0.0
 30
0.0
  9
$EXTMIN
 10
506.2499999999999
 20
-8.215909090909097
  9
$EXTMAX
 10
615.0
 20
107.0
  9
$LIMMIN
 10
0.0
 20
0.0
  9
$LIMMAX
 10
12.0
 20
9.0
  9
$ORTHOMODE
 70
     0
  9
$REGENMODE
 70
     1
  9
$FILLMODE
 70
     1
  9
$QTEXTMODE
 70
     0
  9
$MIRRTEXT
 70
     1
  9
$DRAGMODE
 70
     2
  9
$LTSCALE
 40
1.0
  9
$OSMODE
 70
    37
  9
$ATTMODE
 70
     1
  9
$TEXTSIZE
 40
0.2
  9
$TRACEWID
 40
0.05
  9
$TEXTSTYLE
  7
STANDARD
  9
$CLAYER
  8
0
  9
$CELTYPE
  6
BYLAYER
  9
$CECOLOR
 62
   256
  9
$DIMSCALE
 40
1.0
  9
$DIMASZ
 40
3.0
  9
$DIMEXO
 40
0.0625
  9
$DIMDLI
 40
0.38
  9
$DIMRND
 40
0.0
  9
$DIMDLE
 40
0.0
  9
$DIMEXE
 40
1.5
  9
$DIMTP
 40
0.0
  9
$DIMTM
 40
0.0
  9
$DIMTXT
 40
3.0
  9
$DIMCEN
 40
0.09
  9
$DIMTSZ
 40
0.0
  9
$DIMTOL
 70
     0
  9
$DIMLIM
 70
     0
  9
$DIMTIH
 70
     1
  9
$DIMTOH
 70
     1
  9
$DIMSE1
 70
     0
  9
$DIMSE2
 70
     0
  9
$DIMTAD
 70
     1
  9
$DIMZIN
 70
     0
  9
$DIMBLK
  1

  9
$DIMASO
 70
     1
  9
$DIMSHO
 70
     1
  9
$DIMPOST
  1

  9
$DIMAPOST
  1

  9
$DIMALT
 70
     0
  9
$DIMALTD
 70
     2
  9
$DIMALTF
 40
25.4
  9
$DIMLFAC
 40
1.0
  9
$DIMTOFL
 70
     0
  9
$DIMTVP
 40
0.0
  9
$DIMTIX
 70
     0
  9
$DIMSOXD
 70
     0
  9
$DIMSAH
 70
     0
  9
$DIMBLK1
  1

  9
$DIMBLK2
  1

  9
$LUNITS
 70
     2
  9
$LUPREC
 70
     4
  9
$SKETCHINC
 40
0.1
  9
$FILLETRAD
 40
0.5
  9
$AUNITS
 70
     0
  9
$AUPREC
 70
     0
  9
$MENU
  1
.
  9
$ELEVATION
 40
0.0
  9
$THICKNESS
 40
0.0
  9
$LIMCHECK
 70
     0
  9
$CHAMFERA
 40
0.0
  9
$CHAMFERB
 40
0.0
  9
$SKPOLY
 70
     0
  9
$TDCREATE
 40
2459748.701891979
  9
$TDUPDATE
 40
2459748.701892222
  9
$TDINDWG
 40
0.0000000116
  9
$TDUSRTIMER
 40
0.0000000116
  9
$USRTIMER
 70
     1
  9
$ANGBASE
 50
0.0
  9
$ANGDIR
 70
     0
  9
$PDMODE
 70
     0
  9
$PDSIZE
 40
0.0
  9
$PLINEWID
 40
0.0
  9
$COORDS
 70
     1
  9
$SPLFRAME
 70
     0
  9
$SPLINETYPE
 70
     6
  9
$SPLINESEGS
 70
     8
  9
$ATTDIA
 70
     0
  9
$ATTREQ
 70
     1
  9
$HANDLING
 70
     1
  9
$HANDSEED
  5
18A
  9
$SURFTAB1
 70
     6
  9
$SURFTAB2
 70
     6
  9
$SURFTYPE
 70
     6
  9
$SURFU
 70
     6
  9
$SURFV
 70
     6
  9
$UCSNAME
  2

  9
$UCSORG
 10
0.0
 20
0.0
 30
0.0
  9
$UCSXDIR
 10
1.0
 20
0.0
 30
0.0
  9
$UCSYDIR
 10
0.0
 20
1.0
 30
0.0
  9
$USERI1
 70
     0
  9
$USERI2
 70
     0
  9
$USERI3
 70
     0
  9
$USERI4
 70
     0
  9
$USERI5
 70
     0
  9
$USERR1
 40
0.0
  9
$USERR2
 40
0.0
  9
$USERR3
 40
0.0
  9
$USERR4
 40
0.0
  9
$USERR5
 40
0.0
  9
$WORLDVIEW
 70
     1
  0
ENDSEC
  0
SECTION
  2
TABLES
  0
TABLE
  2
VPORT
 70
     1
  0
VPORT
  2
*ACTIVE
 70
     0
 10
0.0
 20
0.0
 11
1.0
 21
1.0
 12
560.625
 22
49.39204545454545
 13
0.0
 23
0.0
 14
0.5
 24
0.5
 15
0.5
 25
0.5
 16
0.0
 26
0.0
 36
1.0
 17
0.0
 27
0.0
 37
0.0
 40
115.2159090909091
 41
1.6
 42
50.0
 43
0.0
 44
0.0
 50
0.0
 51
0.0
 71
     0
 72
   100
 73
     1
 74
     3
 75
     0
 76
     0
 77
     0
 78
     0
  0
ENDTAB
  0
TABLE
  2
LTYPE
 70
     2
  0
LTYPE
  2
CONTINUOUS
 70
     0
  3
Solid line
 72
    65
 73
     0
 40
0.0
  0
LTYPE
  2
CENTER
 70
     0
  3

 72
    65
 73
     0
 40
0.0
  0
ENDTAB
  0
TABLE
  2
LAYER
 70
     2
  0
LAYER
  2
0
 70
     0
 62
     7
  6
CONTINUOUS
  0
LAYER
  2
1
 70
     0
 62
     7
  6
CONTINUOUS
  0
ENDTAB
  0
TABLE
  2
STYLE
 70
     2
  0
STYLE
  2
STANDARD
 70
     0
 40
0.0
 41
1.0
 50
0.0
 71
     0
 42
0.2
  3
txt
  4

  0
STYLE
  2
ＭＳ_ゴシック
 70
     0
 40
0.0
 41
1.0
 50
0.0
 71
     0
 42
0.2
  3
ＭＳ ゴシック.shx
  4

  0
ENDTAB
  0
TABLE
  2
VIEW
 70
     0
  0
ENDTAB
  0
TABLE
  2
UCS
 70
     0
  0
ENDTAB
  0
ENDSEC
  0
SECTION
  2
BLOCKS
  0
BLOCK
  8
0
  2
D_FRAME_VIEW_3692
 70
     0
 10
0.0
 20
0.0
 30
0.0
  0
ARC
  5
8D
  8
1
  6
CONTINUOUS
 62
     7
 10
544.6841659737861
 20
94.54854021325005
 30
0.0
 40
0.4546141588903629
 50
354.4235051121069
 51
83.24657547122331
  0
ARC
  5
8E
  8
1
  6
CONTINUOUS
 62
     7
 10
515.3158340262139
 20
94.54854021325005
 30
0.0
 40
0.4546141588903629
 50
96.7534245287767
 51
185.5764948878931
  0
ARC
  5
8F
  8
1
  6
CONTINUOUS
 62
     7
 10
544.5956861733438
 20
75.461981184667
 30
0.0
 40
0.4667717506676118
 50
278.2158197022731
 51
3.912409504313643
  0
ARC
  5
90
  8
1
  6
CONTINUOUS
 62
     7
 10
515.4043138266563
 20
75.461981184667
 30
0.0
 40
0.4667717506676118
 50
176.0875904956864
 51
261.7841802977269
  0
ARC
  5
91
  8
1
  6
CONTINUOUS
 62
     7
 10
545.5064456388741
 20
75.5228208725214
 30
0.0
 40
0.5231411383441377
 50
267.9950402890056
 51
356.8231797390622
  0
ARC
  5
92
  8
1
  6
CONTINUOUS
 62
     7
 10
514.4935543611259
 20
75.5228208725214
 30
0.0
 40
0.5231411383441377
 50
183.1768202609378
 51
272.0049597109944
  0
ARC
  5
93
  8
1
  6
CONTINUOUS
 62
     7
 10
545.5827128544466
 20
94.47851740954177
 30
0.0
 40
0.5218434528966315
 50
2.698427504518122
 51
92.1309015254808
  0
ARC
  5
94
  8
1
  6
CONTINUOUS
 62
     7
 10
514.4172871455534
 20
94.47851740954177
 30
0.0
 40
0.5218434528966315
 50
87.86909847451922
 51
177.3015724954819
  0
ARC
  5
95
  8
1
  6
CONTINUOUS
 62
     7
 10
542.9899182240184
 20
94.60853380570397
 30
0.0
 40
0.1021622471258746
 50
138.8757133093245
 51
140.1398738942227
  0
ARC
  5
96
  8
1
  6
CONTINUOUS
 62
     7
 10
542.9899182240184
 20
94.608533805704
 30
0.0
 40
0.1021622471258568
 50
140.1398738942347
 51
142.2819225569179
  0
ARC
  5
97
  8
1
  6
CONTINUOUS
 62
     7
 10
517.0100817759816
 20
94.60853380570397
 30
0.0
 40
0.1021622471258746
 50
39.86012610577728
 51
41.12428597221061
  0
ARC
  5
98
  8
1
  6
CONTINUOUS
 62
     7
 10
517.0100817759816
 20
94.608533805704
 30
0.0
 40
0.1021622471258568
 50
37.86173493184646
 51
39.86012610576535
  0
ARC
  5
99
  8
1
  6
CONTINUOUS
 62
     7
 10
517.2978731308335
 20
93.40381496548704
 30
0.0
 40
1.596185034512948
 50
87.72573377071869
 51
90.0
  0
LINE
  5
9A
  8
1
  6
CONTINUOUS
 62
     7
 10
518.6157753856239
 20
95.0
 30
0.0
 11
519.1205681244221
 21
94.90651694116295
 31
0.0
  0
ARC
  5
9B
  8
1
  6
CONTINUOUS
 62
     7
 10
544.2929015066719
 20
77.09385904198267
 30
0.0
 40
2.245487738952172
 50
222.1907786465681
 51
234.4727162681814
  0
ARC
  5
9C
  8
1
  6
CONTINUOUS
 62
     7
 10
543.8342992631475
 20
76.67815839425545
 30
0.0
 40
1.626518396992173
 50
202.3279993704631
 51
222.1907786465686
  0
LINE
  5
9D
  8
1
  6
CONTINUOUS
 62
     7
 10
541.3842246143761
 20
95.0
 30
0.0
 11
540.879431875578
 21
94.90651694116295
 31
0.0
  0
ARC
  5
9E
  8
1
  6
CONTINUOUS
 62
     7
 10
542.7021268691665
 20
93.40381496548704
 30
0.0
 40
1.596185034512948
 50
90.0
 51
92.2742662292813
  0
ARC
  5
9F
  8
1
  6
CONTINUOUS
 62
     7
 10
517.0100817759815
 20
75.3914661942961
 30
0.0
 40
0.1021622471261251
 50
320.1398738942488
 51
322.3014562104629
  0
ARC
  5
A0
  8
1
  6
CONTINUOUS
 62
     7
 10
517.0100817759817
 20
75.39146619429597
 30
0.0
 40
0.1021622471258746
 50
318.8757122391046
 51
320.1398738942227
  0
ARC
  5
A1
  8
1
  6
CONTINUOUS
 62
     7
 10
542.9899182240185
 20
75.3914661942961
 30
0.0
 40
0.1021622471261251
 50
218.0424609847627
 51
219.8601261057512
  0
ARC
  5
A2
  8
1
  6
CONTINUOUS
 62
     7
 10
542.9899182240183
 20
75.39146619429597
 30
0.0
 40
0.1021622471258746
 50
219.8601261057773
 51
221.1242874076173
  0
LINE
  5
A3
  8
1
  6
CONTINUOUS
 62
     7
 10
542.9106763579209
 20
75.00000000000001
 30
0.0
 11
542.9106763579209
 21
75.30355577197537
 31
0.0
  0
LINE
  5
A4
  8
1
  6
CONTINUOUS
 62
     7
 10
517.0893236420792
 20
95.0
 30
0.0
 11
517.0893236420792
 21
94.99877843551178
 31
0.0
  0
LINE
  5
A5
  8
1
  6
CONTINUOUS
 62
     7
 10
542.9106763579209
 20
95.0
 30
0.0
 11
542.9106763579209
 21
94.99877843551178
 31
0.0
  0
LINE
  5
A6
  8
1
  6
CONTINUOUS
 62
     7
 10
518.6157753856239
 20
75.00000000000001
 30
0.0
 11
519.1205681244221
 21
75.09348305883707
 31
0.0
  0
LINE
  5
A7
  8
1
  6
CONTINUOUS
 62
     7
 10
541.3842246143761
 20
75.00000000000001
 30
0.0
 11
540.879431875578
 21
75.09348305883707
 31
0.0
  0
ARC
  5
A8
  8
1
  6
CONTINUOUS
 62
     7
 10
519.0703737154878
 20
94.4962345673314
 30
0.0
 40
0.4127664410361482
 50
67.61322531660358
 51
83.02503075734457
  0
ARC
  5
A9
  8
1
  6
CONTINUOUS
 62
     7
 10
519.0703737154877
 20
94.49623456733096
 30
0.0
 40
0.4127664410366012
 50
54.24149960081417
 51
67.61322531661284
  0
ARC
  5
AA
  8
1
  6
CONTINUOUS
 62
     7
 10
540.9296262845122
 20
94.4962345673314
 30
0.0
 40
0.4127664410361482
 50
96.97496924265542
 51
112.3867746833964
  0
ARC
  5
AB
  8
1
  6
CONTINUOUS
 62
     7
 10
540.9296262845123
 20
94.49623456733096
 30
0.0
 40
0.4127664410366012
 50
112.3867746833871
 51
125.7585003966989
  0
ARC
  5
AC
  8
1
  6
CONTINUOUS
 62
     7
 10
519.0703737154877
 20
75.50376543266904
 30
0.0
 40
0.4127664410366012
 50
292.3867746833871
 51
305.7585018770465
  0
ARC
  5
AD
  8
1
  6
CONTINUOUS
 62
     7
 10
519.0703737154879
 20
75.5037654326685
 30
0.0
 40
0.4127664410360161
 50
276.9749692426418
 51
292.3867746833874
  0
ARC
  5
AE
  8
1
  6
CONTINUOUS
 62
     7
 10
540.9296262845123
 20
75.50376543266904
 30
0.0
 40
0.4127664410366012
 50
234.2414978972039
 51
247.6132253166128
  0
ARC
  5
AF
  8
1
  6
CONTINUOUS
 62
     7
 10
540.9296262845121
 20
75.5037654326685
 30
0.0
 40
0.4127664410360161
 50
247.6132253166127
 51
263.0250307573582
  0
ARC
  5
B0
  8
1
  6
CONTINUOUS
 62
     7
 10
530.0
 20
84.99990930270215
 30
0.0
 40
6.750000792082524
 50
0.5007698331705227
 51
179.4992301668294
  0
ARC
  5
B1
  8
1
  6
CONTINUOUS
 62
     7
 10
552.7500000000001
 20
79.54979282807058
 30
0.0
 40
0.9997928280705698
 50
270.0
 51
292.5052675966782
  0
ARC
  5
B2
  8
1
  6
CONTINUOUS
 62
     7
 10
552.7498534454219
 20
79.5501465501367
 30
0.0
 40
1.000175708658268
 50
292.5052675966733
 51
315.0018074394021
  0
ARC
  5
B3
  8
1
  6
CONTINUOUS
 62
     7
 10
552.7499941826306
 20
79.55000582180712
 30
0.0
 40
0.9999766824674008
 50
315.0018074394008
 51
337.5052669320188
  0
ARC
  5
B4
  8
1
  6
CONTINUOUS
 62
     7
 10
552.749640393302
 20
79.55015232804391
 30
0.0
 40
1.000359606698087
 50
337.5052669320544
 51
0.0
  0
LINE
  5
B5
  8
1
  6
CONTINUOUS
 62
     7
 10
549.7500000000001
 20
78.55000000000001
 30
0.0
 11
552.75
 21
78.55000000000001
 31
0.0
  0
LINE
  5
B6
  8
1
  6
CONTINUOUS
 62
     7
 10
549.75
 20
81.45
 30
0.0
 11
552.75
 21
81.45
 31
0.0
  0
ARC
  5
B7
  8
1
  6
CONTINUOUS
 62
     7
 10
552.749640393302
 20
80.44984767195609
 30
0.0
 40
1.000359606698087
 50
0.0
 51
22.49473306794566
  0
ARC
  5
B8
  8
1
  6
CONTINUOUS
 62
     7
 10
552.7499941826306
 20
80.44999417819288
 30
0.0
 40
0.9999766824674008
 50
22.49473306798122
 51
44.99819256059921
  0
ARC
  5
B9
  8
1
  6
CONTINUOUS
 62
     7
 10
552.7498534454219
 20
80.4498534498633
 30
0.0
 40
1.000175708658268
 50
44.99819256059791
 51
67.4947324033268
  0
ARC
  5
BA
  8
1
  6
CONTINUOUS
 62
     7
 10
552.7500000000001
 20
80.45020717192942
 30
0.0
 40
0.9997928280705698
 50
67.4947324033219
 51
90.00000000000001
  0
LINE
  5
BB
  8
1
  6
CONTINUOUS
 62
     7
 10
553.7500000000001
 20
79.55015232804391
 30
0.0
 11
553.7500000000001
 21
80.44984767195609
 31
0.0
  0
LINE
  5
BC
  8
1
  6
CONTINUOUS
 62
     7
 10
510.2500000000001
 20
88.55000000000001
 30
0.0
 11
507.2500000000001
 21
88.55000000000001
 31
0.0
  0
ARC
  5
BD
  8
1
  6
CONTINUOUS
 62
     7
 10
507.2503596066981
 20
89.55015232804392
 30
0.0
 40
1.000359606698087
 50
180.0
 51
202.4947330679457
  0
ARC
  5
BE
  8
1
  6
CONTINUOUS
 62
     7
 10
507.2500058173695
 20
89.55000582180712
 30
0.0
 40
0.9999766824674008
 50
202.4947330679812
 51
224.9981925605992
  0
ARC
  5
BF
  8
1
  6
CONTINUOUS
 62
     7
 10
507.2501465545781
 20
89.5501465501367
 30
0.0
 40
1.000175708658268
 50
224.9981925605979
 51
247.4947324033268
  0
ARC
  5
C0
  8
1
  6
CONTINUOUS
 62
     7
 10
507.2499999999999
 20
89.54979282807058
 30
0.0
 40
0.9997928280705698
 50
247.4947324033219
 51
270.0
  0
LINE
  5
C1
  8
1
  6
CONTINUOUS
 62
     7
 10
506.2499999999999
 20
90.4498476719561
 30
0.0
 11
506.2499999999999
 21
89.55015232804392
 31
0.0
  0
ARC
  5
C2
  8
1
  6
CONTINUOUS
 62
     7
 10
507.2499999999999
 20
90.45020717192943
 30
0.0
 40
0.9997928280705698
 50
90.0
 51
112.5052675966781
  0
ARC
  5
C3
  8
1
  6
CONTINUOUS
 62
     7
 10
507.2501465545781
 20
90.44985344986331
 30
0.0
 40
1.000175708658268
 50
112.5052675966732
 51
135.0018074394021
  0
ARC
  5
C4
  8
1
  6
CONTINUOUS
 62
     7
 10
507.2500058173695
 20
90.4499941781929
 30
0.0
 40
0.9999766824674008
 50
135.0018074394009
 51
157.5052669320189
  0
ARC
  5
C5
  8
1
  6
CONTINUOUS
 62
     7
 10
507.2503596066981
 20
90.4498476719561
 30
0.0
 40
1.000359606698087
 50
157.5052669320544
 51
180.0
  0
LINE
  5
C6
  8
1
  6
CONTINUOUS
 62
     7
 10
510.2499999999999
 20
91.45
 30
0.0
 11
507.2500000000001
 21
91.45000000000002
 31
0.0
  0
ARC
  5
C7
  8
1
  6
CONTINUOUS
 62
     7
 10
531.9
 20
85.0
 30
0.0
 40
2.600000000000001
 50
270.0
 51
90.0
  0
LINE
  5
C8
  8
1
  6
CONTINUOUS
 62
     7
 10
531.9
 20
87.60000000000001
 30
0.0
 11
528.1
 21
87.60000000000001
 31
0.0
  0
ARC
  5
C9
  8
1
  6
CONTINUOUS
 62
     7
 10
528.1
 20
85.0
 30
0.0
 40
2.600000000000001
 50
90.0
 51
270.0
  0
LINE
  5
CA
  8
1
  6
CONTINUOUS
 62
     7
 10
528.1
 20
82.4
 30
0.0
 11
531.9
 21
82.4
 31
0.0
  0
ARC
  5
CB
  8
1
  6
CONTINUOUS
 62
     7
 10
530.0
 20
85.0
 30
0.0
 40
19.99999999999997
 50
30.99745498628016
 51
150.0
  0
ARC
  5
CC
  8
1
  6
CONTINUOUS
 62
     7
 10
530.0
 20
85.0
 30
0.0
 40
19.99999999999997
 50
210.9974680994555
 51
330.0
  0
LINE
  5
CD
  8
1
  6
CONTINUOUS
 62
     7
 10
518.3354421136914
 20
85.0
 30
0.0
 11
518.266444697682
 21
92.90632076292967
 31
0.0
  0
LINE
  5
CE
  8
1
  6
CONTINUOUS
 62
     7
 10
541.6645578863087
 20
85.0
 30
0.0
 11
541.7335559292314
 21
77.09360739991129
 31
0.0
  0
LINE
  5
CF
  8
1
  6
CONTINUOUS
 62
     7
 10
518.2664420075647
 20
77.09337098014899
 30
0.0
 11
518.3354421136914
 21
85.0
 31
0.0
  0
LINE
  5
D0
  8
1
  6
CONTINUOUS
 62
     7
 10
541.7335580042947
 20
92.90663037878303
 30
0.0
 11
541.6645578863087
 21
85.0
 31
0.0
  0
ARC
  5
D1
  8
1
  6
CONTINUOUS
 62
     7
 10
517.26650074777
 20
92.80908027650484
 30
0.0
 40
1.004686431322156
 50
5.570724875674392
 51
42.93424042967384
  0
ARC
  5
D2
  8
1
  6
CONTINUOUS
 62
     7
 10
542.7469074853576
 20
92.80303960899943
 30
0.0
 40
1.018628624912592
 50
137.3307188986164
 51
174.164315796037
  0
ARC
  5
D3
  8
1
  6
CONTINUOUS
 62
     7
 10
542.7289123925792
 20
77.18885565974202
 30
0.0
 40
0.9999235731110098
 50
185.4794533875265
 51
223.0266772710706
  0
ARC
  5
D4
  8
1
  6
CONTINUOUS
 62
     7
 10
517.251483545103
 20
77.19768790757158
 30
0.0
 40
1.02030490188078
 50
317.3619176380114
 51
354.1319517033945
  0
ARC
  5
D5
  8
1
  6
CONTINUOUS
 62
     7
 10
516.4089952930418
 20
75.86315970246271
 30
0.0
 40
0.8658687243258789
 50
278.4103425928869
 51
322.3605476470836
  0
ARC
  5
D6
  8
1
  6
CONTINUOUS
 62
     7
 10
543.5936986447675
 20
75.86775408193063
 30
0.0
 40
0.8708099958872502
 50
217.7705828783231
 51
261.4585268817276
  0
ARC
  5
D7
  8
1
  6
CONTINUOUS
 62
     7
 10
543.5910047069578
 20
94.13684029753779
 30
0.0
 40
0.8658687243253604
 50
98.41034259261724
 51
142.3605476470948
  0
ARC
  5
D8
  8
1
  6
CONTINUOUS
 62
     7
 10
516.4063013552329
 20
94.1322459180703
 30
0.0
 40
0.8708099958863409
 50
37.77058287828169
 51
81.45852688199876
  0
ARC
  5
D9
  8
1
  6
CONTINUOUS
 62
     7
 10
518.6272685329445
 20
93.44991898896605
 30
0.0
 40
1.541893047526556
 50
359.6301210535514
 51
63.64263380145894
  0
ARC
  5
DA
  8
1
  6
CONTINUOUS
 62
     7
 10
541.3587629313382
 20
93.4585247195532
 30
0.0
 40
1.528005101150754
 50
116.0312998206809
 51
180.6959453243083
  0
ARC
  5
DB
  8
1
  6
CONTINUOUS
 62
     7
 10
518.6412370686618
 20
76.5414752804468
 30
0.0
 40
1.528005101150729
 50
296.0312998206813
 51
0.6959453243088092
  0
ARC
  5
DC
  8
1
  6
CONTINUOUS
 62
     7
 10
541.3727314670555
 20
76.55008101103394
 30
0.0
 40
1.541893047526445
 50
179.6301210535509
 51
243.6426338014622
  0
LINE
  5
DD
  8
1
  6
CONTINUOUS
 62
     7
 10
520.2584803350998
 20
84.99999941331305
 30
0.0
 11
520.1691417996963
 21
93.43615316405047
 31
0.0
  0
LINE
  5
DE
  8
1
  6
CONTINUOUS
 62
     7
 10
539.8308582003037
 20
93.43615316405047
 30
0.0
 11
539.7415196780393
 21
85.00000065351257
 31
0.0
  0
LINE
  5
DF
  8
1
  6
CONTINUOUS
 62
     7
 10
548.167056678327
 20
75.49563673225106
 30
0.0
 11
548.25
 21
85.0
 31
0.0
  0
LINE
  5
E0
  8
1
  6
CONTINUOUS
 62
     7
 10
511.75
 20
85.0
 30
0.0
 11
511.832943321673
 21
75.49563673225106
 31
0.0
  0
LINE
  5
E1
  8
1
  6
CONTINUOUS
 62
     7
 10
548.25
 20
85.0
 30
0.0
 11
548.167056678327
 21
94.50436326774918
 31
0.0
  0
LINE
  5
E2
  8
1
  6
CONTINUOUS
 62
     7
 10
511.832943321673
 20
94.50436326774918
 30
0.0
 11
511.75
 21
85.0
 31
0.0
  0
ARC
  5
E3
  8
1
  6
CONTINUOUS
 62
     7
 10
547.6670757167949
 20
75.50000000000001
 30
0.0
 40
0.5000000000000004
 50
270.0
 51
359.5000000000271
  0
ARC
  5
E4
  8
1
  6
CONTINUOUS
 62
     7
 10
512.3329242832051
 20
75.50000000000001
 30
0.0
 40
0.4999999999999439
 50
180.4999999999729
 51
270.0
  0
ARC
  5
E5
  8
1
  6
CONTINUOUS
 62
     7
 10
512.3329242832051
 20
94.5
 30
0.0
 40
0.5000000000000004
 50
90.0
 51
179.5000000000001
  0
ARC
  5
E6
  8
1
  6
CONTINUOUS
 62
     7
 10
547.6670757167949
 20
94.5
 30
0.0
 40
0.499999999999946
 50
0.4999999999998825
 51
90.0
  0
ENDBLK
  8
0
  0
BLOCK
  8
0
  2
D_FRAME_VIEW_3025
 70
     0
 10
0.0
 20
0.0
 30
0.0
  0
LINE
  5
F2
  8
1
  6
CONTINUOUS
 62
     7
 10
512.6794919243113
 20
8.675449632132743
 30
0.0
 11
512.6794919243113
 21
11.17544963213274
 31
0.0
  0
LINE
  5
F3
  8
1
  6
CONTINUOUS
 62
     7
 10
547.3205080756887
 20
11.17544963213274
 30
0.0
 11
512.6794919243113
 21
11.17544963213274
 31
0.0
  0
LINE
  5
F4
  8
1
  6
CONTINUOUS
 62
     7
 10
536.7497429806832
 20
17.29995518272464
 30
0.0
 11
536.7502570291038
 21
17.30078217580915
 31
0.0
  0
LINE
  5
F5
  8
1
  6
CONTINUOUS
 62
     7
 10
536.7502570291038
 20
17.30078217580915
 30
0.0
 11
536.8288749945422
 21
17.25200272403862
 31
0.0
  0
LINE
  5
F6
  8
1
  6
CONTINUOUS
 62
     7
 10
523.2497429708964
 20
17.30078217580915
 30
0.0
 11
523.171125005458
 21
17.25200272403862
 31
0.0
  0
LINE
  5
F7
  8
1
  6
CONTINUOUS
 62
     7
 10
523.2502570193168
 20
17.29995518272464
 30
0.0
 11
523.2497429708964
 21
17.30078217580915
 31
0.0
  0
LINE
  5
F8
  8
1
  6
CONTINUOUS
 62
     7
 10
517.0893236420792
 20
45.41008949225424
 30
0.0
 11
516.0327779877274
 21
47.67585895984585
 31
0.0
  0
ARC
  5
F9
  8
1
  6
CONTINUOUS
 62
     7
 10
524.1625621299964
 20
12.67543385978936
 30
0.0
 40
1.000087836407188
 50
180.0012778467664
 51
202.4973664852955
  0
ARC
  5
FA
  8
1
  6
CONTINUOUS
 62
     7
 10
524.162385274029
 20
12.67536061317306
 30
0.0
 40
0.9998964125319397
 50
202.497366485325
 51
225.0000000000006
  0
ARC
  5
FB
  8
1
  6
CONTINUOUS
 62
     7
 10
524.1623852740286
 20
12.67536061317261
 30
0.0
 40
0.9998964125313093
 50
225.0000000000004
 51
247.502633514691
  0
ARC
  5
FC
  8
1
  6
CONTINUOUS
 62
     7
 10
524.1624585206454
 20
12.67553746913975
 30
0.0
 40
1.00008783640646
 50
247.5026335146891
 51
269.9987221532344
  0
LINE
  5
FD
  8
1
  6
CONTINUOUS
 62
     7
 10
524.1624362160528
 20
11.67544963213275
 30
0.0
 11
535.8375637839472
 21
11.67544963213275
 31
0.0
  0
ARC
  5
FE
  8
1
  6
CONTINUOUS
 62
     7
 10
535.8374378700036
 20
12.67543385978936
 30
0.0
 40
1.000087836407188
 50
337.5026335147045
 51
359.9987221532336
  0
ARC
  5
FF
  8
1
  6
CONTINUOUS
 62
     7
 10
535.837614725971
 20
12.67536061317306
 30
0.0
 40
0.9998964125319397
 50
314.9999999999993
 51
337.5026335146749
  0
ARC
  5
100
  8
1
  6
CONTINUOUS
 62
     7
 10
535.8376147259714
 20
12.67536061317261
 30
0.0
 40
0.9998964125313093
 50
292.4973664853089
 51
314.9999999999995
  0
ARC
  5
101
  8
1
  6
CONTINUOUS
 62
     7
 10
535.8375414793547
 20
12.67553746913975
 30
0.0
 40
1.00008783640646
 50
270.0012778467656
 51
292.497366485311
  0
LINE
  5
102
  8
1
  6
CONTINUOUS
 62
     7
 10
542.9106763579209
 20
45.41008949225424
 30
0.0
 11
543.9672220122726
 21
47.67585895984585
 31
0.0
  0
LINE
  5
103
  8
1
  6
CONTINUOUS
 62
     7
 10
547.25
 20
15.17544963213274
 30
0.0
 11
539.25
 21
15.17544963213274
 31
0.0
  0
LINE
  5
104
  8
1
  6
CONTINUOUS
 62
     7
 10
539.25
 20
11.17544963213274
 30
0.0
 11
539.25
 21
15.17544963213274
 31
0.0
  0
ARC
  5
105
  8
1
  6
CONTINUOUS
 62
     7
 10
515.1923373688728
 20
18.67536044965138
 30
0.0
 40
0.9999108234473794
 50
269.9937606542642
 51
39.72087116409006
  0
ARC
  5
106
  8
1
  6
CONTINUOUS
 62
     7
 10
544.8076626311272
 20
18.67536044965138
 30
0.0
 40
0.9999108234473794
 50
140.2791288359099
 51
270.0062393457358
  0
LINE
  5
107
  8
1
  6
CONTINUOUS
 62
     7
 10
544.0822566150599
 20
43.20666749637558
 30
0.0
 11
544.1364308914785
 21
43.36789080570912
 31
0.0
  0
LINE
  5
108
  8
1
  6
CONTINUOUS
 62
     7
 10
544.0822566150599
 20
43.20666749637558
 30
0.0
 11
544.0990539607582
 21
43.17507628377316
 31
0.0
  0
ARC
  5
109
  8
1
  6
CONTINUOUS
 62
     7
 10
545.0731326561632
 20
42.94888070021558
 30
0.0
 40
0.9999968734266491
 50
166.9267656688414
 51
218.4605463842459
  0
ARC
  5
10A
  8
1
  6
CONTINUOUS
 62
     7
 10
514.9268673438368
 20
42.94888070021558
 30
0.0
 40
0.9999968734266491
 50
321.539453615754
 51
13.07323433115858
  0
LINE
  5
10B
  8
1
  6
CONTINUOUS
 62
     7
 10
515.9177433849401
 20
43.20666749637558
 30
0.0
 11
515.9009460392418
 21
43.17507628377316
 31
0.0
  0
LINE
  5
10C
  8
1
  6
CONTINUOUS
 62
     7
 10
515.9177433849401
 20
43.20666749637558
 30
0.0
 11
515.8635691085215
 21
43.36789080570912
 31
0.0
  0
LINE
  5
10D
  8
1
  6
CONTINUOUS
 62
     7
 10
513.860969076417
 20
47.60091503387057
 30
0.0
 11
514.8283266693636
 21
50.25881314749397
 31
0.0
  0
LINE
  5
10E
  8
1
  6
CONTINUOUS
 62
     7
 10
546.139030923583
 20
47.60091503387057
 30
0.0
 11
545.1716733306364
 21
50.25881314749397
 31
0.0
  0
LINE
  5
10F
  8
1
  6
CONTINUOUS
 62
     7
 10
514.8283849579855
 20
50.25886833569174
 30
0.0
 11
516.9128238519506
 21
51.23085815490391
 31
0.0
  0
LINE
  5
110
  8
1
  6
CONTINUOUS
 62
     7
 10
510.2500000000001
 20
17.67544963213274
 30
0.0
 11
515.1922284814578
 21
17.67544963213274
 31
0.0
  0
LINE
  5
111
  8
1
  6
CONTINUOUS
 62
     7
 10
549.75
 20
17.67544963213274
 30
0.0
 11
544.8077715185422
 21
17.67544963213274
 31
0.0
  0
LINE
  5
112
  8
1
  6
CONTINUOUS
 62
     7
 10
545.1716150420147
 20
50.25886833569174
 30
0.0
 11
543.0871761480494
 21
51.23085815490391
 31
0.0
  0
LINE
  5
113
  8
1
  6
CONTINUOUS
 62
     7
 10
514.2399354842422
 20
46.83984277060487
 30
0.0
 11
514.2201624136541
 21
46.83062243636444
 31
0.0
  0
LINE
  5
114
  8
1
  6
CONTINUOUS
 62
     7
 10
545.7600645157579
 20
46.83984277060487
 30
0.0
 11
545.7798375863459
 21
46.83062243636444
 31
0.0
  0
ARC
  5
115
  8
1
  6
CONTINUOUS
 62
     7
 10
530.0
 20
30.97544963213274
 30
0.0
 40
18.24999999999998
 50
320.2853681816445
 51
38.46203522949304
  0
ARC
  5
116
  8
1
  6
CONTINUOUS
 62
     7
 10
530.0
 20
30.97544963213274
 30
0.0
 40
18.24999999999998
 50
141.537964770507
 51
219.7146318183554
  0
ARC
  5
117
  8
1
  6
CONTINUOUS
 62
     7
 10
518.2585843416286
 20
43.61265222189722
 30
0.0
 40
1.999919737710913
 50
312.8955502708816
 51
25.00008567960157
  0
ARC
  5
118
  8
1
  6
CONTINUOUS
 62
     7
 10
541.7414156583714
 20
43.61265222189722
 30
0.0
 40
1.999919737710913
 50
154.9999143203984
 51
227.1044497291183
  0
LINE
  5
119
  8
1
  6
CONTINUOUS
 62
     7
 10
517.978229723378
 20
49.55850592474828
 30
0.0
 11
517.7729687334779
 21
49.38627150382803
 31
0.0
  0
LINE
  5
11A
  8
1
  6
CONTINUOUS
 62
     7
 10
542.021770276622
 20
49.55850592474828
 30
0.0
 11
542.2270312665222
 21
49.38627150382803
 31
0.0
  0
ARC
  5
11B
  8
1
  6
CONTINUOUS
 62
     7
 10
517.3354421136914
 20
50.32455036786725
 30
0.0
 40
1.000000000000014
 50
310.0000000000002
 51
115.0000000000001
  0
ARC
  5
11C
  8
1
  6
CONTINUOUS
 62
     7
 10
542.6645578863087
 20
50.32455036786725
 30
0.0
 40
1.000000000000014
 50
64.99999999999997
 51
229.9999999999997
  0
LINE
  5
11D
  8
1
  6
CONTINUOUS
 62
     7
 10
553.7500000000001
 20
15.87544963213274
 30
0.0
 11
553.7500000000001
 21
8.675449632132743
 31
0.0
  0
LINE
  5
11E
  8
1
  6
CONTINUOUS
 62
     7
 10
516.7897978652682
 20
38.60236339066954
 30
0.0
 11
516.9735125609396
 21
38.49629566166958
 31
0.0
  0
ARC
  5
11F
  8
1
  6
CONTINUOUS
 62
     7
 10
516.7235118871807
 20
38.06328276719172
 30
0.0
 40
0.5000005036636969
 50
331.9039204367784
 51
59.99994417111583
  0
ARC
  5
120
  8
1
  6
CONTINUOUS
 62
     7
 10
530.0
 20
30.97544963213274
 30
0.0
 40
14.54999999999997
 50
151.9038646078957
 51
208.0961353921043
  0
ARC
  5
121
  8
1
  6
CONTINUOUS
 62
     7
 10
516.7235120217626
 20
23.88761645860521
 30
0.0
 40
0.5000004030579033
 50
300.00004467719
 51
28.09609071491241
  0
LINE
  5
122
  8
1
  6
CONTINUOUS
 62
     7
 10
516.7897978652682
 20
23.34853587359595
 30
0.0
 11
516.9735125609396
 21
23.45460360259591
 31
0.0
  0
LINE
  5
123
  8
1
  6
CONTINUOUS
 62
     7
 10
543.210202134732
 20
23.34853587359595
 30
0.0
 11
543.0264874390605
 21
23.45460360259591
 31
0.0
  0
ARC
  5
124
  8
1
  6
CONTINUOUS
 62
     7
 10
543.2764879782374
 20
23.88761645860521
 30
0.0
 40
0.5000004030579033
 50
151.9039092850876
 51
239.99995532281
  0
ARC
  5
125
  8
1
  6
CONTINUOUS
 62
     7
 10
530.0
 20
30.97544963213274
 30
0.0
 40
14.54999999999997
 50
331.9038646078957
 51
28.09613539210431
  0
ARC
  5
126
  8
1
  6
CONTINUOUS
 62
     7
 10
543.2764881128193
 20
38.06328276719172
 30
0.0
 40
0.5000005036636969
 50
120.0000558288841
 51
208.0960795632215
  0
LINE
  5
127
  8
1
  6
CONTINUOUS
 62
     7
 10
543.210202134732
 20
38.60236339066954
 30
0.0
 11
543.0264874390605
 21
38.49629566166958
 31
0.0
  0
LINE
  5
128
  8
1
  6
CONTINUOUS
 62
     7
 10
523.2502570193168
 20
17.29995518272464
 30
0.0
 11
523.3413880314936
 21
17.2451861617476
 31
0.0
  0
ARC
  5
129
  8
1
  6
CONTINUOUS
 62
     7
 10
529.9989901894158
 20
30.49435647776441
 30
0.0
 40
14.82781779480693
 50
243.3208376207147
 51
296.7858128674181
  0
LINE
  5
12A
  8
1
  6
CONTINUOUS
 62
     7
 10
536.6812428337441
 20
17.25760158264905
 30
0.0
 11
536.7497429806832
 21
17.29995518272464
 31
0.0
  0
LINE
  5
12B
  8
1
  6
CONTINUOUS
 62
     7
 10
542.75
 20
15.17544963213275
 30
0.0
 11
542.75
 21
11.17544963213274
 31
0.0
  0
LINE
  5
12C
  8
1
  6
CONTINUOUS
 62
     7
 10
506.2499999999999
 20
8.675449632132743
 30
0.0
 11
506.2499999999999
 21
15.87544963213274
 31
0.0
  0
ENDBLK
  8
0
  0
BLOCK
  8
0
  2
D_FRAME_VIEW_3863
 70
     0
 10
0.0
 20
0.0
 30
0.0
  0
LINE
  5
131
  8
1
  6
CONTINUOUS
 62
     7
 10
591.4499999999999
 20
15.87544963213274
 30
0.0
 11
591.3243235325168
 21
8.675449632132743
 31
0.0
  0
LINE
  5
132
  8
1
  6
CONTINUOUS
 62
     7
 10
588.6756764674831
 20
8.675449632132743
 30
0.0
 11
588.55
 21
15.87544963213274
 31
0.0
  0
LINE
  5
133
  8
1
  6
CONTINUOUS
 62
     7
 10
601.6
 20
16.17544963213274
 30
0.0
 11
601.7169510618118
 21
9.475327788257857
 31
0.0
  0
LINE
  5
134
  8
1
  6
CONTINUOUS
 62
     7
 10
601.285281413089
 20
16.17544963213274
 30
0.0
 11
601.3967398782086
 21
9.78999844200365
 31
0.0
  0
LINE
  5
135
  8
1
  6
CONTINUOUS
 62
     7
 10
598.2830489381881
 20
9.47532778825786
 30
0.0
 11
598.3999999999999
 21
16.17544963213274
 31
0.0
  0
LINE
  5
136
  8
1
  6
CONTINUOUS
 62
     7
 10
598.6032601217912
 20
9.789998442003657
 30
0.0
 11
598.714718586911
 21
16.17544963213274
 31
0.0
  0
ARC
  5
137
  8
1
  6
CONTINUOUS
 62
     7
 10
585.5
 20
17.09252534892767
 30
0.0
 40
0.5000000000000018
 50
90.5000000000001
 51
180.0
  0
LINE
  5
138
  8
1
  6
CONTINUOUS
 62
     7
 10
585.4956367322508
 20
17.59250631045975
 30
0.0
 11
595.0
 21
17.67544963213274
 31
0.0
  0
LINE
  5
139
  8
1
  6
CONTINUOUS
 62
     7
 10
595.0
 20
17.67544963213274
 30
0.0
 11
604.5043632677491
 21
17.59250631045975
 31
0.0
  0
ARC
  5
13A
  8
1
  6
CONTINUOUS
 62
     7
 10
604.4999999999999
 20
17.09252534892767
 30
0.0
 40
0.500000000000056
 50
0.0000000000000035
 51
89.49999999999991
  0
LINE
  5
13B
  8
1
  6
CONTINUOUS
 62
     7
 10
598.3999999999999
 20
16.17544963213274
 30
0.0
 11
601.6
 21
16.17544963213274
 31
0.0
  0
LINE
  5
13C
  8
1
  6
CONTINUOUS
 62
     7
 10
615.0
 20
11.17544963213274
 30
0.0
 11
605.0
 21
11.17544963213274
 31
0.0
  0
LINE
  5
13D
  8
1
  6
CONTINUOUS
 62
     7
 10
585.0
 20
11.17544963213274
 30
0.0
 11
575.0
 21
11.17544963213274
 31
0.0
  0
LINE
  5
13E
  8
1
  6
CONTINUOUS
 62
     7
 10
604.4999999999999
 20
47.52577736563614
 30
0.0
 11
595.0
 21
47.60091503387057
 31
0.0
  0
ARC
  5
13F
  8
1
  6
CONTINUOUS
 62
     7
 10
592.4532935601624
 20
45.8863351926616
 30
0.0
 40
0.9546508224044837
 50
87.19567555233542
 51
176.9443844865694
  0
LINE
  5
140
  8
1
  6
CONTINUOUS
 62
     7
 10
591.5
 20
44.36753803539472
 30
0.0
 11
591.5
 21
45.9372231172644
 31
0.0
  0
ARC
  5
141
  8
1
  6
CONTINUOUS
 62
     7
 10
592.8639422338485
 20
44.37007228130746
 30
0.0
 40
1.363984578732516
 50
180.1064571683117
 51
181.9171729016568
  0
ARC
  5
142
  8
1
  6
CONTINUOUS
 62
     7
 10
592.8639422338512
 20
44.37007228130756
 30
0.0
 40
1.363984578735183
 50
181.9171729016571
 51
200.2669279317679
  0
ARC
  5
143
  8
1
  6
CONTINUOUS
 62
     7
 10
592.5220061922076
 20
44.24381062915968
 30
0.0
 40
0.9994818196537458
 50
200.2669279317915
 51
225.4028906795275
  0
ARC
  5
144
  8
1
  6
CONTINUOUS
 62
     7
 10
592.6510020774572
 20
44.37463353017858
 30
0.0
 40
1.183205987476879
 50
225.4028906795262
 51
237.8625667593118
  0
LINE
  5
145
  8
1
  6
CONTINUOUS
 62
     7
 10
595.0
 20
47.60091503387057
 30
0.0
 11
585.4956367322508
 21
47.56079622324015
 31
0.0
  0
ARC
  5
146
  8
1
  6
CONTINUOUS
 62
     7
 10
604.892259809497
 20
47.04193156723481
 30
0.0
 40
0.1077401905029696
 50
299.8534178677128
 51
359.9999999999964
  0
ARC
  5
147
  8
1
  6
CONTINUOUS
 62
     7
 10
606.0693570286188
 20
44.99104007419816
 30
0.0
 40
2.25694029097323
 50
119.8534178676801
 51
122.5948817532403
  0
ARC
  5
148
  8
1
  6
CONTINUOUS
 62
     7
 10
604.6587461269373
 20
47.19718503566084
 30
0.0
 40
0.3616277732423624
 50
273.5610781358296
 51
302.5948817532343
  0
ARC
  5
149
  8
1
  6
CONTINUOUS
 62
     7
 10
604.4999999999999
 20
49.74803282988033
 30
0.0
 40
2.917410393515882
 50
270.0
 51
273.5610781358318
  0
ARC
  5
14A
  8
1
  6
CONTINUOUS
 62
     7
 10
604.5579852130818
 20
49.73759899451946
 30
0.0
 40
0.449277365496287
 50
10.31602903656811
 51
96.85468049871453
  0
ARC
  5
14B
  8
1
  6
CONTINUOUS
 62
     7
 10
585.4512914434351
 20
49.75987810989677
 30
0.0
 40
0.4608269604332337
 50
84.70357588995428
 51
168.3240414301227
  0
ARC
  5
14C
  8
1
  6
CONTINUOUS
 62
     7
 10
604.6009537413718
 20
50.10487686032214
 30
0.0
 40
0.3990462586281884
 50
0.0
 51
12.71866098530221
  0
ARC
  5
14D
  8
1
  6
CONTINUOUS
 62
     7
 10
592.423486923107
 20
46.36937518945565
 30
0.0
 40
0.9623322190339512
 50
198.3665493303615
 51
274.5602841478034
  0
LINE
  5
14E
  8
1
  6
CONTINUOUS
 62
     7
 10
592.5
 20
43.20666749637558
 30
0.0
 11
592.018556619831
 21
43.36789080570912
 31
0.0
  0
ARC
  5
14F
  8
1
  6
CONTINUOUS
 62
     7
 10
585.3990462586294
 20
50.10487686032213
 30
0.0
 40
0.3990462586292987
 50
167.2813259233161
 51
179.999999999998
  0
ARC
  5
150
  8
1
  6
CONTINUOUS
 62
     7
 10
604.4614340629402
 20
43.73039040794591
 30
0.0
 40
0.5385814836231294
 50
274.1591772310987
 51
359.5646584034341
  0
LINE
  5
151
  8
1
  6
CONTINUOUS
 62
     7
 10
605.0
 20
45.41008949225422
 30
0.0
 11
592.5
 21
45.41008949225425
 31
0.0
  0
ARC
  5
152
  8
1
  6
CONTINUOUS
 62
     7
 10
604.5690392379884
 20
45.50733771596468
 30
0.0
 40
0.4309607620116562
 50
0.0
 51
3.931925570768328
  0
ARC
  5
153
  8
1
  6
CONTINUOUS
 62
     7
 10
597.7019074827444
 20
46.44318275781309
 30
0.0
 40
0.7980925172555997
 50
333.9619126979546
 51
0.0000000000010232
  0
ARC
  5
154
  8
1
  6
CONTINUOUS
 62
     7
 10
597.4948319519278
 20
46.54435069636167
 30
0.0
 40
1.028559927648316
 50
313.8281072707488
 51
333.9619126980053
  0
ARC
  5
155
  8
1
  6
CONTINUOUS
 62
     7
 10
597.5816382879251
 20
46.45391873127386
 30
0.0
 40
0.9032073039067049
 50
289.2387169348509
 51
313.8281072707462
  0
ARC
  5
156
  8
1
  6
CONTINUOUS
 62
     7
 10
597.5
 20
46.68784287514408
 30
0.0
 40
1.150967904367632
 50
270.0
 51
289.2387169348514
  0
LINE
  5
157
  8
1
  6
CONTINUOUS
 62
     7
 10
598.5
 20
46.83062243636444
 30
0.0
 11
598.5
 21
46.4431827578131
 31
0.0
  0
ARC
  5
158
  8
1
  6
CONTINUOUS
 62
     7
 10
592.2980925172556
 20
46.31639727929085
 30
0.0
 40
0.7980925172553777
 50
193.7327218865539
 51
206.0380873020497
  0
ARC
  5
159
  8
1
  6
CONTINUOUS
 62
     7
 10
592.505168048072
 20
46.41756521783945
 30
0.0
 40
1.028559927648118
 50
206.0380873019987
 51
226.1718927292578
  0
ARC
  5
15A
  8
1
  6
CONTINUOUS
 62
     7
 10
592.418361712075
 20
46.32713325275179
 30
0.0
 40
0.903207303906765
 50
226.1718927292576
 51
250.7612830651504
  0
ARC
  5
15B
  8
1
  6
CONTINUOUS
 62
     7
 10
592.5
 20
46.56105739662109
 30
0.0
 40
1.150967904366765
 50
250.7612830651397
 51
270.0
  0
ARC
  5
15C
  8
1
  6
CONTINUOUS
 62
     7
 10
597.5191847759525
 20
47.39381939940507
 30
0.0
 40
1.021108478863781
 50
268.9234528992158
 51
326.5262772480623
  0
LINE
  5
15D
  8
1
  6
CONTINUOUS
 62
     7
 10
615.0
 20
8.675449632132743
 30
0.0
 11
615.0
 21
11.17544963213274
 31
0.0
  0
LINE
  5
15E
  8
1
  6
CONTINUOUS
 62
     7
 10
575.0
 20
11.17544963213274
 30
0.0
 11
575.0
 21
8.675449632132743
 31
0.0
  0
ARC
  5
15F
  8
1
  6
CONTINUOUS
 62
     7
 10
585.6897317345129
 20
50.06617864494618
 30
0.0
 40
0.6919147061608697
 50
110.2833064230956
 51
169.4555427892164
  0
ARC
  5
160
  8
1
  6
CONTINUOUS
 62
     7
 10
604.3239954509058
 20
50.0777505338423
 30
0.0
 40
0.6763597830604449
 50
9.79351277550878
 51
70.46763801217753
  0
LINE
  5
161
  8
1
  6
CONTINUOUS
 62
     7
 10
604.551271692301
 20
50.71469989588144
 30
0.0
 11
603.4906115205212
 21
51.17134325735523
 31
0.0
  0
LINE
  5
162
  8
1
  6
CONTINUOUS
 62
     7
 10
586.5093884794787
 20
51.17134325735523
 30
0.0
 11
585.4487283076988
 21
50.71469989588145
 31
0.0
  0
LINE
  5
163
  8
1
  6
CONTINUOUS
 62
     7
 10
603.1158762596405
 20
51.25372418874321
 30
0.0
 11
595.0
 21
51.32455036786725
 31
0.0
  0
LINE
  5
164
  8
1
  6
CONTINUOUS
 62
     7
 10
603.4906046572025
 20
51.17134621205335
 30
0.0
 11
603.1158715381955
 21
51.25372422994653
 31
0.0
  0
LINE
  5
165
  8
1
  6
CONTINUOUS
 62
     7
 10
586.8841281785882
 20
51.25372422747503
 30
0.0
 11
586.5093953427975
 21
51.17134621205335
 31
0.0
  0
ENDBLK
  8
0
  0
ENDSEC
  0
SECTION
  2
ENTITIES
  0
LINE
  5
70
  8
1
  6
CONTINUOUS
 62
     7
 10
585.0
 20
8.675449632132743
 30
0.0
 11
585.0
 21
50.10487686032212
 31
0.0
  0
LINE
  5
71
  8
1
  6
CONTINUOUS
 62
     7
 10
605.0
 20
47.54937686056127
 30
0.0
 11
604.5000075072429
 21
47.52561937061345
 31
0.0
  0
LINE
  5
72
  8
1
  6
CONTINUOUS
 62
     7
 10
585.4956324560869
 20
47.56070676293663
 30
0.0
 11
585.0
 21
47.58439778039417
 31
0.0
  0
LINE
  5
73
  8
1
  6
CONTINUOUS
 62
     7
 10
595.0029086790314
 20
50.25881314749086
 30
0.0
 11
604.5043632677491
 21
50.18366397458538
 31
0.0
  0
LINE
  5
74
  8
1
  6
CONTINUOUS
 62
     7
 10
591.6215283463407
 20
46.39457174940527
 30
0.0
 11
597.5
 21
46.37289116001743
 31
0.0
  0
LINE
  5
75
  8
1
  6
CONTINUOUS
 62
     7
 10
585.4938296425122
 20
50.21874189190863
 30
0.0
 11
594.9999999999999
 21
50.25886833572604
 31
0.0
  0
LINE
  5
76
  8
1
  6
CONTINUOUS
 62
     7
 10
542.9127559762654
 20
94.67588092275133
 30
0.0
 11
542.0071830300003
 21
93.48661571282524
 31
0.0
  0
LINE
  5
77
  8
1
  6
CONTINUOUS
 62
     7
 10
541.9569689637789
 20
76.47221817940884
 30
0.0
 11
542.9129656566564
 21
75.32427873960822
 31
0.0
  0
LINE
  5
78
  8
1
  6
CONTINUOUS
 62
     7
 10
517.087245222876
 20
75.32411816465884
 30
0.0
 11
517.9928163615018
 21
76.51338472870668
 31
0.0
  0
LINE
  5
79
  8
1
  6
CONTINUOUS
 62
     7
 10
518.042866072221
 20
93.52763417976439
 30
0.0
 11
517.0870343433436
 21
94.67572126039181
 31
0.0
  0
LINE
  5
7A
  8
1
  6
CONTINUOUS
 62
     7
 10
513.860969076417
 20
85.0
 30
0.0
 11
513.9712155721826
 21
75.49382964251218
 31
0.0
  0
ARC
  5
7B
  8
1
  6
CONTINUOUS
 62
     7
 10
530.0
 20
30.97544963213274
 30
0.0
 40
15.25000000000001
 50
132.8956359504825
 51
243.727567220305
  0
LINE
  5
7C
  8
1
  6
CONTINUOUS
 62
     7
 10
517.0893236420794
 20
45.4100894922538
 30
0.0
 11
519.1738315522634
 21
46.38211149425786
 31
0.0
  0
LINE
  5
7D
  8
1
  6
CONTINUOUS
 62
     7
 10
536.7502570291038
 20
85.0
 30
0.0
 11
536.8375257070113
 21
75.00000000000001
 31
0.0
  0
LINE
  5
7E
  8
1
  6
CONTINUOUS
 62
     7
 10
523.1352847120404
 20
12.67562449270117
 30
0.0
 11
523.171125005458
 21
17.25200272403862
 31
0.0
  0
LINE
  5
7F
  8
1
  6
CONTINUOUS
 62
     7
 10
547.25
 20
15.17544963213274
 30
0.0
 11
547.25
 21
8.675449632132743
 31
0.0
  0
LINE
  5
80
  8
1
  6
CONTINUOUS
 62
     7
 10
523.2497429708964
 20
85.0
 30
0.0
 11
523.1624742929888
 21
75.00000000000001
 31
0.0
  0
LINE
  5
81
  8
1
  6
CONTINUOUS
 62
     7
 10
542.9106763579207
 20
45.4100894922538
 30
0.0
 11
540.8261684477366
 21
46.38211149425786
 31
0.0
  0
LINE
  5
82
  8
1
  6
CONTINUOUS
 62
     7
 10
546.1039822744219
 20
94.5030853131941
 30
0.0
 11
546.139030923583
 21
85.0
 31
0.0
  0
LINE
  5
83
  8
1
  6
CONTINUOUS
 62
     7
 10
514.8283266697032
 20
85.00290867903023
 30
0.0
 11
514.8633693041949
 21
94.50436326774918
 31
0.0
  0
LINE
  5
84
  8
1
  6
CONTINUOUS
 62
     7
 10
510.2499999999999
 20
75.00000000000001
 30
0.0
 11
549.7500000000001
 21
75.00000000000001
 31
0.0
  0
LINE
  5
85
  8
1
  6
CONTINUOUS
 62
     7
 10
545.0613685437975
 20
75.49382964251221
 30
0.0
 11
545.1716150420949
 21
84.99999999999908
 31
0.0
  0
LINE
  5
86
  8
1
  6
CONTINUOUS
 62
     7
 10
546.1390309261132
 20
84.99999999997067
 30
0.0
 11
546.028784427817
 21
75.4938296425122
 31
0.0
  0
ARC
  5
87
  8
1
  6
CONTINUOUS
 62
     7
 10
530.0
 20
30.97544963213274
 30
0.0
 40
15.24999999999997
 50
296.272432779695
 51
47.10436404951746
  0
LINE
  5
88
  8
1
  6
CONTINUOUS
 62
     7
 10
513.8960177255781
 20
94.5030853131941
 30
0.0
 11
513.860969076417
 21
85.0
 31
0.0
  0
LINE
  5
89
  8
1
  6
CONTINUOUS
 62
     7
 10
545.1716733302968
 20
85.00290867903023
 30
0.0
 11
545.1366306958051
 21
94.50436326774918
 31
0.0
  0
LINE
  5
8A
  8
1
  6
CONTINUOUS
 62
     7
 10
536.8375257070113
 20
17.25200272403862
 30
0.0
 11
536.8375257070113
 21
12.67541155519692
 31
0.0
  0
LINE
  5
8B
  8
1
  6
CONTINUOUS
 62
     7
 10
514.9386314562025
 20
75.49382964251221
 30
0.0
 11
514.8283849579052
 21
84.99999999999908
 31
0.0
  0
INSERT
  5
E7
  8
1
  6
CONTINUOUS
 62
     7
  2
D_FRAME_VIEW_3692
 10
0.0
 20
0.0
 30
0.0
  0
LINE
  5
E8
  8
1
  6
CENTER
 62
     1
 10
508.0
 20
85.0
 30
0.0
 11
552.0
 21
85.0
 31
0.0
  0
LINE
  5
EA
  8
1
  6
CENTER
 62
     1
 10
509.75
 20
30.97544963213274
 30
0.0
 11
550.25
 21
30.97544963213274
 31
0.0
  0
LINE
  5
EB
  8
1
  6
CENTER
 62
     1
 10
530.0
 20
10.72544963213276
 30
0.0
 11
530.0
 21
51.22544963213273
 31
0.0
  0
LINE
  5
EC
  8
1
  6
CENTER
 62
     1
 10
530.0
 20
63.00000000000003
 30
0.0
 11
530.0
 21
107.0
 31
0.0
  0
LINE
  5
ED
  8
1
  6
CENTER
 62
     1
 10
595.0
 20
6.675449632132742
 30
0.0
 11
595.0
 21
51.85313860820289
 31
0.0
  0
TEXT
  5
EE
  8
1
  6
CONTINUOUS
 62
     7
 10
551.3857852944855
 20
-8.785966612479685
 30
0.0
 40
5.0
  1
LSYD-P22
  0
INSERT
  5
12D
  8
1
  6
CONTINUOUS
 62
     7
  2
D_FRAME_VIEW_3025
 10
0.0
 20
0.0
 30
0.0
  0
INSERT
  5
166
  8
1
  6
CONTINUOUS
 62
     7
  2
D_FRAME_VIEW_3863
 10
0.0
 20
0.0
 30
0.0
  0
LINE
  5
167
  8
1
  6
CONTINUOUS
 62
     7
 10
595.0
 20
51.32455036787274
 30
0.0
 11
586.8826681131677
 21
51.25371148567716
 31
0.0
  0
LINE
  5
168
  8
1
  6
CONTINUOUS
 62
     7
 10
597.4690870130385
 20
8.675449632132674
 30
0.0
 11
598.6032601217912
 21
9.789998442003657
 31
0.0
  0
LINE
  5
169
  8
1
  6
CONTINUOUS
 62
     7
 10
539.8309026075129
 20
76.55720301655388
 30
0.0
 11
539.7744809765644
 21
85.00022085519734
 31
0.0
  0
LINE
  5
16A
  8
1
  6
CONTINUOUS
 62
     7
 10
601.3967398782086
 20
9.78999844200365
 30
0.0
 11
602.5309129869617
 21
8.67544963213282
 31
0.0
  0
LINE
  5
16B
  8
1
  6
CONTINUOUS
 62
     7
 10
520.1690973924871
 20
76.55720301655388
 30
0.0
 11
520.2255190151476
 21
85.00021961496543
 31
0.0
  0
LINE
  5
16C
  8
1
  6
CONTINUOUS
 62
     7
 10
516.3046703238385
 20
47.80264443836807
 30
0.0
 11
517.8908054540317
 21
49.13356984111049
 31
0.0
  0
LINE
  5
16D
  8
1
  6
CONTINUOUS
 62
     7
 10
605.0
 20
8.675449632132743
 30
0.0
 11
605.0
 21
50.10487686032214
 31
0.0
  0
LINE
  5
16E
  8
1
  6
CONTINUOUS
 62
     7
 10
510.2499999999999
 20
95.0
 30
0.0
 11
549.7500000000001
 21
95.0
 31
0.0
  0
LINE
  5
16F
  8
1
  6
CONTINUOUS
 62
     7
 10
506.2499999999999
 20
15.87544963213274
 30
0.0
 11
510.2500000000001
 21
15.87544963213274
 31
0.0
  0
LINE
  5
170
  8
1
  6
CONTINUOUS
 62
     7
 10
592.5
 20
46.83984277060487
 30
0.0
 11
604.4998707796211
 21
46.79558564283284
 31
0.0
  0
LINE
  5
171
  8
1
  6
CONTINUOUS
 62
     7
 10
553.7500000000001
 20
8.675449632132743
 30
0.0
 11
506.2499999999999
 21
8.675449632132743
 31
0.0
  0
LINE
  5
172
  8
1
  6
CONTINUOUS
 62
     7
 10
549.7499999999999
 20
75.00000000000001
 30
0.0
 11
549.7500000000001
 21
95.0
 31
0.0
  0
LINE
  5
173
  8
1
  6
CONTINUOUS
 62
     7
 10
549.7500000000001
 20
15.87544963213274
 30
0.0
 11
553.7500000000001
 21
15.87544963213274
 31
0.0
  0
LINE
  5
174
  8
1
  6
CONTINUOUS
 62
     7
 10
543.6953296761615
 20
47.80264443836807
 30
0.0
 11
542.1091945459684
 21
49.13356984111049
 31
0.0
  0
LINE
  5
175
  8
1
  6
CONTINUOUS
 62
     7
 10
542.2447022143738
 20
49.37821163708101
 30
0.0
 11
539.9881551356646
 21
44.4308189562582
 31
0.0
  0
LINE
  5
176
  8
1
  6
CONTINUOUS
 62
     7
 10
510.2500000000002
 20
75.00000000000001
 30
0.0
 11
510.2499999999999
 21
95.0
 31
0.0
  0
LINE
  5
177
  8
1
  6
CONTINUOUS
 62
     7
 10
592.5000694927746
 20
43.17029775081097
 30
0.0
 11
604.5004960855047
 21
43.19322732945405
 31
0.0
  0
LINE
  5
178
  8
1
  6
CONTINUOUS
 62
     7
 10
575.0
 20
8.675449632132743
 30
0.0
 11
615.0
 21
8.675449632132743
 31
0.0
  0
LINE
  5
179
  8
1
  6
CONTINUOUS
 62
     7
 10
517.7552977856262
 20
49.37821163708101
 30
0.0
 11
520.0118448643354
 21
44.4308189562582
 31
0.0
  0
LINE
  5
17A
  8
1
  6
CONTINUOUS
 62
     7
 10
588.55
 20
15.87544963213274
 30
0.0
 11
591.4499999999999
 21
15.87544963213274
 31
0.0
  0
LINE
  5
17B
  8
1
  6
CONTINUOUS
 62
     7
 10
546.0979261893392
 20
47.61987716969073
 30
0.0
 11
544.1364308914785
 21
43.36789080570911
 31
0.0
  0
LINE
  5
17C
  8
1
  6
CONTINUOUS
 62
     7
 10
513.9020738106609
 20
47.61987716969073
 30
0.0
 11
515.8635691085215
 21
43.36789080570911
 31
0.0
  0
LINE
  5
17D
  8
1
  6
CONTINUOUS
 62
     7
 10
510.2499999999881
 20
8.675449632132743
 30
0.0
 11
510.2500000000001
 21
17.67544963213274
 31
0.0
  0
LINE
  5
17E
  8
1
  6
CONTINUOUS
 62
     7
 10
543.9672220122726
 20
47.67585895984585
 30
0.0
 11
543.6953296761615
 21
47.80264443836812
 31
0.0
  0
LINE
  5
17F
  8
1
  6
CONTINUOUS
 62
     7
 10
516.0327779877274
 20
47.67585895984585
 30
0.0
 11
516.3046703238385
 21
47.80264443836812
 31
0.0
  0
LINE
  5
180
  8
1
  6
CONTINUOUS
 62
     7
 10
549.7500000000119
 20
8.675449632132743
 30
0.0
 11
549.75
 21
17.67544963213274
 31
0.0
  0
ENDSEC
  0
EOF
