  0
SECTION
  2
HEADER
  9
$ACADVER
  1
AC1006
  9
$DWGCODEPAGE
  3
ansi_932
  9
$INSBASE
 10
0.0
 20
0.0
 30
0.0
  9
$EXTMIN
 10
0.0
 20
0.0
  9
$EXTMAX
 10
584.4847898258802
 20
339.9999999999999
  9
$LIMMIN
 10
0.0
 20
0.0
  9
$LIMMAX
 10
12.0
 20
9.0
  9
$ORTHOMODE
 70
     0
  9
$REGENMODE
 70
     1
  9
$FILLMODE
 70
     1
  9
$QTEXTMODE
 70
     0
  9
$MIRRTEXT
 70
     1
  9
$DRAGMODE
 70
     2
  9
$LTSCALE
 40
1.0
  9
$OSMODE
 70
    37
  9
$ATTMODE
 70
     1
  9
$TEXTSIZE
 40
0.2
  9
$TRACEWID
 40
0.05
  9
$TEXTSTYLE
  7
STANDARD
  9
$CLAYER
  8
0
  9
$CELTYPE
  6
BYLAYER
  9
$CECOLOR
 62
   256
  9
$DIMSCALE
 40
1.0
  9
$DIMASZ
 40
3.0
  9
$DIMEXO
 40
0.0625
  9
$DIMDLI
 40
0.38
  9
$DIMRND
 40
0.0
  9
$DIMDLE
 40
0.0
  9
$DIMEXE
 40
1.5
  9
$DIMTP
 40
0.0
  9
$DIMTM
 40
0.0
  9
$DIMTXT
 40
3.0
  9
$DIMCEN
 40
0.09
  9
$DIMTSZ
 40
0.0
  9
$DIMTOL
 70
     0
  9
$DIMLIM
 70
     0
  9
$DIMTIH
 70
     1
  9
$DIMTOH
 70
     1
  9
$DIMSE1
 70
     0
  9
$DIMSE2
 70
     0
  9
$DIMTAD
 70
     1
  9
$DIMZIN
 70
     0
  9
$DIMBLK
  1

  9
$DIMASO
 70
     1
  9
$DIMSHO
 70
     1
  9
$DIMPOST
  1

  9
$DIMAPOST
  1

  9
$DIMALT
 70
     0
  9
$DIMALTD
 70
     2
  9
$DIMALTF
 40
25.4
  9
$DIMLFAC
 40
1.0
  9
$DIMTOFL
 70
     0
  9
$DIMTVP
 40
0.0
  9
$DIMTIX
 70
     0
  9
$DIMSOXD
 70
     0
  9
$DIMSAH
 70
     0
  9
$DIMBLK1
  1

  9
$DIMBLK2
  1

  9
$LUNITS
 70
     2
  9
$LUPREC
 70
     4
  9
$SKETCHINC
 40
0.1
  9
$FILLETRAD
 40
0.5
  9
$AUNITS
 70
     0
  9
$AUPREC
 70
     0
  9
$MENU
  1
.
  9
$ELEVATION
 40
0.0
  9
$THICKNESS
 40
0.0
  9
$LIMCHECK
 70
     0
  9
$CHAMFERA
 40
0.0
  9
$CHAMFERB
 40
0.0
  9
$SKPOLY
 70
     0
  9
$TDCREATE
 40
2460374.438231342
  9
$TDUPDATE
 40
2460374.438231771
  9
$TDINDWG
 40
0.0000000116
  9
$TDUSRTIMER
 40
0.0000000116
  9
$USRTIMER
 70
     1
  9
$ANGBASE
 50
0.0
  9
$ANGDIR
 70
     0
  9
$PDMODE
 70
     0
  9
$PDSIZE
 40
0.0
  9
$PLINEWID
 40
0.0
  9
$COORDS
 70
     1
  9
$SPLFRAME
 70
     0
  9
$SPLINETYPE
 70
     6
  9
$SPLINESEGS
 70
     8
  9
$ATTDIA
 70
     0
  9
$ATTREQ
 70
     1
  9
$HANDLING
 70
     1
  9
$HANDSEED
  5
61A
  9
$SURFTAB1
 70
     6
  9
$SURFTAB2
 70
     6
  9
$SURFTYPE
 70
     6
  9
$SURFU
 70
     6
  9
$SURFV
 70
     6
  9
$UCSNAME
  2

  9
$UCSORG
 10
0.0
 20
0.0
 30
0.0
  9
$UCSXDIR
 10
1.0
 20
0.0
 30
0.0
  9
$UCSYDIR
 10
0.0
 20
1.0
 30
0.0
  9
$USERI1
 70
     0
  9
$USERI2
 70
     0
  9
$USERI3
 70
     0
  9
$USERI4
 70
     0
  9
$USERI5
 70
     0
  9
$USERR1
 40
0.0
  9
$USERR2
 40
0.0
  9
$USERR3
 40
0.0
  9
$USERR4
 40
0.0
  9
$USERR5
 40
0.0
  9
$WORLDVIEW
 70
     1
  0
ENDSEC
  0
SECTION
  2
TABLES
  0
TABLE
  2
VPORT
 70
     1
  0
VPORT
  2
*ACTIVE
 70
     0
 10
0.0
 20
0.0
 11
1.0
 21
1.0
 12
292.2423949129401
 22
170.0
 13
0.0
 23
0.0
 14
0.5
 24
0.5
 15
0.5
 25
0.5
 16
0.0
 26
0.0
 36
1.0
 17
0.0
 27
0.0
 37
0.0
 40
339.9999999999999
 41
1.6
 42
50.0
 43
0.0
 44
0.0
 50
0.0
 51
0.0
 71
     0
 72
   100
 73
     1
 74
     3
 75
     0
 76
     0
 77
     0
 78
     0
  0
ENDTAB
  0
TABLE
  2
LTYPE
 70
     2
  0
LTYPE
  2
CONTINUOUS
 70
     0
  3
Solid line
 72
    65
 73
     0
 40
0.0
  0
LTYPE
  2
CENTER
 70
     0
  3

 72
    65
 73
     0
 40
0.0
  0
ENDTAB
  0
TABLE
  2
LAYER
 70
     1
  0
LAYER
  2
0
 70
     0
 62
     7
  6
CONTINUOUS
  0
ENDTAB
  0
TABLE
  2
STYLE
 70
     2
  0
STYLE
  2
STANDARD
 70
     0
 40
0.0
 41
1.0
 50
0.0
 71
     0
 42
0.2
  3
txt
  4

  0
STYLE
  2
ＭＳ_ゴシック
 70
     0
 40
0.0
 41
1.0
 50
0.0
 71
     0
 42
0.2
  3
ＭＳ ゴシック.shx
  4

  0
ENDTAB
  0
TABLE
  2
VIEW
 70
     0
  0
ENDTAB
  0
TABLE
  2
UCS
 70
     0
  0
ENDTAB
  0
ENDSEC
  0
SECTION
  2
BLOCKS
  0
BLOCK
  8
0
  2
D_FRAME_DRAWING_17
 70
     0
 10
0.0
 20
0.0
 30
0.0
  0
LINE
  5
71
  8
0
  6
CONTINUOUS
 62
     7
 10
0.0
 20
0.0
 30
0.0
 11
210.0
 21
0.0
 31
0.0
  0
LINE
  5
72
  8
0
  6
CONTINUOUS
 62
     7
 10
210.0
 20
0.0
 30
0.0
 11
210.0
 21
297.0
 31
0.0
  0
LINE
  5
73
  8
0
  6
CONTINUOUS
 62
     7
 10
210.0
 20
297.0
 30
0.0
 11
0.0
 21
297.0
 31
0.0
  0
LINE
  5
74
  8
0
  6
CONTINUOUS
 62
     7
 10
0.0
 20
297.0
 30
0.0
 11
0.0
 21
0.0
 31
0.0
  0
ENDBLK
  8
0
  0
BLOCK
  8
0
  2
D_FRAME_VIEW_1280
 70
     0
 10
0.0
 20
0.0
 30
0.0
  0
LINE
  5
79
  8
0
  6
CONTINUOUS
 62
     7
 10
388.2573593128807
 20
209.5157771495648
 30
0.0
 11
388.2573593128807
 21
209.2757771495648
 31
0.0
  0
LINE
  5
7A
  8
0
  6
CONTINUOUS
 62
     7
 10
388.2573593128807
 20
209.5157771495648
 30
0.0
 11
388.594599674948
 21
209.5157771495648
 31
0.0
  0
LINE
  5
7B
  8
0
  6
CONTINUOUS
 62
     7
 10
391.6963077114157
 20
209.5157771495648
 30
0.0
 11
391.9993767503292
 21
209.5157771495648
 31
0.0
  0
LINE
  5
7C
  8
0
  6
CONTINUOUS
 62
     7
 10
388.2573593128807
 20
209.2757771495648
 30
0.0
 11
388.6
 21
209.2757771495648
 31
0.0
  0
LINE
  5
7D
  8
0
  6
CONTINUOUS
 62
     7
 10
391.6909087361465
 20
209.2757771495648
 30
0.0
 11
392.0
 21
209.2757771495648
 31
0.0
  0
LINE
  5
7E
  8
0
  6
CONTINUOUS
 62
     7
 10
393.9642596133071
 20
209.5157771495648
 30
0.0
 11
394.4157149358501
 21
209.5157771495648
 31
0.0
  0
LINE
  5
7F
  8
0
  6
CONTINUOUS
 62
     7
 10
393.9636363636364
 20
209.2757771495648
 30
0.0
 11
394.4181818181818
 21
209.2757771495648
 31
0.0
  0
LINE
  5
80
  8
0
  6
CONTINUOUS
 62
     7
 10
388.0
 20
209.2757771495648
 30
0.0
 11
388.2573593128807
 21
209.2757771495648
 31
0.0
  0
LINE
  5
81
  8
0
  6
CONTINUOUS
 62
     7
 10
388.0
 20
209.5157771495648
 30
0.0
 11
388.2573593128807
 21
209.5157771495648
 31
0.0
  0
LINE
  5
82
  8
0
  6
CONTINUOUS
 62
     7
 10
435.6436670562784
 20
139.2157771495648
 30
0.0
 11
349.3563329437216
 21
139.2157771495648
 31
0.0
  0
POLYLINE
  5
83
  8
0
  6
CONTINUOUS
 62
     7
 66
     1
 10
0.0
 20
0.0
 30
0.0
  0
VERTEX
  5
29D
  8
0
  6
CONTINUOUS
 62
     7
 10
435.1033525228696
 20
140.2137358925116
 30
0.0
  0
VERTEX
  5
29E
  8
0
  6
CONTINUOUS
 62
     7
 10
435.1156311968991
 20
140.2124862300986
 30
0.0
  0
VERTEX
  5
29F
  8
0
  6
CONTINUOUS
 62
     7
 10
435.1278837354859
 20
140.2109453733868
 30
0.0
  0
VERTEX
  5
2A0
  8
0
  6
CONTINUOUS
 62
     7
 10
435.1396315204279
 20
140.2091925505513
 30
0.0
  0
VERTEX
  5
2A1
  8
0
  6
CONTINUOUS
 62
     7
 10
435.151318689081
 20
140.2071811267291
 30
0.0
  0
VERTEX
  5
2A2
  8
0
  6
CONTINUOUS
 62
     7
 10
435.1629802516762
 20
140.2049072078205
 30
0.0
  0
VERTEX
  5
2A3
  8
0
  6
CONTINUOUS
 62
     7
 10
435.1745599623098
 20
140.2023845321637
 30
0.0
  0
VERTEX
  5
2A4
  8
0
  6
CONTINUOUS
 62
     7
 10
435.1862126829008
 20
140.1995779838387
 30
0.0
  0
VERTEX
  5
2A5
  8
0
  6
CONTINUOUS
 62
     7
 10
435.1977624275843
 20
140.1965291764233
 30
0.0
  0
VERTEX
  5
2A6
  8
0
  6
CONTINUOUS
 62
     7
 10
435.2092414063976
 20
140.1932330923596
 30
0.0
  0
VERTEX
  5
2A7
  8
0
  6
CONTINUOUS
 62
     7
 10
435.2206005442918
 20
140.189707767795
 30
0.0
  0
VERTEX
  5
2A8
  8
0
  6
CONTINUOUS
 62
     7
 10
435.2324577893303
 20
140.185744484781
 30
0.0
  0
VERTEX
  5
2A9
  8
0
  6
CONTINUOUS
 62
     7
 10
435.244176370689
 20
140.1815390900201
 30
0.0
  0
VERTEX
  5
2AA
  8
0
  6
CONTINUOUS
 62
     7
 10
435.255268587885
 20
140.1772900246874
 30
0.0
  0
VERTEX
  5
2AB
  8
0
  6
CONTINUOUS
 62
     7
 10
435.2662204885546
 20
140.1728340595649
 30
0.0
  0
VERTEX
  5
2AC
  8
0
  6
CONTINUOUS
 62
     7
 10
435.2868091054763
 20
140.163738470549
 30
0.0
  0
VERTEX
  5
2AD
  8
0
  6
CONTINUOUS
 62
     7
 10
435.3068557440848
 20
140.1539491757096
 30
0.0
  0
VERTEX
  5
2AE
  8
0
  6
CONTINUOUS
 62
     7
 10
435.3264548141266
 20
140.143446493641
 30
0.0
  0
VERTEX
  5
2AF
  8
0
  6
CONTINUOUS
 62
     7
 10
435.3454563424014
 20
140.1323376488982
 30
0.0
  0
VERTEX
  5
2B0
  8
0
  6
CONTINUOUS
 62
     7
 10
435.3647613188307
 20
140.1200611854961
 30
0.0
  0
VERTEX
  5
2B1
  8
0
  6
CONTINUOUS
 62
     7
 10
435.3787732927835
 20
140.1104871990741
 30
0.0
  0
VERTEX
  5
2B2
  8
0
  6
CONTINUOUS
 62
     7
 10
435.3923905377137
 20
140.1006153820025
 30
0.0
  0
VERTEX
  5
2B3
  8
0
  6
CONTINUOUS
 62
     7
 10
435.4044921023514
 20
140.0913459466317
 30
0.0
  0
VERTEX
  5
2B4
  8
0
  6
CONTINUOUS
 62
     7
 10
435.4162521221347
 20
140.0818641938579
 30
0.0
  0
VERTEX
  5
2B5
  8
0
  6
CONTINUOUS
 62
     7
 10
435.4388146810806
 20
140.0622569360084
 30
0.0
  0
VERTEX
  5
2B6
  8
0
  6
CONTINUOUS
 62
     7
 10
435.4571106228374
 20
140.0448463192207
 30
0.0
  0
VERTEX
  5
2B7
  8
0
  6
CONTINUOUS
 62
     7
 10
435.4744466521437
 20
140.0269332657062
 30
0.0
  0
VERTEX
  5
2B8
  8
0
  6
CONTINUOUS
 62
     7
 10
435.4899818155782
 20
140.0095515479575
 30
0.0
  0
VERTEX
  5
2B9
  8
0
  6
CONTINUOUS
 62
     7
 10
435.5046647746007
 20
139.9918006900477
 30
0.0
  0
VERTEX
  5
2BA
  8
0
  6
CONTINUOUS
 62
     7
 10
435.5225653050923
 20
139.9681211308806
 30
0.0
  0
VERTEX
  5
2BB
  8
0
  6
CONTINUOUS
 62
     7
 10
435.5390439524911
 20
139.943926688054
 30
0.0
  0
VERTEX
  5
2BC
  8
0
  6
CONTINUOUS
 62
     7
 10
435.5541954264938
 20
139.919133456698
 30
0.0
  0
VERTEX
  5
2BD
  8
0
  6
CONTINUOUS
 62
     7
 10
435.5679287835878
 20
139.8939382264905
 30
0.0
  0
VERTEX
  5
2BE
  8
0
  6
CONTINUOUS
 62
     7
 10
435.5803496897236
 20
139.8681759925853
 30
0.0
  0
VERTEX
  5
2BF
  8
0
  6
CONTINUOUS
 62
     7
 10
435.5913419005596
 20
139.8421062020517
 30
0.0
  0
VERTEX
  5
2C0
  8
0
  6
CONTINUOUS
 62
     7
 10
435.600958158231
 20
139.8156244119697
 30
0.0
  0
VERTEX
  5
2C1
  8
0
  6
CONTINUOUS
 62
     7
 10
435.6091315663673
 20
139.7889208251089
 30
0.0
  0
VERTEX
  5
2C2
  8
0
  6
CONTINUOUS
 62
     7
 10
435.615214796791
 20
139.764889344748
 30
0.0
  0
VERTEX
  5
2C3
  8
0
  6
CONTINUOUS
 62
     7
 10
435.6201350323833
 20
139.7407457790469
 30
0.0
  0
VERTEX
  5
2C4
  8
0
  6
CONTINUOUS
 62
     7
 10
435.6206912125328
 20
139.7375868432475
 30
0.0
  0
SEQEND
  5
5F0
  8
0
  6
CONTINUOUS
 62
     7
  0
POLYLINE
  5
84
  8
0
  6
CONTINUOUS
 62
     7
 66
     1
 10
0.0
 20
0.0
 30
0.0
  0
VERTEX
  5
2C5
  8
0
  6
CONTINUOUS
 62
     7
 10
349.3793087874673
 20
139.7375868432475
 30
0.0
  0
VERTEX
  5
2C6
  8
0
  6
CONTINUOUS
 62
     7
 10
349.3798649676168
 20
139.7407457790461
 30
0.0
  0
VERTEX
  5
2C7
  8
0
  6
CONTINUOUS
 62
     7
 10
349.38477865031
 20
139.7648606511598
 30
0.0
  0
VERTEX
  5
2C8
  8
0
  6
CONTINUOUS
 62
     7
 10
349.3908684336327
 20
139.7889208251089
 30
0.0
  0
VERTEX
  5
2C9
  8
0
  6
CONTINUOUS
 62
     7
 10
349.3987754421628
 20
139.8148257425879
 30
0.0
  0
VERTEX
  5
2CA
  8
0
  6
CONTINUOUS
 62
     7
 10
349.4080691832526
 20
139.8405982044505
 30
0.0
  0
VERTEX
  5
2CB
  8
0
  6
CONTINUOUS
 62
     7
 10
349.4188226851522
 20
139.8663343863692
 30
0.0
  0
VERTEX
  5
2CC
  8
0
  6
CONTINUOUS
 62
     7
 10
349.4310068636372
 20
139.8918542882873
 30
0.0
  0
VERTEX
  5
2CD
  8
0
  6
CONTINUOUS
 62
     7
 10
349.4447559352749
 20
139.9173102502706
 30
0.0
  0
VERTEX
  5
2CE
  8
0
  6
CONTINUOUS
 62
     7
 10
349.460004863932
 20
139.9424484191242
 30
0.0
  0
VERTEX
  5
2CF
  8
0
  6
CONTINUOUS
 62
     7
 10
349.4768795938064
 20
139.9673464007191
 30
0.0
  0
VERTEX
  5
2D0
  8
0
  6
CONTINUOUS
 62
     7
 10
349.4953352253993
 20
139.9918006900477
 30
0.0
  0
VERTEX
  5
2D1
  8
0
  6
CONTINUOUS
 62
     7
 10
349.5151479292213
 20
140.0154407425631
 30
0.0
  0
VERTEX
  5
2D2
  8
0
  6
CONTINUOUS
 62
     7
 10
349.5346216700479
 20
140.0364862456111
 30
0.0
  0
VERTEX
  5
2D3
  8
0
  6
CONTINUOUS
 62
     7
 10
349.5554692105501
 20
140.0569712652974
 30
0.0
  0
VERTEX
  5
2D4
  8
0
  6
CONTINUOUS
 62
     7
 10
349.5744339485211
 20
140.0740044130026
 30
0.0
  0
VERTEX
  5
2D5
  8
0
  6
CONTINUOUS
 62
     7
 10
349.5944428772864
 20
140.0905069075154
 30
0.0
  0
VERTEX
  5
2D6
  8
0
  6
CONTINUOUS
 62
     7
 10
349.6143600232792
 20
140.1055811198534
 30
0.0
  0
VERTEX
  5
2D7
  8
0
  6
CONTINUOUS
 62
     7
 10
349.6352386811693
 20
140.1200611854961
 30
0.0
  0
VERTEX
  5
2D8
  8
0
  6
CONTINUOUS
 62
     7
 10
349.6541090815254
 20
140.1320725029821
 30
0.0
  0
VERTEX
  5
2D9
  8
0
  6
CONTINUOUS
 62
     7
 10
349.672849253585
 20
140.1430560298823
 30
0.0
  0
VERTEX
  5
2DA
  8
0
  6
CONTINUOUS
 62
     7
 10
349.6922511953491
 20
140.1534909871869
 30
0.0
  0
VERTEX
  5
2DB
  8
0
  6
CONTINUOUS
 62
     7
 10
349.7124272655724
 20
140.1633826934365
 30
0.0
  0
VERTEX
  5
2DC
  8
0
  6
CONTINUOUS
 62
     7
 10
349.733256484902
 20
140.1726146958229
 30
0.0
  0
VERTEX
  5
2DD
  8
0
  6
CONTINUOUS
 62
     7
 10
349.7444578056505
 20
140.1771818771094
 30
0.0
  0
VERTEX
  5
2DE
  8
0
  6
CONTINUOUS
 62
     7
 10
349.755823629311
 20
140.1815390900201
 30
0.0
  0
VERTEX
  5
2DF
  8
0
  6
CONTINUOUS
 62
     7
 10
349.767096098985
 20
140.1855896694521
 30
0.0
  0
VERTEX
  5
2E0
  8
0
  6
CONTINUOUS
 62
     7
 10
349.7785161637232
 20
140.1894225513142
 30
0.0
  0
VERTEX
  5
2E1
  8
0
  6
CONTINUOUS
 62
     7
 10
349.7896226753754
 20
140.1928924128922
 30
0.0
  0
VERTEX
  5
2E2
  8
0
  6
CONTINUOUS
 62
     7
 10
349.8008446815691
 20
140.1961434072911
 30
0.0
  0
VERTEX
  5
2E3
  8
0
  6
CONTINUOUS
 62
     7
 10
349.8122135379786
 20
140.1991782471765
 30
0.0
  0
VERTEX
  5
2E4
  8
0
  6
CONTINUOUS
 62
     7
 10
349.8236835566505
 20
140.2019787347843
 30
0.0
  0
VERTEX
  5
2E5
  8
0
  6
CONTINUOUS
 62
     7
 10
349.8354036055212
 20
140.2045709919993
 30
0.0
  0
VERTEX
  5
2E6
  8
0
  6
CONTINUOUS
 62
     7
 10
349.8472090682711
 20
140.2069087735989
 30
0.0
  0
VERTEX
  5
2E7
  8
0
  6
CONTINUOUS
 62
     7
 10
349.859137508664
 20
140.208993275339
 30
0.0
  0
VERTEX
  5
2E8
  8
0
  6
CONTINUOUS
 62
     7
 10
349.8711303645087
 20
140.2108086399816
 30
0.0
  0
VERTEX
  5
2E9
  8
0
  6
CONTINUOUS
 62
     7
 10
349.8838591021873
 20
140.2124279790143
 30
0.0
  0
VERTEX
  5
2EA
  8
0
  6
CONTINUOUS
 62
     7
 10
349.8966474771304
 20
140.2137358925116
 30
0.0
  0
SEQEND
  5
5F1
  8
0
  6
CONTINUOUS
 62
     7
  0
LINE
  5
85
  8
0
  6
CONTINUOUS
 62
     7
 10
349.8966474771304
 20
140.2137358925116
 30
0.0
 11
349.9422274911412
 21
140.2157771495648
 31
0.0
  0
LINE
  5
86
  8
0
  6
CONTINUOUS
 62
     7
 10
349.9422274911411
 20
140.2157771495648
 30
0.0
 11
435.0577725088589
 21
140.2157771495648
 31
0.0
  0
LINE
  5
87
  8
0
  6
CONTINUOUS
 62
     7
 10
435.0577725088588
 20
140.2157771495648
 30
0.0
 11
435.1033525228696
 21
140.2137358925116
 31
0.0
  0
LINE
  5
88
  8
0
  6
CONTINUOUS
 62
     7
 10
369.2428964325564
 20
200.0873345770414
 30
0.0
 11
369.3512860826505
 21
199.376412211277
 31
0.0
  0
ARC
  5
89
  8
0
  6
CONTINUOUS
 62
     7
 10
582.9441420019392
 20
281.0608157975606
 30
0.0
 40
228.6793604350968
 50
200.9283741749533
 51
212.2954729961822
  0
LINE
  5
8A
  8
0
  6
CONTINUOUS
 62
     7
 10
389.6405523919534
 20
158.8807350441944
 30
0.0
 11
392.5
 21
154.2157771495648
 31
0.0
  0
POLYLINE
  5
8B
  8
0
  6
CONTINUOUS
 62
     7
 66
     1
 10
0.0
 20
0.0
 30
0.0
  0
VERTEX
  5
2EB
  8
0
  6
CONTINUOUS
 62
     7
 10
365.1879204156927
 20
164.2157771495648
 30
0.0
  0
VERTEX
  5
2EC
  8
0
  6
CONTINUOUS
 62
     7
 10
367.094208410168
 20
159.212286902505
 30
0.0
  0
VERTEX
  5
2ED
  8
0
  6
CONTINUOUS
 62
     7
 10
369.2017960160279
 20
154.2157771495648
 30
0.0
  0
SEQEND
  5
5F2
  8
0
  6
CONTINUOUS
 62
     7
  0
ARC
  5
8C
  8
0
  6
CONTINUOUS
 62
     7
 10
476.5755724290032
 20
205.3054046931698
 30
0.0
 40
118.7247510534789
 50
182.5190175588806
 51
200.2484394127107
  0
LINE
  5
8D
  8
0
  6
CONTINUOUS
 62
     7
 10
433.9347521146348
 20
153.7157771495648
 30
0.0
 11
434.5302358562347
 21
140.2157771495648
 31
0.0
  0
LINE
  5
8E
  8
0
  6
CONTINUOUS
 62
     7
 10
350.4697641437654
 20
140.2157771495648
 30
0.0
 11
351.0652478853652
 21
153.7157771495648
 31
0.0
  0
LINE
  5
8F
  8
0
  6
CONTINUOUS
 62
     7
 10
351.0661411387426
 20
153.7375868432476
 30
0.0
 11
351.0652478853652
 21
153.7157771495648
 31
0.0
  0
LINE
  5
90
  8
0
  6
CONTINUOUS
 62
     7
 10
433.9347521146348
 20
153.7157771495648
 30
0.0
 11
433.9338588612575
 21
153.7375868432475
 31
0.0
  0
POLYLINE
  5
91
  8
0
  6
CONTINUOUS
 62
     7
 66
     1
 10
0.0
 20
0.0
 30
0.0
  0
VERTEX
  5
2EE
  8
0
  6
CONTINUOUS
 62
     7
 10
351.0661411387426
 20
153.7375868432476
 30
0.0
  0
VERTEX
  5
2EF
  8
0
  6
CONTINUOUS
 62
     7
 10
351.0669932150071
 20
153.753959760913
 30
0.0
  0
VERTEX
  5
2F0
  8
0
  6
CONTINUOUS
 62
     7
 10
351.0683065769661
 20
153.7702613710591
 30
0.0
  0
VERTEX
  5
2F1
  8
0
  6
CONTINUOUS
 62
     7
 10
351.0700912426457
 20
153.7865823428817
 30
0.0
  0
VERTEX
  5
2F2
  8
0
  6
CONTINUOUS
 62
     7
 10
351.0723311698044
 20
153.8027718785357
 30
0.0
  0
VERTEX
  5
2F3
  8
0
  6
CONTINUOUS
 62
     7
 10
351.074472311177
 20
153.8157633957472
 30
0.0
  0
VERTEX
  5
2F4
  8
0
  6
CONTINUOUS
 62
     7
 10
351.076900499285
 20
153.8286366442317
 30
0.0
  0
VERTEX
  5
2F5
  8
0
  6
CONTINUOUS
 62
     7
 10
351.0796228032077
 20
153.8414359724956
 30
0.0
  0
VERTEX
  5
2F6
  8
0
  6
CONTINUOUS
 62
     7
 10
351.0826219637067
 20
153.8540902024742
 30
0.0
  0
VERTEX
  5
2F7
  8
0
  6
CONTINUOUS
 62
     7
 10
351.0853494148937
 20
153.8645963300175
 30
0.0
  0
VERTEX
  5
2F8
  8
0
  6
CONTINUOUS
 62
     7
 10
351.0882649943859
 20
153.8749930934729
 30
0.0
  0
VERTEX
  5
2F9
  8
0
  6
CONTINUOUS
 62
     7
 10
351.0931293144113
 20
153.8908250432448
 30
0.0
  0
VERTEX
  5
2FA
  8
0
  6
CONTINUOUS
 62
     7
 10
351.0984103275193
 20
153.9063429263468
 30
0.0
  0
VERTEX
  5
2FB
  8
0
  6
CONTINUOUS
 62
     7
 10
351.1041282808252
 20
153.9216251992595
 30
0.0
  0
VERTEX
  5
2FC
  8
0
  6
CONTINUOUS
 62
     7
 10
351.1102319602442
 20
153.9365561991077
 30
0.0
  0
VERTEX
  5
2FD
  8
0
  6
CONTINUOUS
 62
     7
 10
351.1167629405721
 20
153.9512515102308
 30
0.0
  0
VERTEX
  5
2FE
  8
0
  6
CONTINUOUS
 62
     7
 10
351.1236492404177
 20
153.9655646192214
 30
0.0
  0
VERTEX
  5
2FF
  8
0
  6
CONTINUOUS
 62
     7
 10
351.1309125276804
 20
153.9795600896366
 30
0.0
  0
VERTEX
  5
300
  8
0
  6
CONTINUOUS
 62
     7
 10
351.1384981683546
 20
153.993152448489
 30
0.0
  0
VERTEX
  5
301
  8
0
  6
CONTINUOUS
 62
     7
 10
351.1491247883177
 20
154.0107038078085
 30
0.0
  0
VERTEX
  5
302
  8
0
  6
CONTINUOUS
 62
     7
 10
351.1603161465816
 20
154.0275990892318
 30
0.0
  0
VERTEX
  5
303
  8
0
  6
CONTINUOUS
 62
     7
 10
351.1720012445548
 20
154.0437685211743
 30
0.0
  0
VERTEX
  5
304
  8
0
  6
CONTINUOUS
 62
     7
 10
351.1842499709812
 20
154.0593327484756
 30
0.0
  0
VERTEX
  5
305
  8
0
  6
CONTINUOUS
 62
     7
 10
351.1969293093077
 20
154.0741448404158
 30
0.0
  0
VERTEX
  5
306
  8
0
  6
CONTINUOUS
 62
     7
 10
351.210116699363
 20
154.0883161103649
 30
0.0
  0
VERTEX
  5
307
  8
0
  6
CONTINUOUS
 62
     7
 10
351.2236764383541
 20
154.1017196068931
 30
0.0
  0
VERTEX
  5
308
  8
0
  6
CONTINUOUS
 62
     7
 10
351.2376205875831
 20
154.1143932034819
 30
0.0
  0
VERTEX
  5
309
  8
0
  6
CONTINUOUS
 62
     7
 10
351.2555578065967
 20
154.1292063059825
 30
0.0
  0
VERTEX
  5
30A
  8
0
  6
CONTINUOUS
 62
     7
 10
351.2740077735518
 20
154.1428642750658
 30
0.0
  0
VERTEX
  5
30B
  8
0
  6
CONTINUOUS
 62
     7
 10
351.2928658243633
 20
154.1553251540643
 30
0.0
  0
VERTEX
  5
30C
  8
0
  6
CONTINUOUS
 62
     7
 10
351.3122532130054
 20
154.1666883981343
 30
0.0
  0
VERTEX
  5
30D
  8
0
  6
CONTINUOUS
 62
     7
 10
351.3319683110758
 20
154.1768511454693
 30
0.0
  0
VERTEX
  5
30E
  8
0
  6
CONTINUOUS
 62
     7
 10
351.3521400930729
 20
154.1858918593811
 30
0.0
  0
VERTEX
  5
30F
  8
0
  6
CONTINUOUS
 62
     7
 10
351.3725677567169
 20
154.1937287461957
 30
0.0
  0
VERTEX
  5
310
  8
0
  6
CONTINUOUS
 62
     7
 10
351.393278477873
 20
154.2003870987177
 30
0.0
  0
VERTEX
  5
311
  8
0
  6
CONTINUOUS
 62
     7
 10
351.4191112541315
 20
154.2069570033854
 30
0.0
  0
VERTEX
  5
312
  8
0
  6
CONTINUOUS
 62
     7
 10
351.4451821216491
 20
154.2117094294999
 30
0.0
  0
VERTEX
  5
313
  8
0
  6
CONTINUOUS
 62
     7
 10
351.4714619550824
 20
154.2146484586897
 30
0.0
  0
VERTEX
  5
314
  8
0
  6
CONTINUOUS
 62
     7
 10
351.497867266001
 20
154.2157657180076
 30
0.0
  0
VERTEX
  5
315
  8
0
  6
CONTINUOUS
 62
     7
 10
351.5008249222882
 20
154.2157771495648
 30
0.0
  0
SEQEND
  5
5F3
  8
0
  6
CONTINUOUS
 62
     7
  0
LINE
  5
92
  8
0
  6
CONTINUOUS
 62
     7
 10
351.5008249222882
 20
154.2157771495648
 30
0.0
 11
433.4991750777119
 21
154.2157771495648
 31
0.0
  0
POLYLINE
  5
93
  8
0
  6
CONTINUOUS
 62
     7
 66
     1
 10
0.0
 20
0.0
 30
0.0
  0
VERTEX
  5
316
  8
0
  6
CONTINUOUS
 62
     7
 10
433.4991750777119
 20
154.2157771495648
 30
0.0
  0
VERTEX
  5
317
  8
0
  6
CONTINUOUS
 62
     7
 10
433.5021327340002
 20
154.2157657180076
 30
0.0
  0
VERTEX
  5
318
  8
0
  6
CONTINUOUS
 62
     7
 10
433.5283308821144
 20
154.2146643522064
 30
0.0
  0
VERTEX
  5
319
  8
0
  6
CONTINUOUS
 62
     7
 10
433.5545134965108
 20
154.2117540209125
 30
0.0
  0
VERTEX
  5
31A
  8
0
  6
CONTINUOUS
 62
     7
 10
433.5806811071796
 20
154.2070022160028
 30
0.0
  0
VERTEX
  5
31B
  8
0
  6
CONTINUOUS
 62
     7
 10
433.6067215221271
 20
154.2003870987177
 30
0.0
  0
VERTEX
  5
31C
  8
0
  6
CONTINUOUS
 62
     7
 10
433.626742186526
 20
154.1939711313511
 30
0.0
  0
VERTEX
  5
31D
  8
0
  6
CONTINUOUS
 62
     7
 10
433.6466418440744
 20
154.1863956386317
 30
0.0
  0
VERTEX
  5
31E
  8
0
  6
CONTINUOUS
 62
     7
 10
433.6663593535237
 20
154.1776516741506
 30
0.0
  0
VERTEX
  5
31F
  8
0
  6
CONTINUOUS
 62
     7
 10
433.6860495621863
 20
154.1676170860785
 30
0.0
  0
VERTEX
  5
320
  8
0
  6
CONTINUOUS
 62
     7
 10
433.7054813454732
 20
154.156349443711
 30
0.0
  0
VERTEX
  5
321
  8
0
  6
CONTINUOUS
 62
     7
 10
433.7248056625733
 20
154.1436915552368
 30
0.0
  0
VERTEX
  5
322
  8
0
  6
CONTINUOUS
 62
     7
 10
433.7437773148797
 20
154.1297253148846
 30
0.0
  0
VERTEX
  5
323
  8
0
  6
CONTINUOUS
 62
     7
 10
433.762379412417
 20
154.1143932034819
 30
0.0
  0
VERTEX
  5
324
  8
0
  6
CONTINUOUS
 62
     7
 10
433.7758687123053
 20
154.1021501535484
 30
0.0
  0
VERTEX
  5
325
  8
0
  6
CONTINUOUS
 62
     7
 10
433.7890899991667
 20
154.0891316193808
 30
0.0
  0
VERTEX
  5
326
  8
0
  6
CONTINUOUS
 62
     7
 10
433.8019963754552
 20
154.0753443722309
 30
0.0
  0
VERTEX
  5
327
  8
0
  6
CONTINUOUS
 62
     7
 10
433.8146755560649
 20
154.0606367951326
 30
0.0
  0
VERTEX
  5
328
  8
0
  6
CONTINUOUS
 62
     7
 10
433.82696946828
 20
154.045128182242
 30
0.0
  0
VERTEX
  5
329
  8
0
  6
CONTINUOUS
 62
     7
 10
433.8389584082237
 20
154.0286442807248
 30
0.0
  0
VERTEX
  5
32A
  8
0
  6
CONTINUOUS
 62
     7
 10
433.8504768524489
 20
154.0113315254479
 30
0.0
  0
VERTEX
  5
32B
  8
0
  6
CONTINUOUS
 62
     7
 10
433.8615018316454
 20
153.993152448489
 30
0.0
  0
VERTEX
  5
32C
  8
0
  6
CONTINUOUS
 62
     7
 10
433.8689313172581
 20
153.9798499061263
 30
0.0
  0
VERTEX
  5
32D
  8
0
  6
CONTINUOUS
 62
     7
 10
433.8760522184331
 20
153.9661608697675
 30
0.0
  0
VERTEX
  5
32E
  8
0
  6
CONTINUOUS
 62
     7
 10
433.8828811028224
 20
153.9520192267475
 30
0.0
  0
VERTEX
  5
32F
  8
0
  6
CONTINUOUS
 62
     7
 10
433.8893631947855
 20
153.9375029858171
 30
0.0
  0
VERTEX
  5
330
  8
0
  6
CONTINUOUS
 62
     7
 10
433.8955480081865
 20
153.9224502240994
 30
0.0
  0
VERTEX
  5
331
  8
0
  6
CONTINUOUS
 62
     7
 10
433.9013406809736
 20
153.9070386338693
 30
0.0
  0
VERTEX
  5
332
  8
0
  6
CONTINUOUS
 62
     7
 10
433.9067555285205
 20
153.8911803061098
 30
0.0
  0
VERTEX
  5
333
  8
0
  6
CONTINUOUS
 62
     7
 10
433.9117350056141
 20
153.8749930934729
 30
0.0
  0
VERTEX
  5
334
  8
0
  6
CONTINUOUS
 62
     7
 10
433.9161679995283
 20
153.8588545859473
 30
0.0
  0
VERTEX
  5
335
  8
0
  6
CONTINUOUS
 62
     7
 10
433.9201496046776
 20
153.8424441538253
 30
0.0
  0
VERTEX
  5
336
  8
0
  6
CONTINUOUS
 62
     7
 10
433.9236880124366
 20
153.8256609977209
 30
0.0
  0
VERTEX
  5
337
  8
0
  6
CONTINUOUS
 62
     7
 10
433.9267373617126
 20
153.8086555624378
 30
0.0
  0
VERTEX
  5
338
  8
0
  6
CONTINUOUS
 62
     7
 10
433.9287223059791
 20
153.7955784873623
 30
0.0
  0
VERTEX
  5
339
  8
0
  6
CONTINUOUS
 62
     7
 10
433.9304107231009
 20
153.7824046223723
 30
0.0
  0
VERTEX
  5
33A
  8
0
  6
CONTINUOUS
 62
     7
 10
433.9318038401917
 20
153.7690842339959
 30
0.0
  0
VERTEX
  5
33B
  8
0
  6
CONTINUOUS
 62
     7
 10
433.9328891103543
 20
153.7556971976298
 30
0.0
  0
VERTEX
  5
33C
  8
0
  6
CONTINUOUS
 62
     7
 10
433.9338588612575
 20
153.7375868432475
 30
0.0
  0
SEQEND
  5
5F4
  8
0
  6
CONTINUOUS
 62
     7
  0
ARC
  5
94
  8
0
  6
CONTINUOUS
 62
     7
 10
633.7285875180987
 20
312.3836648051555
 30
0.0
 40
283.098842046902
 50
203.3700609904874
 51
211.5591582634298
  0
LINE
  5
95
  8
0
  6
CONTINUOUS
 62
     7
 10
395.0075433585393
 20
200.0873345770414
 30
0.0
 11
395.2084068962819
 21
199.376412211277
 31
0.0
  0
ARC
  5
96
  8
0
  6
CONTINUOUS
 62
     7
 10
-794.9909275660456
 20
-497.8020284452045
 30
0.0
 40
1379.359356321177
 50
28.3747729047405
 51
30.3603264920311
  0
LINE
  5
97
  8
0
  6
CONTINUOUS
 62
     7
 10
418.6493031310493
 20
157.7203772010653
 30
0.0
 11
420.4307178568686
 21
154.2157771495648
 31
0.0
  0
ARC
  5
98
  8
0
  6
CONTINUOUS
 62
     7
 10
387.9195757091836
 20
206.1443712128517
 30
0.0
 40
15.31375822746787
 50
190.200600977662
 51
203.2989752352169
  0
LINE
  5
99
  8
0
  6
CONTINUOUS
 62
     7
 10
433.9600930075189
 20
130.2157771495648
 30
0.0
 11
433.5630116776529
 21
139.2157771495648
 31
0.0
  0
LINE
  5
9A
  8
0
  6
CONTINUOUS
 62
     7
 10
351.0399069924812
 20
130.2157771495648
 30
0.0
 11
351.4369883223471
 21
139.2157771495648
 31
0.0
  0
LINE
  5
9B
  8
0
  6
CONTINUOUS
 62
     7
 10
392.9847975618217
 20
163.4079591384149
 30
0.0
 11
392.9721302918433
 21
163.4093609506095
 31
0.0
  0
LINE
  5
9C
  8
0
  6
CONTINUOUS
 62
     7
 10
392.5
 20
164.2157771495648
 30
0.0
 11
392.9847975618217
 21
163.4079591384149
 31
0.0
  0
LINE
  5
9D
  8
0
  6
CONTINUOUS
 62
     7
 10
419.3033053933285
 20
200.0873345770414
 30
0.0
 11
419.4789796824963
 21
199.376412211277
 31
0.0
  0
ARC
  5
9E
  8
0
  6
CONTINUOUS
 62
     7
 10
280.9223303936063
 20
136.3442079792601
 30
0.0
 40
152.2202477744376
 50
8.072645966897028
 51
24.4617420782555
  0
LINE
  5
9F
  8
0
  6
CONTINUOUS
 62
     7
 10
431.6341993685959
 20
157.7202783051345
 30
0.0
 11
432.0000000000001
 21
154.2157771495648
 31
0.0
  0
LINE
  5
A0
  8
0
  6
CONTINUOUS
 62
     7
 10
394.9364440224612
 20
209.2157771495648
 30
0.0
 11
395.0075433585388
 21
200.0873345770414
 31
0.0
  0
LINE
  5
A1
  8
0
  6
CONTINUOUS
 62
     7
 10
394.9364440224612
 20
209.2157771495648
 30
0.0
 11
395.1252676493314
 21
209.2157771495648
 31
0.0
  0
ARC
  5
A2
  8
0
  6
CONTINUOUS
 62
     7
 10
377.3969905632292
 20
204.8808653584494
 30
0.0
 40
4.774159814274086
 50
123.8996239104724
 51
197.6619934825272
  0
ARC
  5
A3
  8
0
  6
CONTINUOUS
 62
     7
 10
376.350085372994
 20
205.5236263453314
 30
0.0
 40
3.6922132509218
 50
89.54185325047638
 51
115.9529324473204
  0
LINE
  5
A4
  8
0
  6
CONTINUOUS
 62
     7
 10
376.4016827674401
 20
209.2157771495648
 30
0.0
 11
376.3795892455416
 21
209.2157771495648
 31
0.0
  0
LINE
  5
A5
  8
0
  6
CONTINUOUS
 62
     7
 10
376.4016938873959
 20
209.2157771495648
 30
0.0
 11
376.499840353305
 21
209.2157771495648
 31
0.0
  0
LINE
  5
A6
  8
0
  6
CONTINUOUS
 62
     7
 10
376.499840353305
 20
209.2157771495648
 30
0.0
 11
394.9364440224612
 21
209.2157771495648
 31
0.0
  0
LINE
  5
A7
  8
0
  6
CONTINUOUS
 62
     7
 10
398.7337307739898
 20
203.4323802259724
 30
0.0
 11
398.146131035055
 21
204.4133213116826
 31
0.0
  0
LINE
  5
A8
  8
0
  6
CONTINUOUS
 62
     7
 10
395.1232156021442
 20
209.2157771495648
 30
0.0
 11
412.1891801473622
 21
209.2157771495648
 31
0.0
  0
ARC
  5
A9
  8
0
  6
CONTINUOUS
 62
     7
 10
411.367292412607
 20
201.7768828915608
 30
0.0
 40
7.484159754461797
 50
12.70284638124644
 51
83.69523529286265
  0
ARC
  5
AA
  8
0
  6
CONTINUOUS
 62
     7
 10
406.053907751181
 20
199.2927348432008
 30
0.0
 40
13.2732033291422
 50
3.432061385062525
 51
18.12817446368126
  0
ARC
  5
AB
  8
0
  6
CONTINUOUS
 62
     7
 10
303.9887986762405
 20
149.5480031123125
 30
0.0
 40
108.9761734419335
 50
30.22928282300517
 51
33.15392362556852
  0
LINE
  5
AC
  8
0
  6
CONTINUOUS
 62
     7
 10
395.2241289056669
 20
209.1459971722965
 30
0.0
 11
395.1252892620986
 21
209.215721559183
 31
0.0
  0
ARC
  5
AD
  8
0
  6
CONTINUOUS
 62
     7
 10
377.0058937425356
 20
202.017267553341
 30
0.0
 40
7.237414821979047
 50
95.94353203323745
 51
166.2862222208502
  0
ARC
  5
AE
  8
0
  6
CONTINUOUS
 62
     7
 10
382.6095520103996
 20
199.3002053884176
 30
0.0
 40
13.38981156313548
 50
160.6667932227101
 51
176.6298856410295
  0
LINE
  5
AF
  8
0
  6
CONTINUOUS
 62
     7
 10
376.2564720331653
 20
209.2157771495648
 30
0.0
 11
376.3795892455416
 21
209.2157771495648
 31
0.0
  0
POLYLINE
  5
B0
  8
0
  6
CONTINUOUS
 62
     7
 66
     1
 10
0.0
 20
0.0
 30
0.0
  0
VERTEX
  5
33D
  8
0
  6
CONTINUOUS
 62
     7
 10
353.8748866352592
 20
164.2157771495648
 30
0.0
  0
VERTEX
  5
33E
  8
0
  6
CONTINUOUS
 62
     7
 10
353.5538178971645
 20
159.212286902505
 30
0.0
  0
VERTEX
  5
33F
  8
0
  6
CONTINUOUS
 62
     7
 10
353.4708189599024
 20
154.2157771495648
 30
0.0
  0
SEQEND
  5
5F5
  8
0
  6
CONTINUOUS
 62
     7
  0
LINE
  5
B1
  8
0
  6
CONTINUOUS
 62
     7
 10
357.0543679303075
 20
199.376412211277
 30
0.0
 11
356.9580864889081
 21
196.2156420445083
 31
0.0
  0
ARC
  5
B2
  8
0
  6
CONTINUOUS
 62
     7
 10
468.5801607098579
 20
194.7541604619402
 30
0.0
 40
111.6316414902307
 50
179.249862156733
 51
201.2934182373998
  0
ARC
  5
B3
  8
0
  6
CONTINUOUS
 62
     7
 10
366.6971127927025
 20
200.4713803539476
 30
0.0
 40
8.740008096752385
 50
160.1970199330206
 51
182.518451825981
  0
ARC
  5
B4
  8
0
  6
CONTINUOUS
 62
     7
 10
366.9095968885044
 20
200.1743262672448
 30
0.0
 40
9.0429455498953
 50
88.9390599076686
 51
158.8821892669843
  0
LINE
  5
B5
  8
0
  6
CONTINUOUS
 62
     7
 10
367.1103406404072
 20
209.2157771495648
 30
0.0
 11
367.0770288306884
 21
209.2157771495648
 31
0.0
  0
LINE
  5
B6
  8
0
  6
CONTINUOUS
 62
     7
 10
367.1103415621775
 20
209.2157771495648
 30
0.0
 11
367.2018965480644
 21
209.2157771495648
 31
0.0
  0
LINE
  5
B7
  8
0
  6
CONTINUOUS
 62
     7
 10
367.2018965480644
 20
209.2157771495648
 30
0.0
 11
376.2564720331653
 21
209.2157771495648
 31
0.0
  0
LINE
  5
B8
  8
0
  6
CONTINUOUS
 62
     7
 10
412.1891801473622
 20
209.2157771495648
 30
0.0
 11
412.3330998690021
 21
209.2157771495648
 31
0.0
  0
LINE
  5
B9
  8
0
  6
CONTINUOUS
 62
     7
 10
431.843889496542
 20
163.1593419028336
 30
0.0
 11
431.7710775006305
 21
163.9675326850108
 31
0.0
  0
LINE
  5
BA
  8
0
  6
CONTINUOUS
 62
     7
 10
412.3080931941851
 20
209.2157771495648
 30
0.0
 11
412.4820470907336
 21
209.2157771495648
 31
0.0
  0
LINE
  5
BB
  8
0
  6
CONTINUOUS
 62
     7
 10
412.4820470907336
 20
209.2157771495648
 30
0.0
 11
418.0248117658999
 21
209.2157771495648
 31
0.0
  0
ARC
  5
BC
  8
0
  6
CONTINUOUS
 62
     7
 10
411.7866710711486
 20
200.627689226621
 30
0.0
 40
8.627345534772248
 50
54.77725973319023
 51
83.13016801113135
  0
LINE
  5
BD
  8
0
  6
CONTINUOUS
 62
     7
 10
431.7710775006304
 20
163.9675326850108
 30
0.0
 11
431.7661327595008
 21
164.0364320515215
 31
0.0
  0
LINE
  5
BE
  8
0
  6
CONTINUOUS
 62
     7
 10
400.7594855350169
 20
209.5157771495648
 30
0.0
 11
400.7594855350169
 21
209.2157771495648
 31
0.0
  0
LINE
  5
BF
  8
0
  6
CONTINUOUS
 62
     7
 10
407.2841150227904
 20
209.5157771495648
 30
0.0
 11
400.7594855350169
 21
209.5157771495648
 31
0.0
  0
LINE
  5
C0
  8
0
  6
CONTINUOUS
 62
     7
 10
407.2841150227904
 20
209.5157771495648
 30
0.0
 11
407.2841150227904
 21
209.2157771495648
 31
0.0
  0
LINE
  5
C1
  8
0
  6
CONTINUOUS
 62
     7
 10
414.0
 20
209.5157771495648
 30
0.0
 11
407.2841150227904
 21
209.5157771495648
 31
0.0
  0
LINE
  5
C2
  8
0
  6
CONTINUOUS
 62
     7
 10
381.75
 20
209.5157771495648
 30
0.0
 11
381.75
 21
209.2157771495648
 31
0.0
  0
LINE
  5
C3
  8
0
  6
CONTINUOUS
 62
     7
 10
381.75
 20
209.5157771495648
 30
0.0
 11
371.0
 21
209.5157771495648
 31
0.0
  0
LINE
  5
C4
  8
0
  6
CONTINUOUS
 62
     7
 10
383.25
 20
209.5157771495648
 30
0.0
 11
383.25
 21
209.2157771495648
 31
0.0
  0
LINE
  5
C5
  8
0
  6
CONTINUOUS
 62
     7
 10
383.25
 20
209.5157771495648
 30
0.0
 11
381.75
 21
209.5157771495648
 31
0.0
  0
LINE
  5
C6
  8
0
  6
CONTINUOUS
 62
     7
 10
397.366709539284
 20
209.5157771495648
 30
0.0
 11
397.4708953389448
 21
209.5157771495648
 31
0.0
  0
LINE
  5
C7
  8
0
  6
CONTINUOUS
 62
     7
 10
387.7175366892844
 20
209.5157771495648
 30
0.0
 11
388.0166293163244
 21
209.5157771495648
 31
0.0
  0
LINE
  5
C8
  8
0
  6
CONTINUOUS
 62
     7
 10
384.3090909090909
 20
209.5157771495648
 30
0.0
 11
384.6074343028829
 21
209.5157771495648
 31
0.0
  0
LINE
  5
C9
  8
0
  6
CONTINUOUS
 62
     7
 10
383.25
 20
209.5157771495648
 30
0.0
 11
384.3090909090909
 21
209.5157771495648
 31
0.0
  0
LINE
  5
CA
  8
0
  6
CONTINUOUS
 62
     7
 10
391.69090856723
 20
209.5157771495648
 30
0.0
 11
388.6
 21
209.5157771495648
 31
0.0
  0
LINE
  5
CB
  8
0
  6
CONTINUOUS
 62
     7
 10
400.7514313637746
 20
209.5157771495648
 30
0.0
 11
397.5272729474717
 21
209.5157771495648
 31
0.0
  0
LINE
  5
CC
  8
0
  6
CONTINUOUS
 62
     7
 10
394.7818181818182
 20
209.5157771495648
 30
0.0
 11
394.7818181818182
 21
209.2157771495648
 31
0.0
  0
LINE
  5
CD
  8
0
  6
CONTINUOUS
 62
     7
 10
394.7818181818182
 20
209.5157771495648
 30
0.0
 11
394.4181818181818
 21
209.5157771495648
 31
0.0
  0
LINE
  5
CE
  8
0
  6
CONTINUOUS
 62
     7
 10
387.6545454545455
 20
209.5157771495648
 30
0.0
 11
387.6545454545455
 21
209.2157771495648
 31
0.0
  0
LINE
  5
CF
  8
0
  6
CONTINUOUS
 62
     7
 10
387.6545454545455
 20
209.5157771495648
 30
0.0
 11
384.6727272727273
 21
209.5157771495648
 31
0.0
  0
LINE
  5
D0
  8
0
  6
CONTINUOUS
 62
     7
 10
384.6727272727273
 20
209.5157771495648
 30
0.0
 11
384.3090909090909
 21
209.5157771495648
 31
0.0
  0
LINE
  5
D1
  8
0
  6
CONTINUOUS
 62
     7
 10
388.0181818181818
 20
209.5157771495648
 30
0.0
 11
387.6545454545455
 21
209.5157771495648
 31
0.0
  0
ARC
  5
D2
  8
0
  6
CONTINUOUS
 62
     7
 10
367.0791421249558
 20
199.060694457982
 30
0.0
 40
10.1550835531963
 50
90.03753188315704
 51
139.2841079415427
  0
LINE
  5
D3
  8
0
  6
CONTINUOUS
 62
     7
 10
397.3090908557893
 20
209.5157771495648
 30
0.0
 11
394.7818181818182
 21
209.5157771495648
 31
0.0
  0
LINE
  5
D4
  8
0
  6
CONTINUOUS
 62
     7
 10
393.9636363636364
 20
209.5157771495648
 30
0.0
 11
393.8181818181818
 21
209.5157771495648
 31
0.0
  0
LINE
  5
D5
  8
0
  6
CONTINUOUS
 62
     7
 10
393.8181818181818
 20
209.5157771495648
 30
0.0
 11
392.0
 21
209.5157771495648
 31
0.0
  0
LINE
  5
D6
  8
0
  6
CONTINUOUS
 62
     7
 10
394.8727272727273
 20
209.2157771495648
 30
0.0
 11
394.7818181818182
 21
209.2157771495648
 31
0.0
  0
LINE
  5
D7
  8
0
  6
CONTINUOUS
 62
     7
 10
389.0545454545455
 20
209.2157771495648
 30
0.0
 11
388.9636363636364
 21
209.2157771495648
 31
0.0
  0
LINE
  5
D8
  8
0
  6
CONTINUOUS
 62
     7
 10
352.8199686198846
 20
157.4703740243413
 30
0.0
 11
353.0524355939168
 21
161.8654694292291
 31
0.0
  0
LINE
  5
D9
  8
0
  6
CONTINUOUS
 62
     7
 10
353.161962308279
 20
163.2267102663912
 30
0.0
 11
353.1561105034583
 21
163.1593419028336
 31
0.0
  0
LINE
  5
DA
  8
0
  6
CONTINUOUS
 62
     7
 10
342.1685444834877
 20
133.2157771495648
 30
0.0
 11
343.6635382117009
 21
133.2157771495648
 31
0.0
  0
LINE
  5
DB
  8
0
  6
CONTINUOUS
 62
     7
 10
343.6635382117009
 20
133.2157771495648
 30
0.0
 11
348.6016400752985
 21
133.2157771495648
 31
0.0
  0
LINE
  5
DC
  8
0
  6
CONTINUOUS
 62
     7
 10
343.6635382117009
 20
130.2157771495648
 30
0.0
 11
341.6702132407499
 21
130.2157771495648
 31
0.0
  0
LINE
  5
DD
  8
0
  6
CONTINUOUS
 62
     7
 10
441.3364617882992
 20
133.2157771495648
 30
0.0
 11
442.8314555165124
 21
133.2157771495648
 31
0.0
  0
LINE
  5
DE
  8
0
  6
CONTINUOUS
 62
     7
 10
443.3297867592501
 20
130.2157771495648
 30
0.0
 11
441.3364617882992
 21
130.2157771495648
 31
0.0
  0
LINE
  5
DF
  8
0
  6
CONTINUOUS
 62
     7
 10
441.3364617882992
 20
130.2157771495648
 30
0.0
 11
433.9600930075189
 21
130.2157771495648
 31
0.0
  0
LINE
  5
E0
  8
0
  6
CONTINUOUS
 62
     7
 10
433.4991750777119
 20
154.2157771495648
 30
0.0
 11
434.0261015316182
 21
154.2157771495648
 31
0.0
  0
LINE
  5
E1
  8
0
  6
CONTINUOUS
 62
     7
 10
436.3983599247015
 20
133.2157771495648
 30
0.0
 11
441.3364617882992
 21
133.2157771495648
 31
0.0
  0
LINE
  5
E2
  8
0
  6
CONTINUOUS
 62
     7
 10
343.6635382117009
 20
130.2157771495648
 30
0.0
 11
351.0399069924812
 21
130.2157771495648
 31
0.0
  0
LINE
  5
E3
  8
0
  6
CONTINUOUS
 62
     7
 10
350.9738984683818
 20
154.2157771495648
 30
0.0
 11
351.5008249222882
 21
154.2157771495648
 31
0.0
  0
LINE
  5
E4
  8
0
  6
CONTINUOUS
 62
     7
 10
350.6112532007191
 20
154.2157771495648
 30
0.0
 11
350.9738984683818
 21
154.2157771495648
 31
0.0
  0
LINE
  5
E5
  8
0
  6
CONTINUOUS
 62
     7
 10
434.0261015316182
 20
154.2157771495648
 30
0.0
 11
434.3887467992809
 21
154.2157771495648
 31
0.0
  0
LINE
  5
E6
  8
0
  6
CONTINUOUS
 62
     7
 10
352.7844730952294
 20
156.0286632658847
 30
0.0
 11
352.8199686198846
 21
157.4703740243413
 31
0.0
  0
LINE
  5
E7
  8
0
  6
CONTINUOUS
 62
     7
 10
341.6702132407499
 20
130.2157771495648
 30
0.0
 11
341.5
 21
130.2157771495648
 31
0.0
  0
LINE
  5
E8
  8
0
  6
CONTINUOUS
 62
     7
 10
443.3297867592501
 20
130.2157771495648
 30
0.0
 11
443.5
 21
130.2157771495648
 31
0.0
  0
LINE
  5
E9
  8
0
  6
CONTINUOUS
 62
     7
 10
442.8314555165124
 20
133.2157771495648
 30
0.0
 11
443.0000000000001
 21
133.2157771495648
 31
0.0
  0
LINE
  5
EA
  8
0
  6
CONTINUOUS
 62
     7
 10
342.0
 20
133.2157771495648
 30
0.0
 11
342.1685444834877
 21
133.2157771495648
 31
0.0
  0
LINE
  5
EB
  8
0
  6
CONTINUOUS
 62
     7
 10
353.156110503458
 20
163.1593419028336
 30
0.0
 11
353.1608034511354
 21
163.2135822305386
 31
0.0
  0
LINE
  5
EC
  8
0
  6
CONTINUOUS
 62
     7
 10
353.1608034511354
 20
163.2135822305386
 30
0.0
 11
353.2289224993696
 21
163.9675326850108
 31
0.0
  0
LINE
  5
ED
  8
0
  6
CONTINUOUS
 62
     7
 10
353.2338672406229
 20
164.0364320518801
 30
0.0
 11
353.2289224993695
 21
163.9675326850108
 31
0.0
  0
LINE
  5
EE
  8
0
  6
CONTINUOUS
 62
     7
 10
432.2155269060695
 20
156.0286631919592
 30
0.0
 11
432.1800313801154
 21
157.4703740243414
 31
0.0
  0
LINE
  5
EF
  8
0
  6
CONTINUOUS
 62
     7
 10
432.1800313801154
 20
157.4703740243414
 30
0.0
 11
431.9475644060834
 21
161.8654694292277
 31
0.0
  0
LINE
  5
F0
  8
0
  6
CONTINUOUS
 62
     7
 10
431.8438894965417
 20
163.1593419028336
 30
0.0
 11
431.838037691721
 21
163.2267102663912
 31
0.0
  0
LINE
  5
F1
  8
0
  6
CONTINUOUS
 62
     7
 10
436.2420401029509
 20
133.6939674558821
 30
0.0
 11
435.3877950208627
 21
153.2593965369302
 31
0.0
  0
LINE
  5
F2
  8
0
  6
CONTINUOUS
 62
     7
 10
349.6122049791373
 20
153.2593965369302
 30
0.0
 11
348.7579598970491
 21
133.6939674558821
 31
0.0
  0
LINE
  5
F3
  8
0
  6
CONTINUOUS
 62
     7
 10
398.6390602900996
 20
154.157408483671
 30
0.0
 11
392.9721300066352
 21
163.4093612880928
 31
0.0
  0
ARC
  5
F4
  8
0
  6
CONTINUOUS
 62
     7
 10
-216.9963052467923
 20
-156.0806868357674
 30
0.0
 40
713.0299851960714
 50
26.68933534292562
 51
29.92340262160155
  0
LINE
  5
F5
  8
0
  6
CONTINUOUS
 62
     7
 10
400.9818401375598
 20
199.6084634289354
 30
0.0
 11
398.7137432785033
 21
203.4703874199162
 31
0.0
  0
LINE
  5
F6
  8
0
  6
CONTINUOUS
 62
     7
 10
398.7049989885492
 20
203.4772681378014
 30
0.0
 11
398.1262217057001
 21
204.4457260272298
 31
0.0
  0
LINE
  5
F7
  8
0
  6
CONTINUOUS
 62
     7
 10
420.4583157346626
 20
163.369488269897
 30
0.0
 11
420.0616897891362
 21
164.1831832169934
 31
0.0
  0
LINE
  5
F8
  8
0
  6
CONTINUOUS
 62
     7
 10
357.0132412531826
 20
200.0873345770414
 30
0.0
 11
353.8748866352592
 21
164.2157771495648
 31
0.0
  0
LINE
  5
F9
  8
0
  6
CONTINUOUS
 62
     7
 10
357.0089557406974
 20
199.3761718909763
 30
0.0
 11
356.9577998790841
 21
196.1979143271065
 31
0.0
  0
POLYLINE
  5
FA
  8
0
  6
CONTINUOUS
 62
     7
 66
     1
 10
0.0
 20
0.0
 30
0.0
  0
VERTEX
  5
340
  8
0
  6
CONTINUOUS
 62
     7
 10
424.6902239686354
 20
154.2141822619224
 30
0.0
  0
VERTEX
  5
341
  8
0
  6
CONTINUOUS
 62
     7
 10
422.6606704187943
 20
158.725260847094
 30
0.0
  0
VERTEX
  5
342
  8
0
  6
CONTINUOUS
 62
     7
 10
420.458486204451
 20
163.3691423021036
 30
0.0
  0
SEQEND
  5
5F6
  8
0
  6
CONTINUOUS
 62
     7
  0
ARC
  5
FB
  8
0
  6
CONTINUOUS
 62
     7
 10
418.0248117658999
 20
199.2157771495648
 30
0.0
 40
10.0
 50
4.999999999999845
 51
89.99999999999996
  0
ARC
  5
FC
  8
0
  6
CONTINUOUS
 62
     7
 10
406.847339662296
 20
193.0533345915171
 30
0.0
 40
17.67515621411115
 50
36.20405794348727
 51
55.96596180615653
  0
ARC
  5
FD
  8
0
  6
CONTINUOUS
 62
     7
 10
408.478063808442
 20
194.0075046054468
 30
0.0
 40
15.79702332945764
 50
20.49890445476587
 51
36.90899834152069
  0
ARC
  5
FE
  8
0
  6
CONTINUOUS
 62
     7
 10
289.8585172411306
 20
148.8630543147187
 30
0.0
 40
142.7165117109525
 50
6.103125116665672
 51
20.79861483236998
  0
LINE
  5
FF
  8
0
  6
CONTINUOUS
 62
     7
 10
430.1638882760534
 20
175.2026301879881
 30
0.0
 11
427.9867587468174
 21
200.0873345770414
 31
0.0
  0
LINE
  5
100
  8
0
  6
CONTINUOUS
 62
     7
 10
414.0
 20
209.2157771495648
 30
0.0
 11
414.0
 21
209.5157771495648
 31
0.0
  0
LINE
  5
101
  8
0
  6
CONTINUOUS
 62
     7
 10
371.0
 20
209.5157771495648
 30
0.0
 11
371.0
 21
209.2157771495648
 31
0.0
  0
LINE
  5
102
  8
0
  6
CONTINUOUS
 62
     7
 10
391.6909087361465
 20
209.2157771495648
 30
0.0
 11
391.6909087361465
 21
209.5157771495648
 31
0.0
  0
LINE
  5
103
  8
0
  6
CONTINUOUS
 62
     7
 10
388.6
 20
209.5157771495648
 30
0.0
 11
388.6
 21
209.2157771495648
 31
0.0
  0
LINE
  5
104
  8
0
  6
CONTINUOUS
 62
     7
 10
397.5272727272727
 20
209.5157771495648
 30
0.0
 11
397.5272727272727
 21
209.2157771495648
 31
0.0
  0
LINE
  5
105
  8
0
  6
CONTINUOUS
 62
     7
 10
394.4181818181818
 20
209.5157771495648
 30
0.0
 11
394.4181818181818
 21
209.2157771495648
 31
0.0
  0
LINE
  5
106
  8
0
  6
CONTINUOUS
 62
     7
 10
384.3090909090909
 20
209.5157771495648
 30
0.0
 11
384.3090909090909
 21
209.2157771495648
 31
0.0
  0
LINE
  5
107
  8
0
  6
CONTINUOUS
 62
     7
 10
384.6727272727273
 20
209.2157771495648
 30
0.0
 11
384.6727272727273
 21
209.5157771495648
 31
0.0
  0
LINE
  5
108
  8
0
  6
CONTINUOUS
 62
     7
 10
388.0181818181818
 20
209.2157771495648
 30
0.0
 11
388.0181818181818
 21
209.5157771495648
 31
0.0
  0
ARC
  5
109
  8
0
  6
CONTINUOUS
 62
     7
 10
367.0076690124334
 20
199.2157771495648
 30
0.0
 40
9.99999999999997
 50
139.6940213692028
 51
140.9609079294996
  0
ARC
  5
10A
  8
0
  6
CONTINUOUS
 62
     7
 10
367.0076690124334
 20
199.2157771495648
 30
0.0
 40
9.999999999999957
 50
140.9609079294996
 51
145.7229101563598
  0
ARC
  5
10B
  8
0
  6
CONTINUOUS
 62
     7
 10
367.0076690124334
 20
199.2157771495648
 30
0.0
 40
9.999999999999991
 50
145.7229101563597
 51
179.0819241996921
  0
LINE
  5
10C
  8
0
  6
CONTINUOUS
 62
     7
 10
397.3090909090909
 20
209.2157771495648
 30
0.0
 11
397.3090909090909
 21
209.5157771495648
 31
0.0
  0
LINE
  5
10D
  8
0
  6
CONTINUOUS
 62
     7
 10
393.9636363636364
 20
209.2157771495648
 30
0.0
 11
393.9636363636364
 21
209.5157771495648
 31
0.0
  0
LINE
  5
10E
  8
0
  6
CONTINUOUS
 62
     7
 10
392.0
 20
209.5157771495648
 30
0.0
 11
392.0
 21
209.2157771495648
 31
0.0
  0
LINE
  5
10F
  8
0
  6
CONTINUOUS
 62
     7
 10
353.1619623478533
 20
163.2267103877288
 30
0.0
 11
353.0557745399596
 21
161.9186929033233
 31
0.0
  0
ARC
  5
110
  8
0
  6
CONTINUOUS
 62
     7
 10
350.6112532007191
 20
153.2157771495648
 30
0.0
 40
1.000000000000001
 50
90.0
 51
177.4999999999998
  0
ARC
  5
111
  8
0
  6
CONTINUOUS
 62
     7
 10
434.3887467992809
 20
153.2157771495648
 30
0.0
 40
1.00000000000001
 50
2.499999999999793
 51
89.99999999999999
  0
ARC
  5
112
  8
0
  6
CONTINUOUS
 62
     7
 10
348.2584357862582
 20
133.7157771495648
 30
0.0
 40
0.499999999999977
 50
270.0
 51
357.5000000000001
  0
ARC
  5
113
  8
0
  6
CONTINUOUS
 62
     7
 10
436.7415642137418
 20
133.7157771495648
 30
0.0
 40
0.5000000000000004
 50
182.5000000000007
 51
270.0
  0
LINE
  5
114
  8
0
  6
CONTINUOUS
 62
     7
 10
352.7853346225592
 20
156.0778430903107
 30
0.0
 11
352.7527143727532
 21
154.2161496838125
 31
0.0
  0
LINE
  5
115
  8
0
  6
CONTINUOUS
 62
     7
 10
341.5
 20
132.7157771495648
 30
0.0
 11
341.5
 21
130.2157771495648
 31
0.0
  0
LINE
  5
116
  8
0
  6
CONTINUOUS
 62
     7
 10
443.5
 20
130.2157771495648
 30
0.0
 11
443.5
 21
132.7157771495648
 31
0.0
  0
ARC
  5
117
  8
0
  6
CONTINUOUS
 62
     7
 10
443.0
 20
132.7157771495648
 30
0.0
 40
0.5000000000000004
 50
0.0
 51
90.0
  0
ARC
  5
118
  8
0
  6
CONTINUOUS
 62
     7
 10
342.0
 20
132.7157771495648
 30
0.0
 40
0.5000000000000004
 50
90.0
 51
180.0
  0
ARC
  5
119
  8
0
  6
CONTINUOUS
 62
     7
 10
366.9751882341001
 20
199.2157771495648
 30
0.0
 40
9.999999999999991
 50
91.30953587128201
 51
175.0000000000001
  0
LINE
  5
11A
  8
0
  6
CONTINUOUS
 62
     7
 10
432.2472869264798
 20
154.2160755370695
 30
0.0
 11
432.2146653774408
 21
156.0778430903113
 31
0.0
  0
ARC
  5
11B
  8
0
  6
CONTINUOUS
 62
     7
 10
470.3221907987746
 20
153.0132208159837
 30
0.0
 40
117.6060656761166
 50
169.1094610867962
 51
174.6217745784434
  0
LINE
  5
11C
  8
0
  6
CONTINUOUS
 62
     7
 10
431.9442254600405
 20
161.918692903322
 30
0.0
 11
431.8543153939652
 21
163.0387773233472
 31
0.0
  0
LINE
  5
11D
  8
0
  6
CONTINUOUS
 62
     7
 10
431.8543153939652
 20
163.0387773233472
 30
0.0
 11
431.8380376521467
 21
163.2267103877289
 31
0.0
  0
ENDBLK
  8
0
  0
BLOCK
  8
0
  2
D_FRAME_VIEW_2120
 70
     0
 10
0.0
 20
0.0
 30
0.0
  0
ARC
  5
126
  8
0
  6
CONTINUOUS
 62
     7
 10
365.8049111133747
 20
271.7663345943988
 30
0.0
 40
9.483472724415417
 50
91.49685630887977
 51
140.6262029565979
  0
ARC
  5
127
  8
0
  6
CONTINUOUS
 62
     7
 10
368.5154609849441
 20
258.1647836533979
 30
0.0
 40
23.27058925961508
 50
93.54388677445364
 51
97.30349945389668
  0
LINE
  5
128
  8
0
  6
CONTINUOUS
 62
     7
 10
376.2564720331652
 20
264.3269827119211
 30
0.0
 11
369.2428964325562
 21
257.2128574659552
 31
0.0
  0
ARC
  5
129
  8
0
  6
CONTINUOUS
 62
     7
 10
361.2164196697958
 20
276.027832017257
 30
0.0
 40
3.255717982468278
 50
147.3892550971836
 51
183.1261186296228
  0
LINE
  5
12A
  8
0
  6
CONTINUOUS
 62
     7
 10
369.2428964325564
 20
257.2128574659549
 30
0.0
 11
369.3512860826505
 21
257.0371831767869
 31
0.0
  0
LINE
  5
12B
  8
0
  6
CONTINUOUS
 62
     7
 10
389.9924566414608
 20
319.4142175044169
 30
0.0
 11
389.791593103718
 21
319.4617949289757
 31
0.0
  0
LINE
  5
12C
  8
0
  6
CONTINUOUS
 62
     7
 10
390.0635559775389
 20
309.4244244332288
 30
0.0
 11
389.9924566414612
 21
319.4142175044169
 31
0.0
  0
ARC
  5
12D
  8
0
  6
CONTINUOUS
 62
     7
 10
408.972228882524
 20
311.7855975593235
 30
0.0
 40
3.255717982467332
 50
12.38925509718524
 51
48.1261186296279
  0
ARC
  5
12E
  8
0
  6
CONTINUOUS
 62
     7
 10
402.7143417416399
 20
311.554377869864
 30
0.0
 40
9.483472724415416
 50
316.4968563088801
 51
5.626202956600707
  0
ARC
  5
12F
  8
0
  6
CONTINUOUS
 62
     7
 10
391.1799446416214
 20
319.255478580012
 30
0.0
 40
23.27058925968223
 50
318.543886774458
 51
322.3034994538901
  0
ARC
  5
130
  8
0
  6
CONTINUOUS
 62
     7
 10
420.2694347000407
 20
267.5439339767588
 30
0.0
 40
3.255717982466709
 50
282.3892550971785
 51
318.1261186296299
  0
ARC
  5
131
  8
0
  6
CONTINUOUS
 62
     7
 10
420.0382150105807
 20
273.801821117643
 30
0.0
 40
9.483472724415195
 50
226.4968563088797
 51
275.6262029566009
  0
ARC
  5
132
  8
0
  6
CONTINUOUS
 62
     7
 10
427.7393157207288
 20
285.3362182176618
 30
0.0
 40
23.27058925968223
 50
228.543886774458
 51
232.3034994538902
  0
LINE
  5
133
  8
0
  6
CONTINUOUS
 62
     7
 10
417.9082615739455
 20
286.4526068817444
 30
0.0
 11
427.8980546451337
 21
286.5237062178219
 31
0.0
  0
LINE
  5
134
  8
0
  6
CONTINUOUS
 62
     7
 10
427.8980546451336
 20
286.5237062178225
 30
0.0
 11
427.9456320696926
 21
286.7245697555651
 31
0.0
  0
LINE
  5
135
  8
0
  6
CONTINUOUS
 62
     7
 10
365.6966946066716
 20
307.2732664267268
 30
0.0
 11
365.5210203175037
 21
307.1648767766329
 31
0.0
  0
LINE
  5
136
  8
0
  6
CONTINUOUS
 62
     7
 10
372.8108198526378
 20
300.2596908261179
 30
0.0
 11
365.6966946066719
 21
307.2732664267271
 31
0.0
  0
ARC
  5
137
  8
0
  6
CONTINUOUS
 62
     7
 10
380.2501717351157
 20
310.7112517459086
 30
0.0
 40
9.483472724415293
 50
1.496856308879501
 51
50.62620295659985
  0
ARC
  5
138
  8
0
  6
CONTINUOUS
 62
     7
 10
366.6486207941116
 20
308.0007018743386
 30
0.0
 40
23.27058925961827
 50
3.543886774453882
 51
7.30349945389662
  0
ARC
  5
139
  8
0
  6
CONTINUOUS
 62
     7
 10
384.511669157974
 20
315.2997431894882
 30
0.0
 40
3.255717982467456
 50
57.38925509718263
 51
93.1261186296266
  0
ARC
  5
13A
  8
0
  6
CONTINUOUS
 62
     7
 10
364.7305652999595
 20
300.4883917418072
 30
0.0
 40
3.255717982467208
 50
102.3892550971797
 51
138.1261186296259
  0
ARC
  5
13B
  8
0
  6
CONTINUOUS
 62
     7
 10
364.9617849894193
 20
294.2305046009234
 30
0.0
 40
9.483472724415135
 50
46.49685630887955
 51
95.6262029566006
  0
ARC
  5
13C
  8
0
  6
CONTINUOUS
 62
     7
 10
357.2606842792292
 20
282.6961075008538
 30
0.0
 40
23.27058925974808
 50
48.54388677446315
 51
52.30349945388485
  0
LINE
  5
13D
  8
0
  6
CONTINUOUS
 62
     7
 10
367.0917384260545
 20
281.5797188368221
 30
0.0
 11
357.1019453548663
 21
281.5086195007443
 31
0.0
  0
LINE
  5
13E
  8
0
  6
CONTINUOUS
 62
     7
 10
357.1019453548664
 20
281.5086195007439
 30
0.0
 11
357.0543679303074
 21
281.3077559630013
 31
0.0
  0
ARC
  5
13F
  8
0
  6
CONTINUOUS
 62
     7
 10
376.0277711174763
 20
256.246728159243
 30
0.0
 40
3.255717982467526
 50
192.3892550971865
 51
228.1261186296271
  0
ARC
  5
140
  8
0
  6
CONTINUOUS
 62
     7
 10
382.2856582583601
 20
256.4779478487024
 30
0.0
 40
9.483472724415416
 50
136.4968563088801
 51
185.6262029566008
  0
ARC
  5
141
  8
0
  6
CONTINUOUS
 62
     7
 10
393.8200553583172
 20
248.7768471386051
 30
0.0
 40
23.2705892596027
 50
138.5438867744515
 51
142.3034994538965
  0
LINE
  5
142
  8
0
  6
CONTINUOUS
 62
     7
 10
394.9364440224612
 20
258.6079012853377
 30
0.0
 11
395.0075433585388
 21
248.6181082141496
 31
0.0
  0
LINE
  5
143
  8
0
  6
CONTINUOUS
 62
     7
 10
395.0075433585393
 20
248.6181082141496
 30
0.0
 11
395.2084068962819
 21
248.5705307895907
 31
0.0
  0
LINE
  5
144
  8
0
  6
CONTINUOUS
 62
     7
 10
419.3033053933285
 20
260.7590592918397
 30
0.0
 11
419.4789796824963
 21
260.8674489419336
 31
0.0
  0
LINE
  5
145
  8
0
  6
CONTINUOUS
 62
     7
 10
412.1891801473622
 20
267.7726348924485
 30
0.0
 11
419.3033053933281
 21
260.7590592918393
 31
0.0
  0
ARC
  5
146
  8
0
  6
CONTINUOUS
 62
     7
 10
400.488330842026
 20
252.7325825290781
 30
0.0
 40
3.25571798246732
 50
237.3892550971846
 51
273.1261186296276
  0
ARC
  5
147
  8
0
  6
CONTINUOUS
 62
     7
 10
404.7498282648842
 20
257.3210739726579
 30
0.0
 40
9.48347272441516
 50
181.4968563088795
 51
230.6262029566013
  0
ARC
  5
148
  8
0
  6
CONTINUOUS
 62
     7
 10
418.3513792058884
 20
260.0316238442278
 30
0.0
 40
23.27058925961827
 50
183.5438867744539
 51
187.3034994538966
  0
ARC
  5
149
  8
0
  6
CONTINUOUS
 62
     7
 10
419.1950888866251
 20
296.265991124168
 30
0.0
 40
9.48347272441578
 50
271.4968563088811
 51
320.6262029565984
  0
ARC
  5
14A
  8
0
  6
CONTINUOUS
 62
     7
 10
416.4845390150554
 20
309.8675420651716
 30
0.0
 40
23.27058925961827
 50
273.5438867744539
 51
277.3034994538966
  0
LINE
  5
14B
  8
0
  6
CONTINUOUS
 62
     7
 10
408.7435279668348
 20
303.7053430066454
 30
0.0
 11
415.7571035674439
 21
310.8194682526113
 31
0.0
  0
ARC
  5
14C
  8
0
  6
CONTINUOUS
 62
     7
 10
423.7835803302049
 20
292.0044937013093
 30
0.0
 40
3.255717982467563
 50
327.3892550971815
 51
3.126118629625466
  0
LINE
  5
14D
  8
0
  6
CONTINUOUS
 62
     7
 10
415.7571035674436
 20
310.8194682526116
 30
0.0
 11
415.6487139173496
 21
310.9951425417796
 31
0.0
  0
LINE
  5
14E
  8
0
  6
CONTINUOUS
 62
     7
 10
383.25
 20
267.9946928892711
 30
0.0
 11
381.75
 21
265.3966166779178
 31
0.0
  0
ARC
  5
14F
  8
0
  6
CONTINUOUS
 62
     7
 10
392.5
 20
284.0161628592832
 30
0.0
 40
21.49999999999997
 50
310.0
 51
240.0
  0
ARC
  5
150
  8
0
  6
CONTINUOUS
 62
     7
 10
392.5
 20
284.0161628592832
 30
0.0
 40
18.5
 50
310.0
 51
240.0
  0
LINE
  5
151
  8
0
  6
CONTINUOUS
 62
     7
 10
403.4273893646712
 20
270.9934073262606
 30
0.0
 11
404.391570779201
 21
269.8443406615821
 31
0.0
  0
LINE
  5
152
  8
0
  6
CONTINUOUS
 62
     7
 10
407.2841150227904
 20
266.3971406675467
 30
0.0
 11
400.7594855350169
 21
264.8385483387844
 31
0.0
  0
LINE
  5
153
  8
0
  6
CONTINUOUS
 62
     7
 10
406.3199336082606
 20
267.5462073322252
 30
0.0
 11
407.2841150227904
 21
266.3971406675467
 31
0.0
  0
LINE
  5
154
  8
0
  6
CONTINUOUS
 62
     7
 10
400.7594855350169
 20
264.8385483387844
 30
0.0
 11
403.4273893646712
 21
270.9934073262606
 31
0.0
  0
ARC
  5
155
  8
0
  6
CONTINUOUS
 62
     7
 10
394.8957382009935
 20
289.169991833691
 30
0.0
 40
36.59411944360721
 50
319.4315059409747
 51
351.9036809535923
  0
ARC
  5
156
  8
0
  6
CONTINUOUS
 62
     7
 10
397.8383501447491
 20
285.9664275482936
 30
0.0
 40
36.59411944360838
 50
274.4315059409754
 51
306.9036809535919
  0
ARC
  5
157
  8
0
  6
CONTINUOUS
 62
     7
 10
390.0985163748068
 20
278.864931956483
 30
0.0
 40
36.58806542196237
 50
139.4287451312766
 51
171.9064417632905
  0
ARC
  5
158
  8
0
  6
CONTINUOUS
 62
     7
 10
387.3461710255926
 20
286.4119010602773
 30
0.0
 40
36.59411944360655
 50
49.43150594097461
 51
81.90368095359277
  0
ARC
  5
159
  8
0
  6
CONTINUOUS
 62
     7
 10
394.4502646890091
 20
278.6778127145337
 30
0.0
 40
36.59411944360713
 50
184.4315059409749
 51
216.9036809535925
  0
ARC
  5
15A
  8
0
  6
CONTINUOUS
 62
     7
 10
387.1594243408894
 20
282.0717979127393
 30
0.0
 40
36.58806542196115
 50
94.42874513127623
 51
126.9064417632912
  0
ARC
  5
15B
  8
0
  6
CONTINUOUS
 62
     7
 10
390.5497353109909
 20
289.3545130040328
 30
0.0
 40
36.59411944360713
 50
4.431505940974886
 51
36.90368095359253
  0
ARC
  5
15C
  8
0
  6
CONTINUOUS
 62
     7
 10
397.6512309028
 20
281.6146792340897
 30
0.0
 40
36.58806542196204
 50
229.4287451312765
 51
261.9064417632907
  0
ARC
  5
15D
  8
0
  6
CONTINUOUS
 62
     7
 10
392.5
 20
284.0161628592832
 30
0.0
 40
39.5
 50
8.855200111430918
 51
45.0
  0
POLYLINE
  5
15E
  8
0
  6
CONTINUOUS
 62
     7
 66
     1
 10
0.0
 20
0.0
 30
0.0
  0
VERTEX
  5
343
  8
0
  6
CONTINUOUS
 62
     7
 10
431.1251133647408
 20
284.0161628592832
 30
0.0
  0
VERTEX
  5
344
  8
0
  6
CONTINUOUS
 62
     7
 10
431.4461821028355
 20
287.033129932954
 30
0.0
  0
VERTEX
  5
345
  8
0
  6
CONTINUOUS
 62
     7
 10
431.5291810400976
 20
290.0967078463125
 30
0.0
  0
SEQEND
  5
5F7
  8
0
  6
CONTINUOUS
 62
     7
  0
ARC
  5
15F
  8
0
  6
CONTINUOUS
 62
     7
 10
390.9183189432874
 20
289.4230683721023
 30
0.0
 40
37.12551430141154
 50
355.8317331992248
 51
37.35081159495098
  0
ARC
  5
160
  8
0
  6
CONTINUOUS
 62
     7
 10
392.5
 20
284.0161628592832
 30
0.0
 40
39.49999999999998
 50
323.8552001114309
 51
0.0
  0
POLYLINE
  5
161
  8
0
  6
CONTINUOUS
 62
     7
 66
     1
 10
0.0
 20
0.0
 30
0.0
  0
VERTEX
  5
346
  8
0
  6
CONTINUOUS
 62
     7
 10
419.8120795843073
 20
256.7040832749759
 30
0.0
  0
VERTEX
  5
347
  8
0
  6
CONTINUOUS
 62
     7
 10
422.1724273426503
 20
258.6103712694512
 30
0.0
  0
VERTEX
  5
348
  8
0
  6
CONTINUOUS
 62
     7
 10
424.3973931712487
 20
260.7179588753111
 30
0.0
  0
SEQEND
  5
5F8
  8
0
  6
CONTINUOUS
 62
     7
  0
ARC
  5
162
  8
0
  6
CONTINUOUS
 62
     7
 10
395.1480266990794
 20
288.9885710000804
 30
0.0
 40
37.18592178352495
 50
310.8670099133319
 51
352.3155348808435
  0
ARC
  5
163
  8
0
  6
CONTINUOUS
 62
     7
 10
392.5
 20
284.0161628592832
 30
0.0
 40
39.5
 50
188.8552001114309
 51
225.0
  0
POLYLINE
  5
164
  8
0
  6
CONTINUOUS
 62
     7
 66
     1
 10
0.0
 20
0.0
 30
0.0
  0
VERTEX
  5
349
  8
0
  6
CONTINUOUS
 62
     7
 10
353.8748866352592
 20
284.0161628592832
 30
0.0
  0
VERTEX
  5
34A
  8
0
  6
CONTINUOUS
 62
     7
 10
353.5538178971645
 20
280.9991957856124
 30
0.0
  0
VERTEX
  5
34B
  8
0
  6
CONTINUOUS
 62
     7
 10
353.4708189599024
 20
277.9356178722539
 30
0.0
  0
SEQEND
  5
5F9
  8
0
  6
CONTINUOUS
 62
     7
  0
ARC
  5
165
  8
0
  6
CONTINUOUS
 62
     7
 10
394.0816810567129
 20
278.6092573464642
 30
0.0
 40
37.12551430141176
 50
175.8317331992249
 51
217.3508115949508
  0
ARC
  5
166
  8
0
  6
CONTINUOUS
 62
     7
 10
392.5
 20
284.0161628592832
 30
0.0
 40
39.5
 50
98.85520011143092
 51
135.0
  0
POLYLINE
  5
167
  8
0
  6
CONTINUOUS
 62
     7
 66
     1
 10
0.0
 20
0.0
 30
0.0
  0
VERTEX
  5
34C
  8
0
  6
CONTINUOUS
 62
     7
 10
392.5
 20
322.641276224024
 30
0.0
  0
VERTEX
  5
34D
  8
0
  6
CONTINUOUS
 62
     7
 10
389.4830329263293
 20
322.9623449621187
 30
0.0
  0
VERTEX
  5
34E
  8
0
  6
CONTINUOUS
 62
     7
 10
386.4194550129707
 20
323.0453438993808
 30
0.0
  0
SEQEND
  5
5FA
  8
0
  6
CONTINUOUS
 62
     7
  0
ARC
  5
168
  8
0
  6
CONTINUOUS
 62
     7
 10
387.1114578016119
 20
282.3728489996234
 30
0.0
 40
37.18565631245492
 50
85.8668551524391
 51
127.3156896417365
  0
ARC
  5
169
  8
0
  6
CONTINUOUS
 62
     7
 10
389.8519733009203
 20
279.0437547184862
 30
0.0
 40
37.18592178352461
 50
130.8670099133316
 51
172.3155348808437
  0
ARC
  5
16A
  8
0
  6
CONTINUOUS
 62
     7
 10
392.5
 20
284.0161628592832
 30
0.0
 40
39.49999999999998
 50
143.8552001114309
 51
180.0
  0
POLYLINE
  5
16B
  8
0
  6
CONTINUOUS
 62
     7
 66
     1
 10
0.0
 20
0.0
 30
0.0
  0
VERTEX
  5
34F
  8
0
  6
CONTINUOUS
 62
     7
 10
365.1879204156927
 20
311.3282424435905
 30
0.0
  0
VERTEX
  5
350
  8
0
  6
CONTINUOUS
 62
     7
 10
362.8275726573497
 20
309.4219544491152
 30
0.0
  0
VERTEX
  5
351
  8
0
  6
CONTINUOUS
 62
     7
 10
360.6026068287513
 20
307.3143668432554
 30
0.0
  0
SEQEND
  5
5FB
  8
0
  6
CONTINUOUS
 62
     7
  0
ARC
  5
16C
  8
0
  6
CONTINUOUS
 62
     7
 10
397.4416769542252
 20
281.3113207068098
 30
0.0
 40
37.12551430141159
 50
220.8317331992247
 51
262.3508115949508
  0
ARC
  5
16D
  8
0
  6
CONTINUOUS
 62
     7
 10
392.5
 20
284.0161628592832
 30
0.0
 40
39.49999999999998
 50
233.8552001114309
 51
270.0
  0
POLYLINE
  5
16E
  8
0
  6
CONTINUOUS
 62
     7
 66
     1
 10
0.0
 20
0.0
 30
0.0
  0
VERTEX
  5
352
  8
0
  6
CONTINUOUS
 62
     7
 10
365.1879204156927
 20
256.7040832749759
 30
0.0
  0
VERTEX
  5
353
  8
0
  6
CONTINUOUS
 62
     7
 10
367.094208410168
 20
254.3437355166329
 30
0.0
  0
VERTEX
  5
354
  8
0
  6
CONTINUOUS
 62
     7
 10
369.2017960160279
 20
252.1187696880345
 30
0.0
  0
SEQEND
  5
5FC
  8
0
  6
CONTINUOUS
 62
     7
  0
ARC
  5
16F
  8
0
  6
CONTINUOUS
 62
     7
 10
387.5275522121333
 20
286.6641162593305
 30
0.0
 40
37.18599972581278
 50
40.86705535066977
 51
82.31548944350578
  0
ARC
  5
170
  8
0
  6
CONTINUOUS
 62
     7
 10
392.5
 20
284.0161628592832
 30
0.0
 40
39.49999999999998
 50
53.85520011143091
 51
90.0
  0
POLYLINE
  5
171
  8
0
  6
CONTINUOUS
 62
     7
 66
     1
 10
0.0
 20
0.0
 30
0.0
  0
VERTEX
  5
355
  8
0
  6
CONTINUOUS
 62
     7
 10
419.8120795843073
 20
311.3282424435905
 30
0.0
  0
VERTEX
  5
356
  8
0
  6
CONTINUOUS
 62
     7
 10
417.905791589832
 20
313.6885902019335
 30
0.0
  0
VERTEX
  5
357
  8
0
  6
CONTINUOUS
 62
     7
 10
415.7982039839721
 20
315.9135560305319
 30
0.0
  0
SEQEND
  5
5FD
  8
0
  6
CONTINUOUS
 62
     7
  0
ARC
  5
172
  8
0
  6
CONTINUOUS
 62
     7
 10
392.5
 20
284.0161628592832
 30
0.0
 40
39.5
 50
278.8552001114309
 51
315.0
  0
POLYLINE
  5
173
  8
0
  6
CONTINUOUS
 62
     7
 66
     1
 10
0.0
 20
0.0
 30
0.0
  0
VERTEX
  5
358
  8
0
  6
CONTINUOUS
 62
     7
 10
392.5
 20
245.3910494945424
 30
0.0
  0
VERTEX
  5
359
  8
0
  6
CONTINUOUS
 62
     7
 10
395.5169670736708
 20
245.0699807564477
 30
0.0
  0
VERTEX
  5
35A
  8
0
  6
CONTINUOUS
 62
     7
 10
398.5805449870293
 20
244.9869818191856
 30
0.0
  0
SEQEND
  5
5FE
  8
0
  6
CONTINUOUS
 62
     7
  0
ARC
  5
174
  8
0
  6
CONTINUOUS
 62
     7
 10
397.8883951944944
 20
285.6599701081974
 30
0.0
 40
37.18613782375317
 50
265.8671358559241
 51
307.3154089382516
  0
LINE
  5
175
  8
0
  6
CONTINUOUS
 62
     7
 10
396.39711431703
 20
336.2661628592832
 30
0.0
 11
396.7426406871193
 21
336.4656526020664
 31
0.0
  0
LINE
  5
176
  8
0
  6
CONTINUOUS
 62
     7
 10
396.6229833462074
 20
335.8192181348908
 30
0.0
 11
396.39711431703
 21
336.2661628592832
 31
0.0
  0
LINE
  5
177
  8
0
  6
CONTINUOUS
 62
     7
 10
388.2573593128807
 20
336.4656526020664
 30
0.0
 11
388.60288568297
 21
336.2661628592832
 31
0.0
  0
LINE
  5
178
  8
0
  6
CONTINUOUS
 62
     7
 10
388.60288568297
 20
336.2661628592832
 30
0.0
 11
388.3770166537926
 21
335.8192181348908
 31
0.0
  0
LINE
  5
179
  8
0
  6
CONTINUOUS
 62
     7
 10
398.5805449870293
 20
244.9869818191856
 30
0.0
 11
398.602249889784
 21
244.8533424116945
 31
0.0
  0
LINE
  5
17A
  8
0
  6
CONTINUOUS
 62
     7
 10
369.2017960160279
 20
252.1187696880345
 30
0.0
 11
369.1226463686801
 21
252.008924672841
 31
0.0
  0
LINE
  5
17B
  8
0
  6
CONTINUOUS
 62
     7
 10
431.5291810400976
 20
290.0967078463125
 30
0.0
 11
431.6628204475887
 21
290.1184127490673
 31
0.0
  0
LINE
  5
17C
  8
0
  6
CONTINUOUS
 62
     7
 10
424.3973931712487
 20
260.7179588753111
 30
0.0
 11
424.5072381864425
 21
260.6388092279631
 31
0.0
  0
LINE
  5
17D
  8
0
  6
CONTINUOUS
 62
     7
 10
353.4708189599024
 20
277.9356178722539
 30
0.0
 11
353.3371795524113
 21
277.9139129694992
 31
0.0
  0
LINE
  5
17E
  8
0
  6
CONTINUOUS
 62
     7
 10
360.6026068287513
 20
307.3143668432554
 30
0.0
 11
360.4927618135577
 21
307.3935164906032
 31
0.0
  0
LINE
  5
17F
  8
0
  6
CONTINUOUS
 62
     7
 10
415.7982039839721
 20
315.9135560305319
 30
0.0
 11
415.87735363132
 21
316.0234010457256
 31
0.0
  0
LINE
  5
180
  8
0
  6
CONTINUOUS
 62
     7
 10
386.4194550129707
 20
323.0453438993808
 30
0.0
 11
386.397750110216
 21
323.1789833068719
 31
0.0
  0
ARC
  5
181
  8
0
  6
CONTINUOUS
 62
     7
 10
392.5
 20
334.0161628592832
 30
0.0
 40
5.999999999999999
 50
300.0
 51
18.46304096718456
  0
LINE
  5
182
  8
0
  6
CONTINUOUS
 62
     7
 10
395.5
 20
328.8200104365766
 30
0.0
 11
395.0
 21
329.1171833737168
 31
0.0
  0
ARC
  5
183
  8
0
  6
CONTINUOUS
 62
     7
 10
395.0
 20
327.4442643605001
 30
0.0
 40
0.5000000000000004
 50
266.7053237184759
 51
270.0
  0
ARC
  5
184
  8
0
  6
CONTINUOUS
 62
     7
 10
395.0
 20
327.4442643605001
 30
0.0
 40
0.5000000000000004
 50
270.0
 51
0.0
  0
LINE
  5
185
  8
0
  6
CONTINUOUS
 62
     7
 10
390.0
 20
329.1171833737168
 30
0.0
 11
389.5
 21
328.8200104365766
 31
0.0
  0
ARC
  5
186
  8
0
  6
CONTINUOUS
 62
     7
 10
392.5
 20
334.0161628592832
 30
0.0
 40
5.999999999999975
 50
161.5369590328154
 51
240.0
  0
LINE
  5
187
  8
0
  6
CONTINUOUS
 62
     7
 10
395.5
 20
328.8200104365766
 30
0.0
 11
395.5
 21
327.4442643605001
 31
0.0
  0
LINE
  5
188
  8
0
  6
CONTINUOUS
 62
     7
 10
389.5
 20
327.4442643605001
 30
0.0
 11
389.5
 21
328.8200104365766
 31
0.0
  0
ARC
  5
189
  8
0
  6
CONTINUOUS
 62
     7
 10
390.0
 20
327.4442643605001
 30
0.0
 40
0.5000000000000004
 50
180.0
 51
270.0
  0
ARC
  5
18A
  8
0
  6
CONTINUOUS
 62
     7
 10
390.0
 20
327.4442643605001
 30
0.0
 40
0.5000000000000423
 50
270.0
 51
273.2946762815241
  0
ARC
  5
18B
  8
0
  6
CONTINUOUS
 62
     7
 10
392.5
 20
334.0161628592832
 30
0.0
 40
4.500000000000012
 50
156.3793702084427
 51
23.62062979155717
  0
ARC
  5
18C
  8
0
  6
CONTINUOUS
 62
     7
 10
387.7573593128807
 20
335.599627198282
 30
0.0
 40
1.000000000000061
 50
60.0
 51
161.5369590328154
  0
ARC
  5
18D
  8
0
  6
CONTINUOUS
 62
     7
 10
392.5
 20
284.0161628592832
 30
0.0
 40
42.99999999999998
 50
90.0
 51
93.29467628152408
  0
ARC
  5
18E
  8
0
  6
CONTINUOUS
 62
     7
 10
392.5
 20
284.0161628592832
 30
0.0
 40
42.99999999999998
 50
86.70532371847588
 51
89.99999999999996
  0
ARC
  5
18F
  8
0
  6
CONTINUOUS
 62
     7
 10
397.2426406871193
 20
335.599627198282
 30
0.0
 40
1.000000000000004
 50
18.46304096718456
 51
120.0000000000001
  0
POLYLINE
  5
190
  8
0
  6
CONTINUOUS
 62
     7
 66
     1
 10
0.0
 20
0.0
 30
0.0
  0
VERTEX
  5
35B
  8
0
  6
CONTINUOUS
 62
     7
 10
369.1226463686801
 20
252.008924672841
 30
0.0
  0
VERTEX
  5
35C
  8
0
  6
CONTINUOUS
 62
     7
 10
369.1117997135677
 20
251.9945234318777
 30
0.0
  0
VERTEX
  5
35D
  8
0
  6
CONTINUOUS
 62
     7
 10
369.1003451035385
 20
251.9805799919015
 30
0.0
  0
VERTEX
  5
35E
  8
0
  6
CONTINUOUS
 62
     7
 10
369.0883125516283
 20
251.9671323196675
 30
0.0
  0
VERTEX
  5
35F
  8
0
  6
CONTINUOUS
 62
     7
 10
369.0757320708731
 20
251.9542183819308
 30
0.0
  0
VERTEX
  5
360
  8
0
  6
CONTINUOUS
 62
     7
 10
369.0622085753395
 20
251.9414881784579
 30
0.0
  0
VERTEX
  5
361
  8
0
  6
CONTINUOUS
 62
     7
 10
369.0481292221809
 20
251.9293485570639
 30
0.0
  0
VERTEX
  5
362
  8
0
  6
CONTINUOUS
 62
     7
 10
369.0335364609089
 20
251.9178308113439
 30
0.0
  0
VERTEX
  5
363
  8
0
  6
CONTINUOUS
 62
     7
 10
369.0184727410351
 20
251.9069662348927
 30
0.0
  0
VERTEX
  5
364
  8
0
  6
CONTINUOUS
 62
     7
 10
369.0034167030863
 20
251.8970550578187
 30
0.0
  0
VERTEX
  5
365
  8
0
  6
CONTINUOUS
 62
     7
 10
368.987949122827
 20
251.8877693473605
 30
0.0
  0
VERTEX
  5
366
  8
0
  6
CONTINUOUS
 62
     7
 10
368.9721129869662
 20
251.8791261278276
 30
0.0
  0
VERTEX
  5
367
  8
0
  6
CONTINUOUS
 62
     7
 10
368.9559512822132
 20
251.8711424235295
 30
0.0
  0
VERTEX
  5
368
  8
0
  6
CONTINUOUS
 62
     7
 10
368.9390222261854
 20
251.8636280845917
 30
0.0
  0
VERTEX
  5
369
  8
0
  6
CONTINUOUS
 62
     7
 10
368.9217854293222
 20
251.8568076728929
 30
0.0
  0
VERTEX
  5
36A
  8
0
  6
CONTINUOUS
 62
     7
 10
368.9042869076663
 20
251.850687669979
 30
0.0
  0
VERTEX
  5
36B
  8
0
  6
CONTINUOUS
 62
     7
 10
368.8865726772609
 20
251.8452745573956
 30
0.0
  0
VERTEX
  5
36C
  8
0
  6
CONTINUOUS
 62
     7
 10
368.8623137376323
 20
251.8390810743317
 30
0.0
  0
VERTEX
  5
36D
  8
0
  6
CONTINUOUS
 62
     7
 10
368.8377052771455
 20
251.8341527737083
 30
0.0
  0
VERTEX
  5
36E
  8
0
  6
CONTINUOUS
 62
     7
 10
368.812843321698
 20
251.8304738446012
 30
0.0
  0
VERTEX
  5
36F
  8
0
  6
CONTINUOUS
 62
     7
 10
368.7878238971877
 20
251.8280284760859
 30
0.0
  0
VERTEX
  5
370
  8
0
  6
CONTINUOUS
 62
     7
 10
368.7627430295122
 20
251.8268008572384
 30
0.0
  0
VERTEX
  5
371
  8
0
  6
CONTINUOUS
 62
     7
 10
368.7376967445692
 20
251.8267751771342
 30
0.0
  0
VERTEX
  5
372
  8
0
  6
CONTINUOUS
 62
     7
 10
368.7096622760008
 20
251.8281482168082
 30
0.0
  0
VERTEX
  5
373
  8
0
  6
CONTINUOUS
 62
     7
 10
368.6816708877558
 20
251.8309573612774
 30
0.0
  0
VERTEX
  5
374
  8
0
  6
CONTINUOUS
 62
     7
 10
368.6538153141224
 20
251.8351548603494
 30
0.0
  0
VERTEX
  5
375
  8
0
  6
CONTINUOUS
 62
     7
 10
368.6261882893883
 20
251.8406929638316
 30
0.0
  0
VERTEX
  5
376
  8
0
  6
CONTINUOUS
 62
     7
 10
368.5988825478416
 20
251.8475239215314
 30
0.0
  0
VERTEX
  5
377
  8
0
  6
CONTINUOUS
 62
     7
 10
368.5719908237702
 20
251.8555999832562
 30
0.0
  0
VERTEX
  5
378
  8
0
  6
CONTINUOUS
 62
     7
 10
368.5415765746156
 20
251.86639654129
 30
0.0
  0
VERTEX
  5
379
  8
0
  6
CONTINUOUS
 62
     7
 10
368.5116855470232
 20
251.8787702138959
 30
0.0
  0
VERTEX
  5
37A
  8
0
  6
CONTINUOUS
 62
     7
 10
368.4824124565264
 20
251.892644889507
 30
0.0
  0
VERTEX
  5
37B
  8
0
  6
CONTINUOUS
 62
     7
 10
368.4538520186589
 20
251.9079444565562
 30
0.0
  0
VERTEX
  5
37C
  8
0
  6
CONTINUOUS
 62
     7
 10
368.4260989489539
 20
251.9245928034763
 30
0.0
  0
VERTEX
  5
37D
  8
0
  6
CONTINUOUS
 62
     7
 10
368.3992479629453
 20
251.9425138187002
 30
0.0
  0
VERTEX
  5
37E
  8
0
  6
CONTINUOUS
 62
     7
 10
368.3726990545865
 20
251.9621518444235
 30
0.0
  0
VERTEX
  5
37F
  8
0
  6
CONTINUOUS
 62
     7
 10
368.3471121021218
 20
251.9830584275325
 30
0.0
  0
VERTEX
  5
380
  8
0
  6
CONTINUOUS
 62
     7
 10
368.3225704299489
 20
252.0051544598839
 30
0.0
  0
SEQEND
  5
5FF
  8
0
  6
CONTINUOUS
 62
     7
  0
POLYLINE
  5
191
  8
0
  6
CONTINUOUS
 62
     7
 66
     1
 10
0.0
 20
0.0
 30
0.0
  0
VERTEX
  5
381
  8
0
  6
CONTINUOUS
 62
     7
 10
398.602249889784
 20
244.8533424116945
 30
0.0
  0
VERTEX
  5
382
  8
0
  6
CONTINUOUS
 62
     7
 10
398.6047633615441
 20
244.8354894531688
 30
0.0
  0
VERTEX
  5
383
  8
0
  6
CONTINUOUS
 62
     7
 10
398.6065232300767
 20
244.8175303197811
 30
0.0
  0
VERTEX
  5
384
  8
0
  6
CONTINUOUS
 62
     7
 10
398.6075238712535
 20
244.7995130805025
 30
0.0
  0
VERTEX
  5
385
  8
0
  6
CONTINUOUS
 62
     7
 10
398.6077596609462
 20
244.7814858043045
 30
0.0
  0
VERTEX
  5
386
  8
0
  6
CONTINUOUS
 62
     7
 10
398.6071987187507
 20
244.7629216357057
 30
0.0
  0
VERTEX
  5
387
  8
0
  6
CONTINUOUS
 62
     7
 10
398.6058271212663
 20
244.7443820210038
 30
0.0
  0
VERTEX
  5
388
  8
0
  6
CONTINUOUS
 62
     7
 10
398.6036527569171
 20
244.7259191044496
 30
0.0
  0
VERTEX
  5
389
  8
0
  6
CONTINUOUS
 62
     7
 10
398.6006835141279
 20
244.7075850302936
 30
0.0
  0
VERTEX
  5
38A
  8
0
  6
CONTINUOUS
 62
     7
 10
398.5970455481151
 20
244.6899305432436
 30
0.0
  0
VERTEX
  5
38B
  8
0
  6
CONTINUOUS
 62
     7
 10
398.5926743060583
 20
244.6724273235206
 30
0.0
  0
VERTEX
  5
38C
  8
0
  6
CONTINUOUS
 62
     7
 10
398.5875881461463
 20
244.6551178053227
 30
0.0
  0
VERTEX
  5
38D
  8
0
  6
CONTINUOUS
 62
     7
 10
398.5818054265681
 20
244.638044422848
 30
0.0
  0
VERTEX
  5
38E
  8
0
  6
CONTINUOUS
 62
     7
 10
398.5751482162709
 20
244.6207603325128
 30
0.0
  0
VERTEX
  5
38F
  8
0
  6
CONTINUOUS
 62
     7
 10
398.5677827196856
 20
244.6037493172021
 30
0.0
  0
VERTEX
  5
390
  8
0
  6
CONTINUOUS
 62
     7
 10
398.5597368919234
 20
244.5870484983172
 30
0.0
  0
VERTEX
  5
391
  8
0
  6
CONTINUOUS
 62
     7
 10
398.5510386880952
 20
244.570694997259
 30
0.0
  0
VERTEX
  5
392
  8
0
  6
CONTINUOUS
 62
     7
 10
398.5382644812531
 20
244.5491618826696
 30
0.0
  0
VERTEX
  5
393
  8
0
  6
CONTINUOUS
 62
     7
 10
398.5243485067588
 20
244.5282762385942
 30
0.0
  0
VERTEX
  5
394
  8
0
  6
CONTINUOUS
 62
     7
 10
398.5093698451875
 20
244.5080947855846
 30
0.0
  0
VERTEX
  5
395
  8
0
  6
CONTINUOUS
 62
     7
 10
398.4934075771145
 20
244.4886742441924
 30
0.0
  0
VERTEX
  5
396
  8
0
  6
CONTINUOUS
 62
     7
 10
398.4765407831149
 20
244.4700713349691
 30
0.0
  0
VERTEX
  5
397
  8
0
  6
CONTINUOUS
 62
     7
 10
398.458848543764
 20
244.4523427784666
 30
0.0
  0
VERTEX
  5
398
  8
0
  6
CONTINUOUS
 62
     7
 10
398.4380542952679
 20
244.4334903012992
 30
0.0
  0
VERTEX
  5
399
  8
0
  6
CONTINUOUS
 62
     7
 10
398.4162750297216
 20
244.41568376596
 30
0.0
  0
VERTEX
  5
39A
  8
0
  6
CONTINUOUS
 62
     7
 10
398.3936100846537
 20
244.3989549810077
 30
0.0
  0
VERTEX
  5
39B
  8
0
  6
CONTINUOUS
 62
     7
 10
398.3701587975931
 20
244.3833357550014
 30
0.0
  0
VERTEX
  5
39C
  8
0
  6
CONTINUOUS
 62
     7
 10
398.3460205060686
 20
244.3688578964999
 30
0.0
  0
VERTEX
  5
39D
  8
0
  6
CONTINUOUS
 62
     7
 10
398.3212945476089
 20
244.3555532140621
 30
0.0
  0
VERTEX
  5
39E
  8
0
  6
CONTINUOUS
 62
     7
 10
398.292154106388
 20
244.3416814116394
 30
0.0
  0
VERTEX
  5
39F
  8
0
  6
CONTINUOUS
 62
     7
 10
398.2622684502729
 20
244.32929477114
 30
0.0
  0
VERTEX
  5
3A0
  8
0
  6
CONTINUOUS
 62
     7
 10
398.2317583722649
 20
244.3184064475549
 30
0.0
  0
VERTEX
  5
3A1
  8
0
  6
CONTINUOUS
 62
     7
 10
398.2007446653654
 20
244.3090295958747
 30
0.0
  0
VERTEX
  5
3A2
  8
0
  6
CONTINUOUS
 62
     7
 10
398.1693481225756
 20
244.3011773710903
 30
0.0
  0
VERTEX
  5
3A3
  8
0
  6
CONTINUOUS
 62
     7
 10
398.1376895368967
 20
244.2948629281927
 30
0.0
  0
VERTEX
  5
3A4
  8
0
  6
CONTINUOUS
 62
     7
 10
398.1050304426051
 20
244.2899761962172
 30
0.0
  0
VERTEX
  5
3A5
  8
0
  6
CONTINUOUS
 62
     7
 10
398.0721545483195
 20
244.2866666753073
 30
0.0
  0
VERTEX
  5
3A6
  8
0
  6
CONTINUOUS
 62
     7
 10
398.0391767111915
 20
244.2849373468051
 30
0.0
  0
SEQEND
  5
600
  8
0
  6
CONTINUOUS
 62
     7
  0
POLYLINE
  5
192
  8
0
  6
CONTINUOUS
 62
     7
 66
     1
 10
0.0
 20
0.0
 30
0.0
  0
VERTEX
  5
3A7
  8
0
  6
CONTINUOUS
 62
     7
 10
431.6628204475887
 20
290.1184127490673
 30
0.0
  0
VERTEX
  5
3A8
  8
0
  6
CONTINUOUS
 62
     7
 10
431.6806734061144
 20
290.1209262208274
 30
0.0
  0
VERTEX
  5
3A9
  8
0
  6
CONTINUOUS
 62
     7
 10
431.6986325395021
 20
290.1226860893599
 30
0.0
  0
VERTEX
  5
3AA
  8
0
  6
CONTINUOUS
 62
     7
 10
431.7166497787807
 20
290.1236867305367
 30
0.0
  0
VERTEX
  5
3AB
  8
0
  6
CONTINUOUS
 62
     7
 10
431.7346770549788
 20
290.1239225202294
 30
0.0
  0
VERTEX
  5
3AC
  8
0
  6
CONTINUOUS
 62
     7
 10
431.7532412235775
 20
290.1233615780339
 30
0.0
  0
VERTEX
  5
3AD
  8
0
  6
CONTINUOUS
 62
     7
 10
431.7717808382794
 20
290.1219899805494
 30
0.0
  0
VERTEX
  5
3AE
  8
0
  6
CONTINUOUS
 62
     7
 10
431.7902437548336
 20
290.1198156162004
 30
0.0
  0
VERTEX
  5
3AF
  8
0
  6
CONTINUOUS
 62
     7
 10
431.8085778289897
 20
290.1168463734111
 30
0.0
  0
VERTEX
  5
3B0
  8
0
  6
CONTINUOUS
 62
     7
 10
431.8262323160396
 20
290.1132084073983
 30
0.0
  0
VERTEX
  5
3B1
  8
0
  6
CONTINUOUS
 62
     7
 10
431.8437355357626
 20
290.1088371653415
 30
0.0
  0
VERTEX
  5
3B2
  8
0
  6
CONTINUOUS
 62
     7
 10
431.8610450539605
 20
290.1037510054295
 30
0.0
  0
VERTEX
  5
3B3
  8
0
  6
CONTINUOUS
 62
     7
 10
431.8781184364352
 20
290.0979682858512
 30
0.0
  0
VERTEX
  5
3B4
  8
0
  6
CONTINUOUS
 62
     7
 10
431.8954025267705
 20
290.0913110755541
 30
0.0
  0
VERTEX
  5
3B5
  8
0
  6
CONTINUOUS
 62
     7
 10
431.9124135420811
 20
290.0839455789688
 30
0.0
  0
VERTEX
  5
3B6
  8
0
  6
CONTINUOUS
 62
     7
 10
431.929114360966
 20
290.0758997512066
 30
0.0
  0
VERTEX
  5
3B7
  8
0
  6
CONTINUOUS
 62
     7
 10
431.9454678620243
 20
290.0672015473784
 30
0.0
  0
VERTEX
  5
3B8
  8
0
  6
CONTINUOUS
 62
     7
 10
431.9670009766136
 20
290.0544273405363
 30
0.0
  0
VERTEX
  5
3B9
  8
0
  6
CONTINUOUS
 62
     7
 10
431.987886620689
 20
290.040511366042
 30
0.0
  0
VERTEX
  5
3BA
  8
0
  6
CONTINUOUS
 62
     7
 10
432.0080680736986
 20
290.0255327044707
 30
0.0
  0
VERTEX
  5
3BB
  8
0
  6
CONTINUOUS
 62
     7
 10
432.0274886150908
 20
290.0095704363977
 30
0.0
  0
VERTEX
  5
3BC
  8
0
  6
CONTINUOUS
 62
     7
 10
432.046091524314
 20
289.9927036423981
 30
0.0
  0
VERTEX
  5
3BD
  8
0
  6
CONTINUOUS
 62
     7
 10
432.0638200808165
 20
289.9750114030472
 30
0.0
  0
VERTEX
  5
3BE
  8
0
  6
CONTINUOUS
 62
     7
 10
432.082672557984
 20
289.9542171545512
 30
0.0
  0
VERTEX
  5
3BF
  8
0
  6
CONTINUOUS
 62
     7
 10
432.1004790933233
 20
289.9324378890049
 30
0.0
  0
VERTEX
  5
3C0
  8
0
  6
CONTINUOUS
 62
     7
 10
432.1172078782755
 20
289.909772943937
 30
0.0
  0
VERTEX
  5
3C1
  8
0
  6
CONTINUOUS
 62
     7
 10
432.1328271042818
 20
289.8863216568763
 30
0.0
  0
VERTEX
  5
3C2
  8
0
  6
CONTINUOUS
 62
     7
 10
432.1473049627833
 20
289.8621833653518
 30
0.0
  0
VERTEX
  5
3C3
  8
0
  6
CONTINUOUS
 62
     7
 10
432.1606096452211
 20
289.8374574068922
 30
0.0
  0
VERTEX
  5
3C4
  8
0
  6
CONTINUOUS
 62
     7
 10
432.1744814476438
 20
289.8083169656712
 30
0.0
  0
VERTEX
  5
3C5
  8
0
  6
CONTINUOUS
 62
     7
 10
432.1868680881432
 20
289.7784313095561
 30
0.0
  0
VERTEX
  5
3C6
  8
0
  6
CONTINUOUS
 62
     7
 10
432.1977564117283
 20
289.7479212315482
 30
0.0
  0
VERTEX
  5
3C7
  8
0
  6
CONTINUOUS
 62
     7
 10
432.2071332634085
 20
289.7169075246486
 30
0.0
  0
VERTEX
  5
3C8
  8
0
  6
CONTINUOUS
 62
     7
 10
432.2149854881928
 20
289.6855109818588
 30
0.0
  0
VERTEX
  5
3C9
  8
0
  6
CONTINUOUS
 62
     7
 10
432.2212999310905
 20
289.65385239618
 30
0.0
  0
VERTEX
  5
3CA
  8
0
  6
CONTINUOUS
 62
     7
 10
432.2261866630661
 20
289.6211933018883
 30
0.0
  0
VERTEX
  5
3CB
  8
0
  6
CONTINUOUS
 62
     7
 10
432.2294961839759
 20
289.5883174076027
 30
0.0
  0
VERTEX
  5
3CC
  8
0
  6
CONTINUOUS
 62
     7
 10
432.2312255124781
 20
289.5553395704748
 30
0.0
  0
SEQEND
  5
601
  8
0
  6
CONTINUOUS
 62
     7
  0
POLYLINE
  5
193
  8
0
  6
CONTINUOUS
 62
     7
 66
     1
 10
0.0
 20
0.0
 30
0.0
  0
VERTEX
  5
3CD
  8
0
  6
CONTINUOUS
 62
     7
 10
424.5072381864425
 20
260.6388092279631
 30
0.0
  0
VERTEX
  5
3CE
  8
0
  6
CONTINUOUS
 62
     7
 10
424.5216394274065
 20
260.6279625728518
 30
0.0
  0
VERTEX
  5
3CF
  8
0
  6
CONTINUOUS
 62
     7
 10
424.5355828673824
 20
260.6165079628223
 30
0.0
  0
VERTEX
  5
3D0
  8
0
  6
CONTINUOUS
 62
     7
 10
424.549030539616
 20
260.6044754109116
 30
0.0
  0
VERTEX
  5
3D1
  8
0
  6
CONTINUOUS
 62
     7
 10
424.5619444773525
 20
260.5918949301561
 30
0.0
  0
VERTEX
  5
3D2
  8
0
  6
CONTINUOUS
 62
     7
 10
424.5746746808255
 20
260.5783714346226
 30
0.0
  0
VERTEX
  5
3D3
  8
0
  6
CONTINUOUS
 62
     7
 10
424.5868143022194
 20
260.564292081464
 30
0.0
  0
VERTEX
  5
3D4
  8
0
  6
CONTINUOUS
 62
     7
 10
424.5983320479394
 20
260.549699320192
 30
0.0
  0
VERTEX
  5
3D5
  8
0
  6
CONTINUOUS
 62
     7
 10
424.6091966243906
 20
260.5346356003182
 30
0.0
  0
VERTEX
  5
3D6
  8
0
  6
CONTINUOUS
 62
     7
 10
424.6191078014646
 20
260.5195795623694
 30
0.0
  0
VERTEX
  5
3D7
  8
0
  6
CONTINUOUS
 62
     7
 10
424.6283935119228
 20
260.5041119821101
 30
0.0
  0
VERTEX
  5
3D8
  8
0
  6
CONTINUOUS
 62
     7
 10
424.6370367314556
 20
260.4882758462494
 30
0.0
  0
VERTEX
  5
3D9
  8
0
  6
CONTINUOUS
 62
     7
 10
424.6450204357537
 20
260.4721141414962
 30
0.0
  0
VERTEX
  5
3DA
  8
0
  6
CONTINUOUS
 62
     7
 10
424.6525347746916
 20
260.4551850854686
 30
0.0
  0
VERTEX
  5
3DB
  8
0
  6
CONTINUOUS
 62
     7
 10
424.6593551863903
 20
260.4379482886054
 30
0.0
  0
VERTEX
  5
3DC
  8
0
  6
CONTINUOUS
 62
     7
 10
424.6654751893042
 20
260.4204497669496
 30
0.0
  0
VERTEX
  5
3DD
  8
0
  6
CONTINUOUS
 62
     7
 10
424.6708883018877
 20
260.4027355365441
 30
0.0
  0
VERTEX
  5
3DE
  8
0
  6
CONTINUOUS
 62
     7
 10
424.6770817849516
 20
260.3784765969156
 30
0.0
  0
VERTEX
  5
3DF
  8
0
  6
CONTINUOUS
 62
     7
 10
424.6820100855749
 20
260.3538681364287
 30
0.0
  0
VERTEX
  5
3E0
  8
0
  6
CONTINUOUS
 62
     7
 10
424.6856890146821
 20
260.3290061809813
 30
0.0
  0
VERTEX
  5
3E1
  8
0
  6
CONTINUOUS
 62
     7
 10
424.6881343831972
 20
260.3039867564709
 30
0.0
  0
VERTEX
  5
3E2
  8
0
  6
CONTINUOUS
 62
     7
 10
424.6893620020448
 20
260.2789058887954
 30
0.0
  0
VERTEX
  5
3E3
  8
0
  6
CONTINUOUS
 62
     7
 10
424.6893876821489
 20
260.2538596038523
 30
0.0
  0
VERTEX
  5
3E4
  8
0
  6
CONTINUOUS
 62
     7
 10
424.688014642475
 20
260.2258251352839
 30
0.0
  0
VERTEX
  5
3E5
  8
0
  6
CONTINUOUS
 62
     7
 10
424.6852054980058
 20
260.197833747039
 30
0.0
  0
VERTEX
  5
3E6
  8
0
  6
CONTINUOUS
 62
     7
 10
424.6810079989338
 20
260.1699781734056
 30
0.0
  0
VERTEX
  5
3E7
  8
0
  6
CONTINUOUS
 62
     7
 10
424.6754698954516
 20
260.1423511486715
 30
0.0
  0
VERTEX
  5
3E8
  8
0
  6
CONTINUOUS
 62
     7
 10
424.6686389377518
 20
260.1150454071247
 30
0.0
  0
VERTEX
  5
3E9
  8
0
  6
CONTINUOUS
 62
     7
 10
424.660562876027
 20
260.0881536830533
 30
0.0
  0
VERTEX
  5
3EA
  8
0
  6
CONTINUOUS
 62
     7
 10
424.6497663179933
 20
260.0577394338988
 30
0.0
  0
VERTEX
  5
3EB
  8
0
  6
CONTINUOUS
 62
     7
 10
424.6373926453873
 20
260.0278484063064
 30
0.0
  0
VERTEX
  5
3EC
  8
0
  6
CONTINUOUS
 62
     7
 10
424.6235179697762
 20
259.9985753158097
 30
0.0
  0
VERTEX
  5
3ED
  8
0
  6
CONTINUOUS
 62
     7
 10
424.608218402727
 20
259.970014877942
 30
0.0
  0
VERTEX
  5
3EE
  8
0
  6
CONTINUOUS
 62
     7
 10
424.5915700558069
 20
259.9422618082372
 30
0.0
  0
VERTEX
  5
3EF
  8
0
  6
CONTINUOUS
 62
     7
 10
424.5736490405829
 20
259.9154108222285
 30
0.0
  0
VERTEX
  5
3F0
  8
0
  6
CONTINUOUS
 62
     7
 10
424.5540110148597
 20
259.8888619138697
 30
0.0
  0
VERTEX
  5
3F1
  8
0
  6
CONTINUOUS
 62
     7
 10
424.5331044317507
 20
259.863274961405
 30
0.0
  0
VERTEX
  5
3F2
  8
0
  6
CONTINUOUS
 62
     7
 10
424.5110083993994
 20
259.838733289232
 30
0.0
  0
SEQEND
  5
602
  8
0
  6
CONTINUOUS
 62
     7
  0
POLYLINE
  5
194
  8
0
  6
CONTINUOUS
 62
     7
 66
     1
 10
0.0
 20
0.0
 30
0.0
  0
VERTEX
  5
3F3
  8
0
  6
CONTINUOUS
 62
     7
 10
386.397750110216
 20
323.1789833068719
 30
0.0
  0
VERTEX
  5
3F4
  8
0
  6
CONTINUOUS
 62
     7
 10
386.3952366384559
 20
323.1968362653976
 30
0.0
  0
VERTEX
  5
3F5
  8
0
  6
CONTINUOUS
 62
     7
 10
386.3934767699233
 20
323.2147953987854
 30
0.0
  0
VERTEX
  5
3F6
  8
0
  6
CONTINUOUS
 62
     7
 10
386.3924761287465
 20
323.2328126380639
 30
0.0
  0
VERTEX
  5
3F7
  8
0
  6
CONTINUOUS
 62
     7
 10
386.3922403390538
 20
323.250839914262
 30
0.0
  0
VERTEX
  5
3F8
  8
0
  6
CONTINUOUS
 62
     7
 10
386.3928012812493
 20
323.2694040828607
 30
0.0
  0
VERTEX
  5
3F9
  8
0
  6
CONTINUOUS
 62
     7
 10
386.3941728787338
 20
323.2879436975626
 30
0.0
  0
VERTEX
  5
3FA
  8
0
  6
CONTINUOUS
 62
     7
 10
386.3963472430829
 20
323.3064066141168
 30
0.0
  0
VERTEX
  5
3FB
  8
0
  6
CONTINUOUS
 62
     7
 10
386.3993164858721
 20
323.3247406882729
 30
0.0
  0
VERTEX
  5
3FC
  8
0
  6
CONTINUOUS
 62
     7
 10
386.4029544518849
 20
323.3423951753228
 30
0.0
  0
VERTEX
  5
3FD
  8
0
  6
CONTINUOUS
 62
     7
 10
386.4073256939417
 20
323.3598983950458
 30
0.0
  0
VERTEX
  5
3FE
  8
0
  6
CONTINUOUS
 62
     7
 10
386.4124118538537
 20
323.3772079132438
 30
0.0
  0
VERTEX
  5
3FF
  8
0
  6
CONTINUOUS
 62
     7
 10
386.4181945734319
 20
323.3942812957184
 30
0.0
  0
VERTEX
  5
400
  8
0
  6
CONTINUOUS
 62
     7
 10
386.4248517837291
 20
323.4115653860537
 30
0.0
  0
VERTEX
  5
401
  8
0
  6
CONTINUOUS
 62
     7
 10
386.4322172803144
 20
323.4285764013643
 30
0.0
  0
VERTEX
  5
402
  8
0
  6
CONTINUOUS
 62
     7
 10
386.4402631080766
 20
323.4452772202492
 30
0.0
  0
VERTEX
  5
403
  8
0
  6
CONTINUOUS
 62
     7
 10
386.4489613119048
 20
323.4616307213075
 30
0.0
  0
VERTEX
  5
404
  8
0
  6
CONTINUOUS
 62
     7
 10
386.4617355187469
 20
323.4831638358968
 30
0.0
  0
VERTEX
  5
405
  8
0
  6
CONTINUOUS
 62
     7
 10
386.4756514932412
 20
323.5040494799722
 30
0.0
  0
VERTEX
  5
406
  8
0
  6
CONTINUOUS
 62
     7
 10
386.4906301548125
 20
323.5242309329818
 30
0.0
  0
VERTEX
  5
407
  8
0
  6
CONTINUOUS
 62
     7
 10
386.5065924228855
 20
323.543651474374
 30
0.0
  0
VERTEX
  5
408
  8
0
  6
CONTINUOUS
 62
     7
 10
386.5234592168851
 20
323.5622543835972
 30
0.0
  0
VERTEX
  5
409
  8
0
  6
CONTINUOUS
 62
     7
 10
386.5411514562361
 20
323.5799829400997
 30
0.0
  0
VERTEX
  5
40A
  8
0
  6
CONTINUOUS
 62
     7
 10
386.5619457047321
 20
323.5988354172672
 30
0.0
  0
VERTEX
  5
40B
  8
0
  6
CONTINUOUS
 62
     7
 10
386.5837249702784
 20
323.6166419526065
 30
0.0
  0
VERTEX
  5
40C
  8
0
  6
CONTINUOUS
 62
     7
 10
386.6063899153463
 20
323.6333707375587
 30
0.0
  0
VERTEX
  5
40D
  8
0
  6
CONTINUOUS
 62
     7
 10
386.6298412024069
 20
323.648989963565
 30
0.0
  0
VERTEX
  5
40E
  8
0
  6
CONTINUOUS
 62
     7
 10
386.6539794939314
 20
323.6634678220665
 30
0.0
  0
VERTEX
  5
40F
  8
0
  6
CONTINUOUS
 62
     7
 10
386.6787054523911
 20
323.6767725045043
 30
0.0
  0
VERTEX
  5
410
  8
0
  6
CONTINUOUS
 62
     7
 10
386.707845893612
 20
323.6906443069271
 30
0.0
  0
VERTEX
  5
411
  8
0
  6
CONTINUOUS
 62
     7
 10
386.7377315497271
 20
323.7030309474264
 30
0.0
  0
VERTEX
  5
412
  8
0
  6
CONTINUOUS
 62
     7
 10
386.7682416277351
 20
323.7139192710115
 30
0.0
  0
VERTEX
  5
413
  8
0
  6
CONTINUOUS
 62
     7
 10
386.7992553346346
 20
323.7232961226917
 30
0.0
  0
VERTEX
  5
414
  8
0
  6
CONTINUOUS
 62
     7
 10
386.8306518774244
 20
323.7311483474761
 30
0.0
  0
VERTEX
  5
415
  8
0
  6
CONTINUOUS
 62
     7
 10
386.8623104631033
 20
323.7374627903737
 30
0.0
  0
VERTEX
  5
416
  8
0
  6
CONTINUOUS
 62
     7
 10
386.8949695573949
 20
323.7423495223492
 30
0.0
  0
VERTEX
  5
417
  8
0
  6
CONTINUOUS
 62
     7
 10
386.9278454516805
 20
323.7456590432591
 30
0.0
  0
VERTEX
  5
418
  8
0
  6
CONTINUOUS
 62
     7
 10
386.9608232888085
 20
323.7473883717613
 30
0.0
  0
SEQEND
  5
603
  8
0
  6
CONTINUOUS
 62
     7
  0
POLYLINE
  5
195
  8
0
  6
CONTINUOUS
 62
     7
 66
     1
 10
0.0
 20
0.0
 30
0.0
  0
VERTEX
  5
419
  8
0
  6
CONTINUOUS
 62
     7
 10
360.4927618135577
 20
307.3935164906032
 30
0.0
  0
VERTEX
  5
41A
  8
0
  6
CONTINUOUS
 62
     7
 10
360.478360572594
 20
307.4043631457151
 30
0.0
  0
VERTEX
  5
41B
  8
0
  6
CONTINUOUS
 62
     7
 10
360.4644171326179
 20
307.4158177557445
 30
0.0
  0
VERTEX
  5
41C
  8
0
  6
CONTINUOUS
 62
     7
 10
360.4509694603842
 20
307.4278503076549
 30
0.0
  0
VERTEX
  5
41D
  8
0
  6
CONTINUOUS
 62
     7
 10
360.4380555226476
 20
307.4404307884102
 30
0.0
  0
VERTEX
  5
41E
  8
0
  6
CONTINUOUS
 62
     7
 10
360.4253253191746
 20
307.4539542839438
 30
0.0
  0
VERTEX
  5
41F
  8
0
  6
CONTINUOUS
 62
     7
 10
360.4131856977807
 20
307.4680336371024
 30
0.0
  0
VERTEX
  5
420
  8
0
  6
CONTINUOUS
 62
     7
 10
360.4016679520606
 20
307.4826263983744
 30
0.0
  0
VERTEX
  5
421
  8
0
  6
CONTINUOUS
 62
     7
 10
360.3908033756094
 20
307.4976901182482
 30
0.0
  0
VERTEX
  5
422
  8
0
  6
CONTINUOUS
 62
     7
 10
360.3808921985354
 20
307.512746156197
 30
0.0
  0
VERTEX
  5
423
  8
0
  6
CONTINUOUS
 62
     7
 10
360.3716064880772
 20
307.5282137364562
 30
0.0
  0
VERTEX
  5
424
  8
0
  6
CONTINUOUS
 62
     7
 10
360.3629632685444
 20
307.544049872317
 30
0.0
  0
VERTEX
  5
425
  8
0
  6
CONTINUOUS
 62
     7
 10
360.3549795642463
 20
307.5602115770702
 30
0.0
  0
VERTEX
  5
426
  8
0
  6
CONTINUOUS
 62
     7
 10
360.3474652253084
 20
307.5771406330978
 30
0.0
  0
VERTEX
  5
427
  8
0
  6
CONTINUOUS
 62
     7
 10
360.3406448136097
 20
307.594377429961
 30
0.0
  0
VERTEX
  5
428
  8
0
  6
CONTINUOUS
 62
     7
 10
360.3345248106958
 20
307.6118759516169
 30
0.0
  0
VERTEX
  5
429
  8
0
  6
CONTINUOUS
 62
     7
 10
360.3291116981124
 20
307.6295901820224
 30
0.0
  0
VERTEX
  5
42A
  8
0
  6
CONTINUOUS
 62
     7
 10
360.3229182150485
 20
307.6538491216509
 30
0.0
  0
VERTEX
  5
42B
  8
0
  6
CONTINUOUS
 62
     7
 10
360.3179899144251
 20
307.6784575821378
 30
0.0
  0
VERTEX
  5
42C
  8
0
  6
CONTINUOUS
 62
     7
 10
360.3143109853179
 20
307.7033195375852
 30
0.0
  0
VERTEX
  5
42D
  8
0
  6
CONTINUOUS
 62
     7
 10
360.3118656168027
 20
307.7283389620956
 30
0.0
  0
VERTEX
  5
42E
  8
0
  6
CONTINUOUS
 62
     7
 10
360.3106379979552
 20
307.7534198297711
 30
0.0
  0
VERTEX
  5
42F
  8
0
  6
CONTINUOUS
 62
     7
 10
360.3106123178511
 20
307.778466114714
 30
0.0
  0
VERTEX
  5
430
  8
0
  6
CONTINUOUS
 62
     7
 10
360.311985357525
 20
307.8065005832825
 30
0.0
  0
VERTEX
  5
431
  8
0
  6
CONTINUOUS
 62
     7
 10
360.3147945019942
 20
307.8344919715274
 30
0.0
  0
VERTEX
  5
432
  8
0
  6
CONTINUOUS
 62
     7
 10
360.3189920010662
 20
307.8623475451608
 30
0.0
  0
VERTEX
  5
433
  8
0
  6
CONTINUOUS
 62
     7
 10
360.3245301045484
 20
307.8899745698949
 30
0.0
  0
VERTEX
  5
434
  8
0
  6
CONTINUOUS
 62
     7
 10
360.3313610622482
 20
307.9172803114417
 30
0.0
  0
VERTEX
  5
435
  8
0
  6
CONTINUOUS
 62
     7
 10
360.339437123973
 20
307.944172035513
 30
0.0
  0
VERTEX
  5
436
  8
0
  6
CONTINUOUS
 62
     7
 10
360.3502336820067
 20
307.9745862846676
 30
0.0
  0
VERTEX
  5
437
  8
0
  6
CONTINUOUS
 62
     7
 10
360.3626073546127
 20
308.00447731226
 30
0.0
  0
VERTEX
  5
438
  8
0
  6
CONTINUOUS
 62
     7
 10
360.3764820302239
 20
308.0337504027568
 30
0.0
  0
VERTEX
  5
439
  8
0
  6
CONTINUOUS
 62
     7
 10
360.391781597273
 20
308.0623108406244
 30
0.0
  0
VERTEX
  5
43A
  8
0
  6
CONTINUOUS
 62
     7
 10
360.4084299441931
 20
308.0900639103293
 30
0.0
  0
VERTEX
  5
43B
  8
0
  6
CONTINUOUS
 62
     7
 10
360.4263509594171
 20
308.1169148963379
 30
0.0
  0
VERTEX
  5
43C
  8
0
  6
CONTINUOUS
 62
     7
 10
360.4459889851403
 20
308.1434638046967
 30
0.0
  0
VERTEX
  5
43D
  8
0
  6
CONTINUOUS
 62
     7
 10
360.4668955682494
 20
308.1690507571614
 30
0.0
  0
VERTEX
  5
43E
  8
0
  6
CONTINUOUS
 62
     7
 10
360.4889916006006
 20
308.1935924293343
 30
0.0
  0
SEQEND
  5
604
  8
0
  6
CONTINUOUS
 62
     7
  0
POLYLINE
  5
196
  8
0
  6
CONTINUOUS
 62
     7
 66
     1
 10
0.0
 20
0.0
 30
0.0
  0
VERTEX
  5
43F
  8
0
  6
CONTINUOUS
 62
     7
 10
415.87735363132
 20
316.0234010457256
 30
0.0
  0
VERTEX
  5
440
  8
0
  6
CONTINUOUS
 62
     7
 10
415.8882002864319
 20
316.0378022866892
 30
0.0
  0
VERTEX
  5
441
  8
0
  6
CONTINUOUS
 62
     7
 10
415.8996548964612
 20
316.0517457266653
 30
0.0
  0
VERTEX
  5
442
  8
0
  6
CONTINUOUS
 62
     7
 10
415.9116874483717
 20
316.065193398899
 30
0.0
  0
VERTEX
  5
443
  8
0
  6
CONTINUOUS
 62
     7
 10
415.924267929127
 20
316.0781073366356
 30
0.0
  0
VERTEX
  5
444
  8
0
  6
CONTINUOUS
 62
     7
 10
415.9377914246606
 20
316.0908375401086
 30
0.0
  0
VERTEX
  5
445
  8
0
  6
CONTINUOUS
 62
     7
 10
415.9518707778192
 20
316.1029771615026
 30
0.0
  0
VERTEX
  5
446
  8
0
  6
CONTINUOUS
 62
     7
 10
415.9664635390912
 20
316.1144949072226
 30
0.0
  0
VERTEX
  5
447
  8
0
  6
CONTINUOUS
 62
     7
 10
415.9815272589649
 20
316.1253594836738
 30
0.0
  0
VERTEX
  5
448
  8
0
  6
CONTINUOUS
 62
     7
 10
415.9965832969137
 20
316.1352706607478
 30
0.0
  0
VERTEX
  5
449
  8
0
  6
CONTINUOUS
 62
     7
 10
416.0120508771731
 20
316.144556371206
 30
0.0
  0
VERTEX
  5
44A
  8
0
  6
CONTINUOUS
 62
     7
 10
416.0278870130338
 20
316.1531995907388
 30
0.0
  0
VERTEX
  5
44B
  8
0
  6
CONTINUOUS
 62
     7
 10
416.0440487177869
 20
316.1611832950369
 30
0.0
  0
VERTEX
  5
44C
  8
0
  6
CONTINUOUS
 62
     7
 10
416.0609777738146
 20
316.1686976339748
 30
0.0
  0
VERTEX
  5
44D
  8
0
  6
CONTINUOUS
 62
     7
 10
416.0782145706779
 20
316.1755180456735
 30
0.0
  0
VERTEX
  5
44E
  8
0
  6
CONTINUOUS
 62
     7
 10
416.0957130923337
 20
316.1816380485874
 30
0.0
  0
VERTEX
  5
44F
  8
0
  6
CONTINUOUS
 62
     7
 10
416.1134273227391
 20
316.1870511611709
 30
0.0
  0
VERTEX
  5
450
  8
0
  6
CONTINUOUS
 62
     7
 10
416.1376862623677
 20
316.1932446442348
 30
0.0
  0
VERTEX
  5
451
  8
0
  6
CONTINUOUS
 62
     7
 10
416.1622947228545
 20
316.1981729448581
 30
0.0
  0
VERTEX
  5
452
  8
0
  6
CONTINUOUS
 62
     7
 10
416.187156678302
 20
316.2018518739653
 30
0.0
  0
VERTEX
  5
453
  8
0
  6
CONTINUOUS
 62
     7
 10
416.2121761028124
 20
316.2042972424805
 30
0.0
  0
VERTEX
  5
454
  8
0
  6
CONTINUOUS
 62
     7
 10
416.2372569704879
 20
316.205524861328
 30
0.0
  0
VERTEX
  5
455
  8
0
  6
CONTINUOUS
 62
     7
 10
416.2623032554309
 20
316.2055505414322
 30
0.0
  0
VERTEX
  5
456
  8
0
  6
CONTINUOUS
 62
     7
 10
416.2903377239992
 20
316.2041775017583
 30
0.0
  0
VERTEX
  5
457
  8
0
  6
CONTINUOUS
 62
     7
 10
416.3183291122442
 20
316.201368357289
 30
0.0
  0
VERTEX
  5
458
  8
0
  6
CONTINUOUS
 62
     7
 10
416.3461846858776
 20
316.197170858217
 30
0.0
  0
VERTEX
  5
459
  8
0
  6
CONTINUOUS
 62
     7
 10
416.3738117106117
 20
316.1916327547348
 30
0.0
  0
VERTEX
  5
45A
  8
0
  6
CONTINUOUS
 62
     7
 10
416.4011174521585
 20
316.184801797035
 30
0.0
  0
VERTEX
  5
45B
  8
0
  6
CONTINUOUS
 62
     7
 10
416.4280091762299
 20
316.1767257353102
 30
0.0
  0
VERTEX
  5
45C
  8
0
  6
CONTINUOUS
 62
     7
 10
416.4584234253844
 20
316.1659291772765
 30
0.0
  0
VERTEX
  5
45D
  8
0
  6
CONTINUOUS
 62
     7
 10
416.4883144529768
 20
316.1535555046705
 30
0.0
  0
VERTEX
  5
45E
  8
0
  6
CONTINUOUS
 62
     7
 10
416.5175875434736
 20
316.1396808290594
 30
0.0
  0
VERTEX
  5
45F
  8
0
  6
CONTINUOUS
 62
     7
 10
416.5461479813412
 20
316.1243812620102
 30
0.0
  0
VERTEX
  5
460
  8
0
  6
CONTINUOUS
 62
     7
 10
416.5739010510461
 20
316.1077329150901
 30
0.0
  0
VERTEX
  5
461
  8
0
  6
CONTINUOUS
 62
     7
 10
416.6007520370547
 20
316.0898118998662
 30
0.0
  0
VERTEX
  5
462
  8
0
  6
CONTINUOUS
 62
     7
 10
416.6273009454135
 20
316.0701738741429
 30
0.0
  0
VERTEX
  5
463
  8
0
  6
CONTINUOUS
 62
     7
 10
416.6528878978783
 20
316.0492672910339
 30
0.0
  0
VERTEX
  5
464
  8
0
  6
CONTINUOUS
 62
     7
 10
416.6774295700512
 20
316.0271712586826
 30
0.0
  0
SEQEND
  5
605
  8
0
  6
CONTINUOUS
 62
     7
  0
POLYLINE
  5
197
  8
0
  6
CONTINUOUS
 62
     7
 66
     1
 10
0.0
 20
0.0
 30
0.0
  0
VERTEX
  5
465
  8
0
  6
CONTINUOUS
 62
     7
 10
353.3371795524113
 20
277.9139129694992
 30
0.0
  0
VERTEX
  5
466
  8
0
  6
CONTINUOUS
 62
     7
 10
353.3193265938855
 20
277.9113994977396
 30
0.0
  0
VERTEX
  5
467
  8
0
  6
CONTINUOUS
 62
     7
 10
353.3013674604979
 20
277.9096396292068
 30
0.0
  0
VERTEX
  5
468
  8
0
  6
CONTINUOUS
 62
     7
 10
353.2833502212193
 20
277.9086389880298
 30
0.0
  0
VERTEX
  5
469
  8
0
  6
CONTINUOUS
 62
     7
 10
353.2653229450213
 20
277.908403198337
 30
0.0
  0
VERTEX
  5
46A
  8
0
  6
CONTINUOUS
 62
     7
 10
353.2467587764226
 20
277.9089641405325
 30
0.0
  0
VERTEX
  5
46B
  8
0
  6
CONTINUOUS
 62
     7
 10
353.2282191617207
 20
277.910335738017
 30
0.0
  0
VERTEX
  5
46C
  8
0
  6
CONTINUOUS
 62
     7
 10
353.2097562451664
 20
277.9125101023661
 30
0.0
  0
VERTEX
  5
46D
  8
0
  6
CONTINUOUS
 62
     7
 10
353.1914221710104
 20
277.9154793451553
 30
0.0
  0
VERTEX
  5
46E
  8
0
  6
CONTINUOUS
 62
     7
 10
353.1737676839605
 20
277.9191173111681
 30
0.0
  0
VERTEX
  5
46F
  8
0
  6
CONTINUOUS
 62
     7
 10
353.1562644642374
 20
277.9234885532249
 30
0.0
  0
VERTEX
  5
470
  8
0
  6
CONTINUOUS
 62
     7
 10
353.1389549460395
 20
277.9285747131369
 30
0.0
  0
VERTEX
  5
471
  8
0
  6
CONTINUOUS
 62
     7
 10
353.1218815635648
 20
277.9343574327152
 30
0.0
  0
VERTEX
  5
472
  8
0
  6
CONTINUOUS
 62
     7
 10
353.1045974732295
 20
277.9410146430124
 30
0.0
  0
VERTEX
  5
473
  8
0
  6
CONTINUOUS
 62
     7
 10
353.0875864579189
 20
277.9483801395976
 30
0.0
  0
VERTEX
  5
474
  8
0
  6
CONTINUOUS
 62
     7
 10
353.070885639034
 20
277.9564259673598
 30
0.0
  0
VERTEX
  5
475
  8
0
  6
CONTINUOUS
 62
     7
 10
353.0545321379757
 20
277.965124171188
 30
0.0
  0
VERTEX
  5
476
  8
0
  6
CONTINUOUS
 62
     7
 10
353.0329990233864
 20
277.9778983780301
 30
0.0
  0
VERTEX
  5
477
  8
0
  6
CONTINUOUS
 62
     7
 10
353.012113379311
 20
277.9918143525244
 30
0.0
  0
VERTEX
  5
478
  8
0
  6
CONTINUOUS
 62
     7
 10
352.9919319263014
 20
278.0067930140957
 30
0.0
  0
VERTEX
  5
479
  8
0
  6
CONTINUOUS
 62
     7
 10
352.9725113849091
 20
278.0227552821688
 30
0.0
  0
VERTEX
  5
47A
  8
0
  6
CONTINUOUS
 62
     7
 10
352.953908475686
 20
278.0396220761683
 30
0.0
  0
VERTEX
  5
47B
  8
0
  6
CONTINUOUS
 62
     7
 10
352.9361799191834
 20
278.0573143155192
 30
0.0
  0
VERTEX
  5
47C
  8
0
  6
CONTINUOUS
 62
     7
 10
352.917327442016
 20
278.0781085640153
 30
0.0
  0
VERTEX
  5
47D
  8
0
  6
CONTINUOUS
 62
     7
 10
352.8995209066767
 20
278.0998878295616
 30
0.0
  0
VERTEX
  5
47E
  8
0
  6
CONTINUOUS
 62
     7
 10
352.8827921217245
 20
278.1225527746295
 30
0.0
  0
VERTEX
  5
47F
  8
0
  6
CONTINUOUS
 62
     7
 10
352.8671728957182
 20
278.1460040616901
 30
0.0
  0
VERTEX
  5
480
  8
0
  6
CONTINUOUS
 62
     7
 10
352.8526950372167
 20
278.1701423532147
 30
0.0
  0
VERTEX
  5
481
  8
0
  6
CONTINUOUS
 62
     7
 10
352.8393903547789
 20
278.1948683116743
 30
0.0
  0
VERTEX
  5
482
  8
0
  6
CONTINUOUS
 62
     7
 10
352.8255185523562
 20
278.2240087528953
 30
0.0
  0
VERTEX
  5
483
  8
0
  6
CONTINUOUS
 62
     7
 10
352.8131319118568
 20
278.2538944090103
 30
0.0
  0
VERTEX
  5
484
  8
0
  6
CONTINUOUS
 62
     7
 10
352.8022435882717
 20
278.2844044870183
 30
0.0
  0
VERTEX
  5
485
  8
0
  6
CONTINUOUS
 62
     7
 10
352.7928667365915
 20
278.3154181939178
 30
0.0
  0
VERTEX
  5
486
  8
0
  6
CONTINUOUS
 62
     7
 10
352.7850145118072
 20
278.3468147367076
 30
0.0
  0
VERTEX
  5
487
  8
0
  6
CONTINUOUS
 62
     7
 10
352.7787000689095
 20
278.3784733223865
 30
0.0
  0
VERTEX
  5
488
  8
0
  6
CONTINUOUS
 62
     7
 10
352.773813336934
 20
278.4111324166781
 30
0.0
  0
VERTEX
  5
489
  8
0
  6
CONTINUOUS
 62
     7
 10
352.7705038160241
 20
278.4440083109637
 30
0.0
  0
VERTEX
  5
48A
  8
0
  6
CONTINUOUS
 62
     7
 10
352.7687744875219
 20
278.4769861480917
 30
0.0
  0
SEQEND
  5
606
  8
0
  6
CONTINUOUS
 62
     7
  0
POLYLINE
  5
198
  8
0
  6
CONTINUOUS
 62
     7
 66
     1
 10
0.0
 20
0.0
 30
0.0
  0
VERTEX
  5
48B
  8
0
  6
CONTINUOUS
 62
     7
 10
432.2312255124781
 20
289.5553395704748
 30
0.0
  0
VERTEX
  5
48C
  8
0
  6
CONTINUOUS
 62
     7
 10
432.240707301564
 20
287.7034032752883
 30
0.0
  0
VERTEX
  5
48D
  8
0
  6
CONTINUOUS
 62
     7
 10
432.1638944838107
 20
285.858988947723
 30
0.0
  0
VERTEX
  5
48E
  8
0
  6
CONTINUOUS
 62
     7
 10
432.0
 20
284.0161628592832
 30
0.0
  0
SEQEND
  5
607
  8
0
  6
CONTINUOUS
 62
     7
  0
POLYLINE
  5
199
  8
0
  6
CONTINUOUS
 62
     7
 66
     1
 10
0.0
 20
0.0
 30
0.0
  0
VERTEX
  5
48F
  8
0
  6
CONTINUOUS
 62
     7
 10
386.9608232888085
 20
323.7473883717613
 30
0.0
  0
VERTEX
  5
490
  8
0
  6
CONTINUOUS
 62
     7
 10
388.812759583995
 20
323.7568701608473
 30
0.0
  0
VERTEX
  5
491
  8
0
  6
CONTINUOUS
 62
     7
 10
390.6571739115602
 20
323.6800573430939
 30
0.0
  0
VERTEX
  5
492
  8
0
  6
CONTINUOUS
 62
     7
 10
392.5
 20
323.5161628592832
 30
0.0
  0
SEQEND
  5
608
  8
0
  6
CONTINUOUS
 62
     7
  0
POLYLINE
  5
19A
  8
0
  6
CONTINUOUS
 62
     7
 66
     1
 10
0.0
 20
0.0
 30
0.0
  0
VERTEX
  5
493
  8
0
  6
CONTINUOUS
 62
     7
 10
368.3225704299489
 20
252.0051544598839
 30
0.0
  0
VERTEX
  5
494
  8
0
  6
CONTINUOUS
 62
     7
 10
367.0063490799366
 20
253.3079665351752
 30
0.0
  0
VERTEX
  5
495
  8
0
  6
CONTINUOUS
 62
     7
 10
365.756466065913
 20
254.6664792778297
 30
0.0
  0
VERTEX
  5
496
  8
0
  6
CONTINUOUS
 62
     7
 10
364.5692821431314
 20
256.0854450024146
 30
0.0
  0
SEQEND
  5
609
  8
0
  6
CONTINUOUS
 62
     7
  0
POLYLINE
  5
19B
  8
0
  6
CONTINUOUS
 62
     7
 66
     1
 10
0.0
 20
0.0
 30
0.0
  0
VERTEX
  5
497
  8
0
  6
CONTINUOUS
 62
     7
 10
360.4889916006006
 20
308.1935924293343
 30
0.0
  0
VERTEX
  5
498
  8
0
  6
CONTINUOUS
 62
     7
 10
361.7918036758921
 20
309.5098137793466
 30
0.0
  0
VERTEX
  5
499
  8
0
  6
CONTINUOUS
 62
     7
 10
363.1503164185465
 20
310.7596967933702
 30
0.0
  0
VERTEX
  5
49A
  8
0
  6
CONTINUOUS
 62
     7
 10
364.5692821431314
 20
311.9468807161518
 30
0.0
  0
SEQEND
  5
60A
  8
0
  6
CONTINUOUS
 62
     7
  0
POLYLINE
  5
19C
  8
0
  6
CONTINUOUS
 62
     7
 66
     1
 10
0.0
 20
0.0
 30
0.0
  0
VERTEX
  5
49B
  8
0
  6
CONTINUOUS
 62
     7
 10
424.5110083993994
 20
259.838733289232
 30
0.0
  0
VERTEX
  5
49C
  8
0
  6
CONTINUOUS
 62
     7
 10
423.208196324108
 20
258.5225119392198
 30
0.0
  0
VERTEX
  5
49D
  8
0
  6
CONTINUOUS
 62
     7
 10
421.8496835814535
 20
257.2726289251962
 30
0.0
  0
VERTEX
  5
49E
  8
0
  6
CONTINUOUS
 62
     7
 10
420.4307178568686
 20
256.0854450024146
 30
0.0
  0
SEQEND
  5
60B
  8
0
  6
CONTINUOUS
 62
     7
  0
POLYLINE
  5
19D
  8
0
  6
CONTINUOUS
 62
     7
 66
     1
 10
0.0
 20
0.0
 30
0.0
  0
VERTEX
  5
49F
  8
0
  6
CONTINUOUS
 62
     7
 10
398.0391767111915
 20
244.2849373468051
 30
0.0
  0
VERTEX
  5
4A0
  8
0
  6
CONTINUOUS
 62
     7
 10
396.1872404160051
 20
244.2754555577191
 30
0.0
  0
VERTEX
  5
4A1
  8
0
  6
CONTINUOUS
 62
     7
 10
394.3428260884398
 20
244.3522683754725
 30
0.0
  0
VERTEX
  5
4A2
  8
0
  6
CONTINUOUS
 62
     7
 10
392.5
 20
244.5161628592832
 30
0.0
  0
SEQEND
  5
60C
  8
0
  6
CONTINUOUS
 62
     7
  0
POLYLINE
  5
19E
  8
0
  6
CONTINUOUS
 62
     7
 66
     1
 10
0.0
 20
0.0
 30
0.0
  0
VERTEX
  5
4A3
  8
0
  6
CONTINUOUS
 62
     7
 10
416.6774295700512
 20
316.0271712586826
 30
0.0
  0
VERTEX
  5
4A4
  8
0
  6
CONTINUOUS
 62
     7
 10
417.9936509200634
 20
314.7243591833911
 30
0.0
  0
VERTEX
  5
4A5
  8
0
  6
CONTINUOUS
 62
     7
 10
419.243533934087
 20
313.3658464407367
 30
0.0
  0
VERTEX
  5
4A6
  8
0
  6
CONTINUOUS
 62
     7
 10
420.4307178568686
 20
311.9468807161518
 30
0.0
  0
SEQEND
  5
60D
  8
0
  6
CONTINUOUS
 62
     7
  0
POLYLINE
  5
19F
  8
0
  6
CONTINUOUS
 62
     7
 66
     1
 10
0.0
 20
0.0
 30
0.0
  0
VERTEX
  5
4A7
  8
0
  6
CONTINUOUS
 62
     7
 10
352.7687744875219
 20
278.4769861480917
 30
0.0
  0
VERTEX
  5
4A8
  8
0
  6
CONTINUOUS
 62
     7
 10
352.759292698436
 20
280.3289224432781
 30
0.0
  0
VERTEX
  5
4A9
  8
0
  6
CONTINUOUS
 62
     7
 10
352.8361055161893
 20
282.1733367708434
 30
0.0
  0
VERTEX
  5
4AA
  8
0
  6
CONTINUOUS
 62
     7
 10
353.0000000000001
 20
284.0161628592832
 30
0.0
  0
SEQEND
  5
60E
  8
0
  6
CONTINUOUS
 62
     7
  0
LINE
  5
1A0
  8
0
  6
CONTINUOUS
 62
     7
 10
395.9192622342643
 20
328.4881753617092
 30
0.0
 11
395.9192622342643
 21
329.0826905677484
 31
0.0
  0
LINE
  5
1A1
  8
0
  6
CONTINUOUS
 62
     7
 10
395.9192622342643
 20
329.0826905677484
 30
0.0
 11
395.9192622342643
 21
329.0857829780447
 31
0.0
  0
LINE
  5
1A2
  8
0
  6
CONTINUOUS
 62
     7
 10
389.0807377657357
 20
329.0857829780435
 30
0.0
 11
389.0807377657357
 21
329.0846217822828
 31
0.0
  0
LINE
  5
1A3
  8
0
  6
CONTINUOUS
 62
     7
 10
389.0807377657357
 20
329.0846217822828
 30
0.0
 11
389.0807377657357
 21
328.4881753617092
 31
0.0
  0
LINE
  5
1A4
  8
0
  6
CONTINUOUS
 62
     7
 10
388.8770166537926
 20
336.6852435386753
 30
0.0
 11
388.6118487371085
 21
336.2816164025887
 31
0.0
  0
LINE
  5
1A5
  8
0
  6
CONTINUOUS
 62
     7
 10
388.6118487371085
 20
336.2816164025887
 30
0.0
 11
388.60288568297
 21
336.2661628592832
 31
0.0
  0
LINE
  5
1A6
  8
0
  6
CONTINUOUS
 62
     7
 10
396.39711431703
 20
336.2661628592832
 30
0.0
 11
396.3878103002764
 21
336.2822014884918
 31
0.0
  0
LINE
  5
1A7
  8
0
  6
CONTINUOUS
 62
     7
 10
396.3878103002764
 20
336.2822014884918
 30
0.0
 11
396.1229833462074
 21
336.6852435386753
 31
0.0
  0
LINE
  5
1A8
  8
0
  6
CONTINUOUS
 62
     7
 10
434.0261015316182
 20
290.0161628592832
 30
0.0
 11
434.5299358879554
 21
290.0161628592832
 31
0.0
  0
LINE
  5
1A9
  8
0
  6
CONTINUOUS
 62
     7
 10
350.9738984683818
 20
278.0161628592832
 30
0.0
 11
350.4700641120446
 21
278.0161628592832
 31
0.0
  0
LINE
  5
1AA
  8
0
  6
CONTINUOUS
 62
     7
 10
350.4700641120446
 20
290.0161628592832
 30
0.0
 11
350.9738984683818
 21
290.0161628592832
 31
0.0
  0
LINE
  5
1AB
  8
0
  6
CONTINUOUS
 62
     7
 10
434.5299358879554
 20
278.0161628592832
 30
0.0
 11
434.0261015316182
 21
278.0161628592832
 31
0.0
  0
LINE
  5
1AC
  8
0
  6
CONTINUOUS
 62
     7
 10
351.0661411387426
 20
278.0166387484923
 30
0.0
 11
351.5008249222882
 21
278.5161628592832
 31
0.0
  0
LINE
  5
1AD
  8
0
  6
CONTINUOUS
 62
     7
 10
433.4991750777119
 20
278.5161628592832
 30
0.0
 11
433.9338588612575
 21
278.0166387484923
 31
0.0
  0
LINE
  5
1AE
  8
0
  6
CONTINUOUS
 62
     7
 10
351.0652478853652
 20
278.0161628592832
 30
0.0
 11
350.9738984683818
 21
278.0161628592832
 31
0.0
  0
LINE
  5
1AF
  8
0
  6
CONTINUOUS
 62
     7
 10
351.0661411387426
 20
278.0166387484923
 30
0.0
 11
351.0652478853652
 21
278.0161628592832
 31
0.0
  0
ARC
  5
1B0
  8
0
  6
CONTINUOUS
 62
     7
 10
389.5807377657357
 20
326.9978784421643
 30
0.0
 40
0.5000000000000193
 50
180.0
 51
273.8854876560306
  0
ARC
  5
1B1
  8
0
  6
CONTINUOUS
 62
     7
 10
392.5
 20
284.0161628592832
 30
0.0
 40
42.58073776573568
 50
86.11451234396947
 51
93.88548765603065
  0
ARC
  5
1B2
  8
0
  6
CONTINUOUS
 62
     7
 10
395.4192622342643
 20
326.9978784421643
 30
0.0
 40
0.5000000000000004
 50
266.1145123439694
 51
0.0
  0
LINE
  5
1B3
  8
0
  6
CONTINUOUS
 62
     7
 10
389.0807377657357
 20
328.4881753617092
 30
0.0
 11
389.0807377657357
 21
326.9978784421643
 31
0.0
  0
LINE
  5
1B4
  8
0
  6
CONTINUOUS
 62
     7
 10
395.9192622342643
 20
326.9978784421643
 30
0.0
 11
395.9192622342643
 21
328.4881753617092
 31
0.0
  0
ARC
  5
1B5
  8
0
  6
CONTINUOUS
 62
     7
 10
392.5
 20
334.0161628592832
 30
0.0
 40
4.500000000000031
 50
141.0575587310186
 51
143.620629791557
  0
ARC
  5
1B6
  8
0
  6
CONTINUOUS
 62
     7
 10
392.5
 20
334.0161628592832
 30
0.0
 40
4.500000000000017
 50
36.37937020844283
 51
38.9424412689815
  0
LINE
  5
1B7
  8
0
  6
CONTINUOUS
 62
     7
 10
387.0
 20
325.9565486668621
 30
0.0
 11
387.0
 21
328.5389372842316
 31
0.0
  0
LINE
  5
1B8
  8
0
  6
CONTINUOUS
 62
     7
 10
351.5008249222882
 20
289.5161628592832
 30
0.0
 11
351.0661411387426
 21
290.0156869700741
 31
0.0
  0
LINE
  5
1B9
  8
0
  6
CONTINUOUS
 62
     7
 10
433.9338588612575
 20
290.0156869700741
 30
0.0
 11
433.4991750777119
 21
289.5161628592832
 31
0.0
  0
LINE
  5
1BA
  8
0
  6
CONTINUOUS
 62
     7
 10
434.0261015316182
 20
278.0161628592832
 30
0.0
 11
433.9347521146348
 21
278.0161628592832
 31
0.0
  0
LINE
  5
1BB
  8
0
  6
CONTINUOUS
 62
     7
 10
433.9347521146348
 20
278.0161628592832
 30
0.0
 11
433.9338588612575
 21
278.0166387484923
 31
0.0
  0
LINE
  5
1BC
  8
0
  6
CONTINUOUS
 62
     7
 10
433.9347521146348
 20
290.0161628592832
 30
0.0
 11
434.0261015316182
 21
290.0161628592832
 31
0.0
  0
LINE
  5
1BD
  8
0
  6
CONTINUOUS
 62
     7
 10
433.9338588612575
 20
290.0156869700741
 30
0.0
 11
433.9347521146348
 21
290.0161628592832
 31
0.0
  0
LINE
  5
1BE
  8
0
  6
CONTINUOUS
 62
     7
 10
350.9738984683818
 20
290.0161628592832
 30
0.0
 11
351.0652478853652
 21
290.0161628592832
 31
0.0
  0
LINE
  5
1BF
  8
0
  6
CONTINUOUS
 62
     7
 10
351.0652478853652
 20
290.0161628592832
 30
0.0
 11
351.0661411387426
 21
290.0156869700741
 31
0.0
  0
LINE
  5
1C0
  8
0
  6
CONTINUOUS
 62
     7
 10
398.0
 20
328.5389372842316
 30
0.0
 11
398.0
 21
325.9565486668621
 31
0.0
  0
ARC
  5
1C1
  8
0
  6
CONTINUOUS
 62
     7
 10
392.5
 20
334.0161628592832
 30
0.0
 40
7.500000000000023
 50
319.8808331015948
 51
41.40962210927091
  0
ARC
  5
1C2
  8
0
  6
CONTINUOUS
 62
     7
 10
397.0
 20
337.9847898258801
 30
0.0
 40
1.500000000000001
 50
41.40962210927091
 51
180.0
  0
LINE
  5
1C3
  8
0
  6
CONTINUOUS
 62
     7
 10
389.5
 20
337.9847898258801
 30
0.0
 11
389.5
 21
337.3702648255329
 31
0.0
  0
LINE
  5
1C4
  8
0
  6
CONTINUOUS
 62
     7
 10
389.5
 20
337.3702648255329
 30
0.0
 11
389.0
 21
336.8445899840294
 31
0.0
  0
ARC
  5
1C5
  8
0
  6
CONTINUOUS
 62
     7
 10
388.0
 20
337.9847898258801
 30
0.0
 40
1.500000000000018
 50
0.0
 51
138.5903778907291
  0
ARC
  5
1C6
  8
0
  6
CONTINUOUS
 62
     7
 10
392.5
 20
334.0161628592832
 30
0.0
 40
7.500000000000012
 50
138.5903778907291
 51
220.1191668984052
  0
ARC
  5
1C7
  8
0
  6
CONTINUOUS
 62
     7
 10
386.0
 20
328.5389372842316
 30
0.0
 40
1.000000000000001
 50
0.0
 51
40.11916689840533
  0
LINE
  5
1C8
  8
0
  6
CONTINUOUS
 62
     7
 10
395.5
 20
337.3702648255329
 30
0.0
 11
395.5
 21
337.9847898258801
 31
0.0
  0
LINE
  5
1C9
  8
0
  6
CONTINUOUS
 62
     7
 10
396.0
 20
336.8445899840294
 30
0.0
 11
395.5
 21
337.3702648255329
 31
0.0
  0
ARC
  5
1CA
  8
0
  6
CONTINUOUS
 62
     7
 10
399.0
 20
328.5389372842316
 30
0.0
 40
0.9999999999999831
 50
139.8808331015947
 51
180.0
  0
POLYLINE
  5
1CB
  8
0
  6
CONTINUOUS
 62
     7
 66
     1
 10
0.0
 20
0.0
 30
0.0
  0
VERTEX
  5
4AB
  8
0
  6
CONTINUOUS
 62
     7
 10
398.0
 20
326.551888893778
 30
0.0
  0
VERTEX
  5
4AC
  8
0
  6
CONTINUOUS
 62
     7
 10
398.0004287954558
 20
326.5311658413902
 30
0.0
  0
VERTEX
  5
4AD
  8
0
  6
CONTINUOUS
 62
     7
 10
398.0017203806451
 20
326.5104068499664
 30
0.0
  0
VERTEX
  5
4AE
  8
0
  6
CONTINUOUS
 62
     7
 10
398.0038770122854
 20
326.489683672492
 30
0.0
  0
VERTEX
  5
4AF
  8
0
  6
CONTINUOUS
 62
     7
 10
398.0069368892745
 20
326.4688096422129
 30
0.0
  0
VERTEX
  5
4B0
  8
0
  6
CONTINUOUS
 62
     7
 10
398.010880764544
 20
326.4480462349179
 30
0.0
  0
VERTEX
  5
4B1
  8
0
  6
CONTINUOUS
 62
     7
 10
398.0157635696261
 20
326.4272083257641
 30
0.0
  0
VERTEX
  5
4B2
  8
0
  6
CONTINUOUS
 62
     7
 10
398.0215434788018
 20
326.4065605070854
 30
0.0
  0
VERTEX
  5
4B3
  8
0
  6
CONTINUOUS
 62
     7
 10
398.0282279594655
 20
326.3861044746761
 30
0.0
  0
VERTEX
  5
4B4
  8
0
  6
CONTINUOUS
 62
     7
 10
398.0336054968891
 20
326.3715025042738
 30
0.0
  0
VERTEX
  5
4B5
  8
0
  6
CONTINUOUS
 62
     7
 10
398.0394339990846
 20
326.3570746145789
 30
0.0
  0
VERTEX
  5
4B6
  8
0
  6
CONTINUOUS
 62
     7
 10
398.0457333455415
 20
326.3427798406945
 30
0.0
  0
VERTEX
  5
4B7
  8
0
  6
CONTINUOUS
 62
     7
 10
398.0524754287813
 20
326.3286884735195
 30
0.0
  0
VERTEX
  5
4B8
  8
0
  6
CONTINUOUS
 62
     7
 10
398.0622727591395
 20
326.3100038087084
 30
0.0
  0
VERTEX
  5
4B9
  8
0
  6
CONTINUOUS
 62
     7
 10
398.0728681467028
 20
326.2917163981969
 30
0.0
  0
VERTEX
  5
4BA
  8
0
  6
CONTINUOUS
 62
     7
 10
398.0843749104421
 20
326.2736695805286
 30
0.0
  0
VERTEX
  5
4BB
  8
0
  6
CONTINUOUS
 62
     7
 10
398.0966658816742
 20
326.2560995086551
 30
0.0
  0
VERTEX
  5
4BC
  8
0
  6
CONTINUOUS
 62
     7
 10
398.1097476001283
 20
326.2390102919131
 30
0.0
  0
VERTEX
  5
4BD
  8
0
  6
CONTINUOUS
 62
     7
 10
398.1196528290963
 20
326.2270185099275
 30
0.0
  0
VERTEX
  5
4BE
  8
0
  6
CONTINUOUS
 62
     7
 10
398.1299259049652
 20
326.2153403125341
 30
0.0
  0
VERTEX
  5
4BF
  8
0
  6
CONTINUOUS
 62
     7
 10
398.1405991754918
 20
326.2039436270341
 30
0.0
  0
VERTEX
  5
4C0
  8
0
  6
CONTINUOUS
 62
     7
 10
398.1516228294388
 20
326.1928854995527
 30
0.0
  0
VERTEX
  5
4C1
  8
0
  6
CONTINUOUS
 62
     7
 10
398.1670490523829
 20
326.1785067962302
 30
0.0
  0
VERTEX
  5
4C2
  8
0
  6
CONTINUOUS
 62
     7
 10
398.1830967591202
 20
326.1647672905075
 30
0.0
  0
VERTEX
  5
4C3
  8
0
  6
CONTINUOUS
 62
     7
 10
398.1999248670505
 20
326.1515566563989
 30
0.0
  0
VERTEX
  5
4C4
  8
0
  6
CONTINUOUS
 62
     7
 10
398.2173350599954
 20
326.1390557039904
 30
0.0
  0
VERTEX
  5
4C5
  8
0
  6
CONTINUOUS
 62
     7
 10
398.2353321532628
 20
326.127270485045
 30
0.0
  0
VERTEX
  5
4C6
  8
0
  6
CONTINUOUS
 62
     7
 10
398.2531928821408
 20
326.1166261200198
 30
0.0
  0
VERTEX
  5
4C7
  8
0
  6
CONTINUOUS
 62
     7
 10
398.2714806363581
 20
326.1067333885112
 30
0.0
  0
VERTEX
  5
4C8
  8
0
  6
CONTINUOUS
 62
     7
 10
398.2902964225563
 20
326.0975489647386
 30
0.0
  0
VERTEX
  5
4C9
  8
0
  6
CONTINUOUS
 62
     7
 10
398.3094802342324
 20
326.0891603550658
 30
0.0
  0
VERTEX
  5
4CA
  8
0
  6
CONTINUOUS
 62
     7
 10
398.3242853922631
 20
326.0833269067156
 30
0.0
  0
VERTEX
  5
4CB
  8
0
  6
CONTINUOUS
 62
     7
 10
398.3392687440704
 20
326.0779677106808
 30
0.0
  0
VERTEX
  5
4CC
  8
0
  6
CONTINUOUS
 62
     7
 10
398.3544773968865
 20
326.0730695265092
 30
0.0
  0
VERTEX
  5
4CD
  8
0
  6
CONTINUOUS
 62
     7
 10
398.3698348560089
 20
326.0686600175867
 30
0.0
  0
VERTEX
  5
4CE
  8
0
  6
CONTINUOUS
 62
     7
 10
398.390700611468
 20
326.0635074141814
 30
0.0
  0
VERTEX
  5
4CF
  8
0
  6
CONTINUOUS
 62
     7
 10
398.4103754898518
 20
326.0595090786156
 30
0.0
  0
VERTEX
  5
4D0
  8
0
  6
CONTINUOUS
 62
     7
 10
398.4302273439826
 20
326.0562999877393
 30
0.0
  0
SEQEND
  5
60F
  8
0
  6
CONTINUOUS
 62
     7
  0
POLYLINE
  5
1CC
  8
0
  6
CONTINUOUS
 62
     7
 66
     1
 10
0.0
 20
0.0
 30
0.0
  0
VERTEX
  5
4D1
  8
0
  6
CONTINUOUS
 62
     7
 10
386.5697726560175
 20
326.0562999877393
 30
0.0
  0
VERTEX
  5
4D2
  8
0
  6
CONTINUOUS
 62
     7
 10
386.5901878097119
 20
326.059612145137
 30
0.0
  0
VERTEX
  5
4D3
  8
0
  6
CONTINUOUS
 62
     7
 10
386.6105181890648
 20
326.0637823122285
 30
0.0
  0
VERTEX
  5
4D4
  8
0
  6
CONTINUOUS
 62
     7
 10
386.6306925083865
 20
326.0688026568722
 30
0.0
  0
VERTEX
  5
4D5
  8
0
  6
CONTINUOUS
 62
     7
 10
386.6508900425887
 20
326.0747369454052
 30
0.0
  0
VERTEX
  5
4D6
  8
0
  6
CONTINUOUS
 62
     7
 10
386.6708549147558
 20
326.0815295672232
 30
0.0
  0
VERTEX
  5
4D7
  8
0
  6
CONTINUOUS
 62
     7
 10
386.6907625386921
 20
326.0892605812496
 30
0.0
  0
VERTEX
  5
4D8
  8
0
  6
CONTINUOUS
 62
     7
 10
386.7103571710884
 20
326.0978515812009
 30
0.0
  0
VERTEX
  5
4D9
  8
0
  6
CONTINUOUS
 62
     7
 10
386.7296361494807
 20
326.1073095785784
 30
0.0
  0
VERTEX
  5
4DA
  8
0
  6
CONTINUOUS
 62
     7
 10
386.7478840396779
 20
326.1172397210219
 30
0.0
  0
VERTEX
  5
4DB
  8
0
  6
CONTINUOUS
 62
     7
 10
386.7657037536858
 20
326.1279191905797
 30
0.0
  0
VERTEX
  5
4DC
  8
0
  6
CONTINUOUS
 62
     7
 10
386.7831839018209
 20
326.1394124389515
 30
0.0
  0
VERTEX
  5
4DD
  8
0
  6
CONTINUOUS
 62
     7
 10
386.8001681817007
 20
326.151626555047
 30
0.0
  0
VERTEX
  5
4DE
  8
0
  6
CONTINUOUS
 62
     7
 10
386.8127254165196
 20
326.161378120709
 30
0.0
  0
VERTEX
  5
4DF
  8
0
  6
CONTINUOUS
 62
     7
 10
386.8249663990219
 20
326.1715238361556
 30
0.0
  0
VERTEX
  5
4E0
  8
0
  6
CONTINUOUS
 62
     7
 10
386.8369264376056
 20
326.1820972533253
 30
0.0
  0
VERTEX
  5
4E1
  8
0
  6
CONTINUOUS
 62
     7
 10
386.8485430543074
 20
326.1930468608972
 30
0.0
  0
VERTEX
  5
4E2
  8
0
  6
CONTINUOUS
 62
     7
 10
386.8636065028716
 20
326.2083494928669
 30
0.0
  0
VERTEX
  5
4E3
  8
0
  6
CONTINUOUS
 62
     7
 10
386.8740880249919
 20
326.2198165111263
 30
0.0
  0
VERTEX
  5
4E4
  8
0
  6
CONTINUOUS
 62
     7
 10
386.8842085668469
 20
326.2316033453155
 30
0.0
  0
VERTEX
  5
4E5
  8
0
  6
CONTINUOUS
 62
     7
 10
386.893995346438
 20
326.24374630342
 30
0.0
  0
VERTEX
  5
4E6
  8
0
  6
CONTINUOUS
 62
     7
 10
386.9033990697912
 20
326.2561882681867
 30
0.0
  0
VERTEX
  5
4E7
  8
0
  6
CONTINUOUS
 62
     7
 10
386.9154751395552
 20
326.2734452692492
 30
0.0
  0
VERTEX
  5
4E8
  8
0
  6
CONTINUOUS
 62
     7
 10
386.9268339560458
 20
326.2912270129451
 30
0.0
  0
VERTEX
  5
4E9
  8
0
  6
CONTINUOUS
 62
     7
 10
386.9375624276314
 20
326.3097052152074
 30
0.0
  0
VERTEX
  5
4EA
  8
0
  6
CONTINUOUS
 62
     7
 10
386.9475100663329
 20
326.3286593365522
 30
0.0
  0
VERTEX
  5
4EB
  8
0
  6
CONTINUOUS
 62
     7
 10
386.9566704458387
 20
326.348093173963
 30
0.0
  0
VERTEX
  5
4EC
  8
0
  6
CONTINUOUS
 62
     7
 10
386.9627759441814
 20
326.3623947128268
 30
0.0
  0
VERTEX
  5
4ED
  8
0
  6
CONTINUOUS
 62
     7
 10
386.9684345524936
 20
326.3768788864554
 30
0.0
  0
VERTEX
  5
4EE
  8
0
  6
CONTINUOUS
 62
     7
 10
386.9736599537114
 20
326.3915890161081
 30
0.0
  0
VERTEX
  5
4EF
  8
0
  6
CONTINUOUS
 62
     7
 10
386.9784244690248
 20
326.406454820318
 30
0.0
  0
VERTEX
  5
4F0
  8
0
  6
CONTINUOUS
 62
     7
 10
386.9841193910685
 20
326.4267537664904
 30
0.0
  0
VERTEX
  5
4F1
  8
0
  6
CONTINUOUS
 62
     7
 10
386.9889628749978
 20
326.4473110352212
 30
0.0
  0
VERTEX
  5
4F2
  8
0
  6
CONTINUOUS
 62
     7
 10
386.9929801305457
 20
326.4683177075645
 30
0.0
  0
VERTEX
  5
4F3
  8
0
  6
CONTINUOUS
 62
     7
 10
386.9961019173763
 20
326.489515528339
 30
0.0
  0
VERTEX
  5
4F4
  8
0
  6
CONTINUOUS
 62
     7
 10
386.9983208393934
 20
326.5109059682894
 30
0.0
  0
VERTEX
  5
4F5
  8
0
  6
CONTINUOUS
 62
     7
 10
386.9995793301287
 20
326.5313630458345
 30
0.0
  0
VERTEX
  5
4F6
  8
0
  6
CONTINUOUS
 62
     7
 10
387.0
 20
326.551888893778
 30
0.0
  0
SEQEND
  5
610
  8
0
  6
CONTINUOUS
 62
     7
  0
ARC
  5
1CD
  8
0
  6
CONTINUOUS
 62
     7
 10
392.5
 20
284.0161628592832
 30
0.0
 40
42.45633905709151
 50
188.124331802145
 51
351.8756681978549
  0
ARC
  5
1CE
  8
0
  6
CONTINUOUS
 62
     7
 10
392.5
 20
284.0161628592832
 30
0.0
 40
42.45633905709148
 50
8.124331802145036
 51
81.97077132766026
  0
ARC
  5
1CF
  8
0
  6
CONTINUOUS
 62
     7
 10
392.5
 20
284.0161628592832
 30
0.0
 40
42.45633905709151
 50
98.02922867233968
 51
171.8756681978549
  0
ARC
  5
1D0
  8
0
  6
CONTINUOUS
 62
     7
 10
392.5
 20
284.0161628592832
 30
0.0
 40
43.45729174225483
 50
7.35592570326702
 51
82.72908723764432
  0
ARC
  5
1D1
  8
0
  6
CONTINUOUS
 62
     7
 10
392.5
 20
284.0161628592832
 30
0.0
 40
43.50095268516333
 50
7.348415715518684
 51
82.73642425955643
  0
ARC
  5
1D2
  8
0
  6
CONTINUOUS
 62
     7
 10
392.5
 20
284.0161628592832
 30
0.0
 40
43.74204010295091
 50
352.6927776851053
 51
7.307222314894715
  0
ARC
  5
1D3
  8
0
  6
CONTINUOUS
 62
     7
 10
392.5
 20
284.0161628592832
 30
0.0
 40
43.50095268516333
 50
187.3484157155187
 51
352.6515842844812
  0
ARC
  5
1D4
  8
0
  6
CONTINUOUS
 62
     7
 10
392.5
 20
284.0161628592832
 30
0.0
 40
43.74204010295091
 50
172.6927776851053
 51
187.3072223148947
  0
ARC
  5
1D5
  8
0
  6
CONTINUOUS
 62
     7
 10
392.5
 20
284.0161628592832
 30
0.0
 40
43.50095268516333
 50
97.26357574044359
 51
172.6515842844813
  0
POLYLINE
  5
1D6
  8
0
  6
CONTINUOUS
 62
     7
 66
     1
 10
0.0
 20
0.0
 30
0.0
  0
VERTEX
  5
4F7
  8
0
  6
CONTINUOUS
 62
     7
 10
349.8966474771304
 20
290.0161628592832
 30
0.0
  0
VERTEX
  5
4F8
  8
0
  6
CONTINUOUS
 62
     7
 10
349.8846589365804
 20
290.016020616796
 30
0.0
  0
VERTEX
  5
4F9
  8
0
  6
CONTINUOUS
 62
     7
 10
349.8727082346213
 20
290.0155962448183
 30
0.0
  0
VERTEX
  5
4FA
  8
0
  6
CONTINUOUS
 62
     7
 10
349.8607568958638
 20
290.0148896407325
 30
0.0
  0
VERTEX
  5
4FB
  8
0
  6
CONTINUOUS
 62
     7
 10
349.8488678896128
 20
290.0139065908841
 30
0.0
  0
VERTEX
  5
4FC
  8
0
  6
CONTINUOUS
 62
     7
 10
349.8370048742668
 20
290.0126462271419
 30
0.0
  0
VERTEX
  5
4FD
  8
0
  6
CONTINUOUS
 62
     7
 10
349.8252265636988
 20
290.0111176242689
 30
0.0
  0
VERTEX
  5
4FE
  8
0
  6
CONTINUOUS
 62
     7
 10
349.8134980176791
 20
290.0093191174601
 30
0.0
  0
VERTEX
  5
4FF
  8
0
  6
CONTINUOUS
 62
     7
 10
349.801874048639
 20
290.0072625745386
 30
0.0
  0
VERTEX
  5
500
  8
0
  6
CONTINUOUS
 62
     7
 10
349.790186462598
 20
290.0049169169835
 30
0.0
  0
VERTEX
  5
501
  8
0
  6
CONTINUOUS
 62
     7
 10
349.7786235917984
 20
290.0023191832806
 30
0.0
  0
VERTEX
  5
502
  8
0
  6
CONTINUOUS
 62
     7
 10
349.7671537905031
 20
289.9994664098889
 30
0.0
  0
VERTEX
  5
503
  8
0
  6
CONTINUOUS
 62
     7
 10
349.755823629311
 20
289.9963747250528
 30
0.0
  0
VERTEX
  5
504
  8
0
  6
CONTINUOUS
 62
     7
 10
349.7450128072066
 20
289.9931670450888
 30
0.0
  0
VERTEX
  5
505
  8
0
  6
CONTINUOUS
 62
     7
 10
349.7343427039258
 20
289.9897501573814
 30
0.0
  0
VERTEX
  5
506
  8
0
  6
CONTINUOUS
 62
     7
 10
349.7133850048008
 20
289.9822945337777
 30
0.0
  0
VERTEX
  5
507
  8
0
  6
CONTINUOUS
 62
     7
 10
349.6930346942138
 20
289.9740775353855
 30
0.0
  0
VERTEX
  5
508
  8
0
  6
CONTINUOUS
 62
     7
 10
349.6732703855984
 20
289.9651309692989
 30
0.0
  0
VERTEX
  5
509
  8
0
  6
CONTINUOUS
 62
     7
 10
349.653936682154
 20
289.9554082203144
 30
0.0
  0
VERTEX
  5
50A
  8
0
  6
CONTINUOUS
 62
     7
 10
349.6352386811693
 20
289.9450363898862
 30
0.0
  0
VERTEX
  5
50B
  8
0
  6
CONTINUOUS
 62
     7
 10
349.6222046449605
 20
289.9372090961044
 30
0.0
  0
VERTEX
  5
50C
  8
0
  6
CONTINUOUS
 62
     7
 10
349.609523009424
 20
289.9290952682707
 30
0.0
  0
VERTEX
  5
50D
  8
0
  6
CONTINUOUS
 62
     7
 10
349.5971534238487
 20
289.92068185412
 30
0.0
  0
VERTEX
  5
50E
  8
0
  6
CONTINUOUS
 62
     7
 10
349.5851378692515
 20
289.9120099628336
 30
0.0
  0
VERTEX
  5
50F
  8
0
  6
CONTINUOUS
 62
     7
 10
349.5639336400192
 20
289.8954103515603
 30
0.0
  0
VERTEX
  5
510
  8
0
  6
CONTINUOUS
 62
     7
 10
349.5438708531664
 20
289.8780197538167
 30
0.0
  0
VERTEX
  5
511
  8
0
  6
CONTINUOUS
 62
     7
 10
349.5265780753421
 20
289.8615407957734
 30
0.0
  0
VERTEX
  5
512
  8
0
  6
CONTINUOUS
 62
     7
 10
349.5102300241467
 20
289.8445148403695
 30
0.0
  0
VERTEX
  5
513
  8
0
  6
CONTINUOUS
 62
     7
 10
349.4953352253993
 20
289.8275973340417
 30
0.0
  0
VERTEX
  5
514
  8
0
  6
CONTINUOUS
 62
     7
 10
349.4774095807729
 20
289.8051486891175
 30
0.0
  0
VERTEX
  5
515
  8
0
  6
CONTINUOUS
 62
     7
 10
349.460870180725
 20
289.7819857208506
 30
0.0
  0
VERTEX
  5
516
  8
0
  6
CONTINUOUS
 62
     7
 10
349.4457531633412
 20
289.7582291480747
 30
0.0
  0
VERTEX
  5
517
  8
0
  6
CONTINUOUS
 62
     7
 10
349.431970141686
 20
289.7337892036328
 30
0.0
  0
VERTEX
  5
518
  8
0
  6
CONTINUOUS
 62
     7
 10
349.4196092798705
 20
289.7088631044344
 30
0.0
  0
VERTEX
  5
519
  8
0
  6
CONTINUOUS
 62
     7
 10
349.4086037017664
 20
289.683347789835
 30
0.0
  0
VERTEX
  5
51A
  8
0
  6
CONTINUOUS
 62
     7
 10
349.3990293097065
 20
289.6574392753995
 30
0.0
  0
VERTEX
  5
51B
  8
0
  6
CONTINUOUS
 62
     7
 10
349.3908684336327
 20
289.6311173661417
 30
0.0
  0
VERTEX
  5
51C
  8
0
  6
CONTINUOUS
 62
     7
 10
349.3847852032091
 20
289.6072857918529
 30
0.0
  0
VERTEX
  5
51D
  8
0
  6
CONTINUOUS
 62
     7
 10
349.3798649676168
 20
289.5832407397534
 30
0.0
  0
VERTEX
  5
51E
  8
0
  6
CONTINUOUS
 62
     7
 10
349.3793087874673
 20
289.5800872234335
 30
0.0
  0
SEQEND
  5
611
  8
0
  6
CONTINUOUS
 62
     7
  0
LINE
  5
1D7
  8
0
  6
CONTINUOUS
 62
     7
 10
349.8966474771304
 20
290.0161628592832
 30
0.0
 11
350.4700641120446
 21
290.0161628592832
 31
0.0
  0
POLYLINE
  5
1D8
  8
0
  6
CONTINUOUS
 62
     7
 66
     1
 10
0.0
 20
0.0
 30
0.0
  0
VERTEX
  5
51F
  8
0
  6
CONTINUOUS
 62
     7
 10
349.3793087874673
 20
278.452238495133
 30
0.0
  0
VERTEX
  5
520
  8
0
  6
CONTINUOUS
 62
     7
 10
349.3798649676168
 20
278.4490849788131
 30
0.0
  0
VERTEX
  5
521
  8
0
  6
CONTINUOUS
 62
     7
 10
349.38477865031
 20
278.4250684428331
 30
0.0
  0
VERTEX
  5
522
  8
0
  6
CONTINUOUS
 62
     7
 10
349.3908684336327
 20
278.4012083524248
 30
0.0
  0
VERTEX
  5
523
  8
0
  6
CONTINUOUS
 62
     7
 10
349.398786862658
 20
278.3756021817989
 30
0.0
  0
VERTEX
  5
524
  8
0
  6
CONTINUOUS
 62
     7
 10
349.4081189334175
 20
278.3501940515228
 30
0.0
  0
VERTEX
  5
525
  8
0
  6
CONTINUOUS
 62
     7
 10
349.4188604789947
 20
278.3250862703063
 30
0.0
  0
VERTEX
  5
526
  8
0
  6
CONTINUOUS
 62
     7
 10
349.4311007776801
 20
278.3001858737316
 30
0.0
  0
VERTEX
  5
527
  8
0
  6
CONTINUOUS
 62
     7
 10
349.4448041994552
 20
278.2756856662292
 30
0.0
  0
VERTEX
  5
528
  8
0
  6
CONTINUOUS
 62
     7
 10
349.4600863913403
 20
278.2515056550375
 30
0.0
  0
VERTEX
  5
529
  8
0
  6
CONTINUOUS
 62
     7
 10
349.4769036828662
 20
278.2278479553927
 30
0.0
  0
VERTEX
  5
52A
  8
0
  6
CONTINUOUS
 62
     7
 10
349.4953352253993
 20
278.2047283845247
 30
0.0
  0
VERTEX
  5
52B
  8
0
  6
CONTINUOUS
 62
     7
 10
349.5136791463103
 20
278.184091776621
 30
0.0
  0
VERTEX
  5
52C
  8
0
  6
CONTINUOUS
 62
     7
 10
349.5334130996972
 20
278.1640947000638
 30
0.0
  0
VERTEX
  5
52D
  8
0
  6
CONTINUOUS
 62
     7
 10
349.552774609366
 20
278.1463724255412
 30
0.0
  0
VERTEX
  5
52E
  8
0
  6
CONTINUOUS
 62
     7
 10
349.5733574541048
 20
278.1293249724166
 30
0.0
  0
VERTEX
  5
52F
  8
0
  6
CONTINUOUS
 62
     7
 10
349.5931906903764
 20
278.1144480476742
 30
0.0
  0
VERTEX
  5
530
  8
0
  6
CONTINUOUS
 62
     7
 10
349.6140721603654
 20
278.1002617018022
 30
0.0
  0
VERTEX
  5
531
  8
0
  6
CONTINUOUS
 62
     7
 10
349.6352386811693
 20
278.0872893286802
 30
0.0
  0
VERTEX
  5
532
  8
0
  6
CONTINUOUS
 62
     7
 10
349.6536071611299
 20
278.0770918628677
 30
0.0
  0
VERTEX
  5
533
  8
0
  6
CONTINUOUS
 62
     7
 10
349.6726630052245
 20
278.0674853002878
 30
0.0
  0
VERTEX
  5
534
  8
0
  6
CONTINUOUS
 62
     7
 10
349.6923510293159
 20
278.0585414788972
 30
0.0
  0
VERTEX
  5
535
  8
0
  6
CONTINUOUS
 62
     7
 10
349.7127154166958
 20
278.0502859903038
 30
0.0
  0
VERTEX
  5
536
  8
0
  6
CONTINUOUS
 62
     7
 10
349.7339397114921
 20
278.042709559557
 30
0.0
  0
VERTEX
  5
537
  8
0
  6
CONTINUOUS
 62
     7
 10
349.7448085676476
 20
278.0392217240608
 30
0.0
  0
VERTEX
  5
538
  8
0
  6
CONTINUOUS
 62
     7
 10
349.755823629311
 20
278.0359509935136
 30
0.0
  0
VERTEX
  5
539
  8
0
  6
CONTINUOUS
 62
     7
 10
349.766822347101
 20
278.0329458651406
 30
0.0
  0
VERTEX
  5
53A
  8
0
  6
CONTINUOUS
 62
     7
 10
349.7779528825747
 20
278.0301657520448
 30
0.0
  0
VERTEX
  5
53B
  8
0
  6
CONTINUOUS
 62
     7
 10
349.7892454704818
 20
278.0276098561255
 30
0.0
  0
VERTEX
  5
53C
  8
0
  6
CONTINUOUS
 62
     7
 10
349.8006577977185
 20
278.0252942034119
 30
0.0
  0
VERTEX
  5
53D
  8
0
  6
CONTINUOUS
 62
     7
 10
349.8122176265929
 20
278.0232197158169
 30
0.0
  0
VERTEX
  5
53E
  8
0
  6
CONTINUOUS
 62
     7
 10
349.8238820530965
 20
278.0214002356756
 30
0.0
  0
VERTEX
  5
53F
  8
0
  6
CONTINUOUS
 62
     7
 10
349.8356868013628
 20
278.0198367986644
 30
0.0
  0
VERTEX
  5
540
  8
0
  6
CONTINUOUS
 62
     7
 10
349.8475779281062
 20
278.018542631247
 30
0.0
  0
VERTEX
  5
541
  8
0
  6
CONTINUOUS
 62
     7
 10
349.8597311829077
 20
278.0175098736142
 30
0.0
  0
VERTEX
  5
542
  8
0
  6
CONTINUOUS
 62
     7
 10
349.8719506723158
 20
278.0167658848976
 30
0.0
  0
VERTEX
  5
543
  8
0
  6
CONTINUOUS
 62
     7
 10
349.8842787262449
 20
278.016314267168
 30
0.0
  0
VERTEX
  5
544
  8
0
  6
CONTINUOUS
 62
     7
 10
349.8966474771304
 20
278.0161628592832
 30
0.0
  0
SEQEND
  5
612
  8
0
  6
CONTINUOUS
 62
     7
  0
LINE
  5
1D9
  8
0
  6
CONTINUOUS
 62
     7
 10
350.4700641120446
 20
278.0161628592832
 30
0.0
 11
349.8966474771304
 21
278.0161628592832
 31
0.0
  0
POLYLINE
  5
1DA
  8
0
  6
CONTINUOUS
 62
     7
 66
     1
 10
0.0
 20
0.0
 30
0.0
  0
VERTEX
  5
545
  8
0
  6
CONTINUOUS
 62
     7
 10
435.1032626600546
 20
290.0161628592832
 30
0.0
  0
VERTEX
  5
546
  8
0
  6
CONTINUOUS
 62
     7
 10
435.1239856008708
 20
290.0157340658096
 30
0.0
  0
VERTEX
  5
547
  8
0
  6
CONTINUOUS
 62
     7
 10
435.144744480581
 20
290.0144424865966
 30
0.0
  0
VERTEX
  5
548
  8
0
  6
CONTINUOUS
 62
     7
 10
435.1654675464819
 20
290.0122858649748
 30
0.0
  0
VERTEX
  5
549
  8
0
  6
CONTINUOUS
 62
     7
 10
435.1863414645355
 20
290.0092260022499
 30
0.0
  0
VERTEX
  5
54A
  8
0
  6
CONTINUOUS
 62
     7
 10
435.2071047600596
 20
290.0052821455225
 30
0.0
  0
VERTEX
  5
54B
  8
0
  6
CONTINUOUS
 62
     7
 10
435.2279425571038
 20
290.0003993635947
 30
0.0
  0
VERTEX
  5
54C
  8
0
  6
CONTINUOUS
 62
     7
 10
435.2485902645253
 20
289.9946194821907
 30
0.0
  0
VERTEX
  5
54D
  8
0
  6
CONTINUOUS
 62
     7
 10
435.2690461865846
 20
289.9879350341347
 30
0.0
  0
VERTEX
  5
54E
  8
0
  6
CONTINUOUS
 62
     7
 10
435.2836480775708
 20
289.9825575235548
 30
0.0
  0
VERTEX
  5
54F
  8
0
  6
CONTINUOUS
 62
     7
 10
435.2980758888015
 20
289.976729050852
 30
0.0
  0
VERTEX
  5
550
  8
0
  6
CONTINUOUS
 62
     7
 10
435.3123705849355
 20
289.9704297367533
 30
0.0
  0
VERTEX
  5
551
  8
0
  6
CONTINUOUS
 62
     7
 10
435.3264618755873
 20
289.9636876886548
 30
0.0
  0
VERTEX
  5
552
  8
0
  6
CONTINUOUS
 62
     7
 10
435.3451464387051
 20
289.9538904105735
 30
0.0
  0
VERTEX
  5
553
  8
0
  6
CONTINUOUS
 62
     7
 10
435.3634337501902
 20
289.943295080784
 30
0.0
  0
VERTEX
  5
554
  8
0
  6
CONTINUOUS
 62
     7
 10
435.3814804703694
 20
289.9317883815494
 30
0.0
  0
VERTEX
  5
555
  8
0
  6
CONTINUOUS
 62
     7
 10
435.3990504484344
 20
289.9194974807852
 30
0.0
  0
VERTEX
  5
556
  8
0
  6
CONTINUOUS
 62
     7
 10
435.4161395752911
 20
289.9064158391244
 30
0.0
  0
VERTEX
  5
557
  8
0
  6
CONTINUOUS
 62
     7
 10
435.4281313136599
 20
289.8965106538194
 30
0.0
  0
VERTEX
  5
558
  8
0
  6
CONTINUOUS
 62
     7
 10
435.4398094693544
 20
289.8862376235592
 30
0.0
  0
VERTEX
  5
559
  8
0
  6
CONTINUOUS
 62
     7
 10
435.4512061149288
 20
289.8755644009631
 30
0.0
  0
VERTEX
  5
55A
  8
0
  6
CONTINUOUS
 62
     7
 10
435.4622642047825
 20
289.8645407969525
 30
0.0
  0
VERTEX
  5
55B
  8
0
  6
CONTINUOUS
 62
     7
 10
435.4766428603009
 20
289.8491146457183
 30
0.0
  0
VERTEX
  5
55C
  8
0
  6
CONTINUOUS
 62
     7
 10
435.4903823231115
 20
289.8330670146985
 30
0.0
  0
VERTEX
  5
55D
  8
0
  6
CONTINUOUS
 62
     7
 10
435.5035929185275
 20
289.8162389884459
 30
0.0
  0
VERTEX
  5
55E
  8
0
  6
CONTINUOUS
 62
     7
 10
435.5160938384304
 20
289.7988288812354
 30
0.0
  0
VERTEX
  5
55F
  8
0
  6
CONTINUOUS
 62
     7
 10
435.527879031436
 20
289.7808318780341
 30
0.0
  0
VERTEX
  5
560
  8
0
  6
CONTINUOUS
 62
     7
 10
435.5385234106673
 20
289.762971182863
 30
0.0
  0
VERTEX
  5
561
  8
0
  6
CONTINUOUS
 62
     7
 10
435.5484161591942
 20
289.7446834624983
 30
0.0
  0
VERTEX
  5
562
  8
0
  6
CONTINUOUS
 62
     7
 10
435.5576006029775
 20
289.7258677110536
 30
0.0
  0
VERTEX
  5
563
  8
0
  6
CONTINUOUS
 62
     7
 10
435.5659892361267
 20
289.7066839341457
 30
0.0
  0
VERTEX
  5
564
  8
0
  6
CONTINUOUS
 62
     7
 10
435.5718227044006
 20
289.6918788035433
 30
0.0
  0
VERTEX
  5
565
  8
0
  6
CONTINUOUS
 62
     7
 10
435.5771819226919
 20
289.6768954790406
 30
0.0
  0
VERTEX
  5
566
  8
0
  6
CONTINUOUS
 62
     7
 10
435.58208013154
 20
289.6616868538288
 30
0.0
  0
VERTEX
  5
567
  8
0
  6
CONTINUOUS
 62
     7
 10
435.5864896677098
 20
289.6463294219951
 30
0.0
  0
VERTEX
  5
568
  8
0
  6
CONTINUOUS
 62
     7
 10
435.5916423117158
 20
289.6254637036641
 30
0.0
  0
VERTEX
  5
569
  8
0
  6
CONTINUOUS
 62
     7
 10
435.5961575155263
 20
289.6029072562082
 30
0.0
  0
VERTEX
  5
56A
  8
0
  6
CONTINUOUS
 62
     7
 10
435.5996357933136
 20
289.5801182918122
 30
0.0
  0
SEQEND
  5
613
  8
0
  6
CONTINUOUS
 62
     7
  0
LINE
  5
1DB
  8
0
  6
CONTINUOUS
 62
     7
 10
434.5299358879554
 20
290.0161628592832
 30
0.0
 11
435.1032626600546
 21
290.0161628592832
 31
0.0
  0
POLYLINE
  5
1DC
  8
0
  6
CONTINUOUS
 62
     7
 66
     1
 10
0.0
 20
0.0
 30
0.0
  0
VERTEX
  5
56B
  8
0
  6
CONTINUOUS
 62
     7
 10
435.1033525228696
 20
278.0161628592832
 30
0.0
  0
VERTEX
  5
56C
  8
0
  6
CONTINUOUS
 62
     7
 10
435.1153410634196
 20
278.0163051017705
 30
0.0
  0
VERTEX
  5
56D
  8
0
  6
CONTINUOUS
 62
     7
 10
435.1272917653788
 20
278.0167294737482
 30
0.0
  0
VERTEX
  5
56E
  8
0
  6
CONTINUOUS
 62
     7
 10
435.1392431041362
 20
278.0174360778339
 30
0.0
  0
VERTEX
  5
56F
  8
0
  6
CONTINUOUS
 62
     7
 10
435.1511321103872
 20
278.0184191276823
 30
0.0
  0
VERTEX
  5
570
  8
0
  6
CONTINUOUS
 62
     7
 10
435.1629951257332
 20
278.0196794914245
 30
0.0
  0
VERTEX
  5
571
  8
0
  6
CONTINUOUS
 62
     7
 10
435.1747734363012
 20
278.0212080942975
 30
0.0
  0
VERTEX
  5
572
  8
0
  6
CONTINUOUS
 62
     7
 10
435.1865019823209
 20
278.0230066011063
 30
0.0
  0
VERTEX
  5
573
  8
0
  6
CONTINUOUS
 62
     7
 10
435.198125951361
 20
278.0250631440279
 30
0.0
  0
VERTEX
  5
574
  8
0
  6
CONTINUOUS
 62
     7
 10
435.209813537402
 20
278.027408801583
 30
0.0
  0
VERTEX
  5
575
  8
0
  6
CONTINUOUS
 62
     7
 10
435.2213764082017
 20
278.0300065352858
 30
0.0
  0
VERTEX
  5
576
  8
0
  6
CONTINUOUS
 62
     7
 10
435.2328462094969
 20
278.0328593086775
 30
0.0
  0
VERTEX
  5
577
  8
0
  6
CONTINUOUS
 62
     7
 10
435.244176370689
 20
278.0359509935136
 30
0.0
  0
VERTEX
  5
578
  8
0
  6
CONTINUOUS
 62
     7
 10
435.2549871927934
 20
278.0391586734776
 30
0.0
  0
VERTEX
  5
579
  8
0
  6
CONTINUOUS
 62
     7
 10
435.2656572960743
 20
278.042575561185
 30
0.0
  0
VERTEX
  5
57A
  8
0
  6
CONTINUOUS
 62
     7
 10
435.2866149951992
 20
278.0500311847887
 30
0.0
  0
VERTEX
  5
57B
  8
0
  6
CONTINUOUS
 62
     7
 10
435.3069653057862
 20
278.0582481831809
 30
0.0
  0
VERTEX
  5
57C
  8
0
  6
CONTINUOUS
 62
     7
 10
435.3267296144016
 20
278.0671947492675
 30
0.0
  0
VERTEX
  5
57D
  8
0
  6
CONTINUOUS
 62
     7
 10
435.346063317846
 20
278.076917498252
 30
0.0
  0
VERTEX
  5
57E
  8
0
  6
CONTINUOUS
 62
     7
 10
435.3647613188307
 20
278.0872893286802
 30
0.0
  0
VERTEX
  5
57F
  8
0
  6
CONTINUOUS
 62
     7
 10
435.3777953550395
 20
278.095116622462
 30
0.0
  0
VERTEX
  5
580
  8
0
  6
CONTINUOUS
 62
     7
 10
435.390476990576
 20
278.1032304502958
 30
0.0
  0
VERTEX
  5
581
  8
0
  6
CONTINUOUS
 62
     7
 10
435.4028465761514
 20
278.1116438644464
 30
0.0
  0
VERTEX
  5
582
  8
0
  6
CONTINUOUS
 62
     7
 10
435.4148621307485
 20
278.1203157557328
 30
0.0
  0
VERTEX
  5
583
  8
0
  6
CONTINUOUS
 62
     7
 10
435.4360663599808
 20
278.1369153670062
 30
0.0
  0
VERTEX
  5
584
  8
0
  6
CONTINUOUS
 62
     7
 10
435.4561291468337
 20
278.1543059647497
 30
0.0
  0
VERTEX
  5
585
  8
0
  6
CONTINUOUS
 62
     7
 10
435.4734219246579
 20
278.1707849227931
 30
0.0
  0
VERTEX
  5
586
  8
0
  6
CONTINUOUS
 62
     7
 10
435.4897699758533
 20
278.187810878197
 30
0.0
  0
VERTEX
  5
587
  8
0
  6
CONTINUOUS
 62
     7
 10
435.5046647746007
 20
278.2047283845247
 30
0.0
  0
VERTEX
  5
588
  8
0
  6
CONTINUOUS
 62
     7
 10
435.5225904192271
 20
278.227177029449
 30
0.0
  0
VERTEX
  5
589
  8
0
  6
CONTINUOUS
 62
     7
 10
435.539129819275
 20
278.2503399977159
 30
0.0
  0
VERTEX
  5
58A
  8
0
  6
CONTINUOUS
 62
     7
 10
435.5542468366588
 20
278.2740965704917
 30
0.0
  0
VERTEX
  5
58B
  8
0
  6
CONTINUOUS
 62
     7
 10
435.568029858314
 20
278.2985365149336
 30
0.0
  0
VERTEX
  5
58C
  8
0
  6
CONTINUOUS
 62
     7
 10
435.5803907201295
 20
278.323462614132
 30
0.0
  0
VERTEX
  5
58D
  8
0
  6
CONTINUOUS
 62
     7
 10
435.5913962982337
 20
278.3489779287314
 30
0.0
  0
VERTEX
  5
58E
  8
0
  6
CONTINUOUS
 62
     7
 10
435.6009706902936
 20
278.3748864431669
 30
0.0
  0
VERTEX
  5
58F
  8
0
  6
CONTINUOUS
 62
     7
 10
435.6091315663673
 20
278.4012083524248
 30
0.0
  0
VERTEX
  5
590
  8
0
  6
CONTINUOUS
 62
     7
 10
435.615214796791
 20
278.4250399267136
 30
0.0
  0
VERTEX
  5
591
  8
0
  6
CONTINUOUS
 62
     7
 10
435.6201350323833
 20
278.4490849788138
 30
0.0
  0
VERTEX
  5
592
  8
0
  6
CONTINUOUS
 62
     7
 10
435.6206912125328
 20
278.452238495133
 30
0.0
  0
SEQEND
  5
614
  8
0
  6
CONTINUOUS
 62
     7
  0
LINE
  5
1DD
  8
0
  6
CONTINUOUS
 62
     7
 10
435.1033525228696
 20
278.0161628592832
 30
0.0
 11
434.5299358879554
 21
278.0161628592832
 31
0.0
  0
ARC
  5
1DE
  8
0
  6
CONTINUOUS
 62
     7
 10
371.0490734848528
 20
253.8688951283303
 30
0.0
 40
1.000000000000001
 50
1.566188223385489
 51
54.56670363594583
  0
ARC
  5
1DF
  8
0
  6
CONTINUOUS
 62
     7
 10
422.6472677309529
 20
262.565236344136
 30
0.0
 40
1.000000000000001
 50
91.56618822338548
 51
144.5667036359458
  0
ARC
  5
1E0
  8
0
  6
CONTINUOUS
 62
     7
 10
413.9509265151473
 20
314.1634305902361
 30
0.0
 40
1.000000000000001
 50
181.5661882233861
 51
234.566703635946
  0
ARC
  5
1E1
  8
0
  6
CONTINUOUS
 62
     7
 10
362.3527322690471
 20
305.4670893744304
 30
0.0
 40
1.000000000000001
 50
271.5661882233861
 51
324.5667036359462
  0
ARC
  5
1E2
  8
0
  6
CONTINUOUS
 62
     7
 10
392.5001979757538
 20
334.0160605586594
 30
0.0
 40
3.700082550264747
 50
144.1786928538576
 51
35.83178196088073
  0
LINE
  5
1E3
  8
0
  6
CONTINUOUS
 62
     7
 10
395.5
 20
337.3702648255329
 30
0.0
 11
395.5000000101514
 21
336.1821165674456
 31
0.0
  0
LINE
  5
1E4
  8
0
  6
CONTINUOUS
 62
     7
 10
389.4999999958456
 20
336.1815681054597
 30
0.0
 11
389.5
 21
337.3702648255329
 31
0.0
  0
LINE
  5
1E5
  8
0
  6
CONTINUOUS
 62
     7
 10
349.4200191764619
 20
278.0161628592832
 30
0.0
 11
348.6016400752989
 21
278.0161628592832
 31
0.0
  0
LINE
  5
1E6
  8
0
  6
CONTINUOUS
 62
     7
 10
435.5814424037557
 20
290.0161628592832
 30
0.0
 11
436.3983599247015
 21
290.0161628592832
 31
0.0
  0
LINE
  5
1E7
  8
0
  6
CONTINUOUS
 62
     7
 10
348.6016400752985
 20
290.0161628592832
 30
0.0
 11
349.4243905770009
 21
290.0161628592832
 31
0.0
  0
LINE
  5
1E8
  8
0
  6
CONTINUOUS
 62
     7
 10
436.3983599247015
 20
278.0161628592832
 30
0.0
 11
435.575609422999
 21
278.0161628592832
 31
0.0
  0
ARC
  5
1E9
  8
0
  6
CONTINUOUS
 62
     7
 10
343.6635382117009
 20
288.0161628592832
 30
0.0
 40
1.999999999999963
 50
90.0
 51
175.3175831377304
  0
LINE
  5
1EA
  8
0
  6
CONTINUOUS
 62
     7
 10
436.3983599247015
 20
290.0161628592832
 30
0.0
 11
441.3364617882992
 21
290.0161628592832
 31
0.0
  0
CIRCLE
  5
1EB
  8
0
  6
CONTINUOUS
 62
     7
 10
345.25
 20
284.0161628592832
 30
0.0
 40
1.750000000000029
  0
LINE
  5
1EC
  8
0
  6
CONTINUOUS
 62
     7
 10
343.6635382117009
 20
290.0161628592832
 30
0.0
 11
348.6016400752985
 21
290.0161628592832
 31
0.0
  0
ARC
  5
1ED
  8
0
  6
CONTINUOUS
 62
     7
 10
392.5
 20
284.0161628592832
 30
0.0
 40
50.99999999999999
 50
175.3175831377304
 51
184.6824168622696
  0
ARC
  5
1EE
  8
0
  6
CONTINUOUS
 62
     7
 10
441.3364617882992
 20
280.0161628592832
 30
0.0
 40
1.999999999999963
 50
270.0
 51
355.3175831377303
  0
ARC
  5
1EF
  8
0
  6
CONTINUOUS
 62
     7
 10
392.5
 20
284.0161628592832
 30
0.0
 40
50.99999999999999
 50
355.3175831377304
 51
4.68241686226969
  0
LINE
  5
1F0
  8
0
  6
CONTINUOUS
 62
     7
 10
348.6016400752989
 20
278.0161628592832
 30
0.0
 11
343.6635382117009
 21
278.0161628592832
 31
0.0
  0
CIRCLE
  5
1F1
  8
0
  6
CONTINUOUS
 62
     7
 10
439.75
 20
284.0161628592832
 30
0.0
 40
1.749999999999974
  0
ARC
  5
1F2
  8
0
  6
CONTINUOUS
 62
     7
 10
441.3364617882992
 20
288.0161628592832
 30
0.0
 40
2.000000000000002
 50
4.682416862269633
 51
90.0
  0
ARC
  5
1F3
  8
0
  6
CONTINUOUS
 62
     7
 10
343.6635382117009
 20
280.0161628592832
 30
0.0
 40
2.000000000000002
 50
184.6824168622696
 51
270.0
  0
LINE
  5
1F4
  8
0
  6
CONTINUOUS
 62
     7
 10
441.3364617882992
 20
278.0161628592832
 30
0.0
 11
436.3983599247015
 21
278.0161628592832
 31
0.0
  0
ENDBLK
  8
0
  0
BLOCK
  8
0
  2
D_FRAME_VIEW_2378
 70
     0
 10
0.0
 20
0.0
 30
0.0
  0
LINE
  5
1F9
  8
0
  6
CONTINUOUS
 62
     7
 10
524.8528975531608
 20
130.2157771495648
 30
0.0
 11
533.1794281654056
 21
130.2157771495648
 31
0.0
  0
LINE
  5
1FA
  8
0
  6
CONTINUOUS
 62
     7
 10
524.8937138796914
 20
133.2157771495648
 30
0.0
 11
533.138611838875
 21
133.2157771495648
 31
0.0
  0
ARC
  5
1FB
  8
0
  6
CONTINUOUS
 62
     7
 10
523.5161628592832
 20
132.7157771495648
 30
0.0
 40
0.500000000000056
 50
90.0
 51
180.0
  0
LINE
  5
1FC
  8
0
  6
CONTINUOUS
 62
     7
 10
523.5161628592832
 20
133.2157771495648
 30
0.0
 11
524.8937138796914
 21
133.2157771495648
 31
0.0
  0
LINE
  5
1FD
  8
0
  6
CONTINUOUS
 62
     7
 10
535.0161628592832
 20
132.7157771495648
 30
0.0
 11
535.0161628592832
 21
130.2157771495648
 31
0.0
  0
LINE
  5
1FE
  8
0
  6
CONTINUOUS
 62
     7
 10
535.0161628592832
 20
130.2157771495648
 30
0.0
 11
533.1794281654056
 21
130.2157771495648
 31
0.0
  0
LINE
  5
1FF
  8
0
  6
CONTINUOUS
 62
     7
 10
523.0161628592832
 20
130.2157771495648
 30
0.0
 11
523.0161628592832
 21
132.7157771495648
 31
0.0
  0
LINE
  5
200
  8
0
  6
CONTINUOUS
 62
     7
 10
524.8528975531608
 20
130.2157771495648
 30
0.0
 11
523.0161628592832
 21
130.2157771495648
 31
0.0
  0
LINE
  5
201
  8
0
  6
CONTINUOUS
 62
     7
 10
533.138611838875
 20
133.2157771495648
 30
0.0
 11
534.5161628592831
 21
133.2157771495648
 31
0.0
  0
ARC
  5
202
  8
0
  6
CONTINUOUS
 62
     7
 10
534.5161628592831
 20
132.7157771495648
 30
0.0
 40
0.500000000000056
 50
359.9999999999994
 51
90.0
  0
LINE
  5
203
  8
0
  6
CONTINUOUS
 62
     7
 10
535.0161628592832
 20
133.6721577621995
 30
0.0
 11
535.0161628592832
 21
132.7215600223481
 31
0.0
  0
LINE
  5
204
  8
0
  6
CONTINUOUS
 62
     7
 10
535.0161628592832
 20
132.7215600223481
 30
0.0
 11
535.0161628592832
 21
132.7157771495648
 31
0.0
  0
LINE
  5
205
  8
0
  6
CONTINUOUS
 62
     7
 10
523.0161628592832
 20
132.7157771495648
 30
0.0
 11
523.0161628592832
 21
132.728811860756
 31
0.0
  0
LINE
  5
206
  8
0
  6
CONTINUOUS
 62
     7
 10
523.0161628592832
 20
132.728811860756
 30
0.0
 11
523.0161628592832
 21
133.6721577621995
 31
0.0
  0
LINE
  5
207
  8
0
  6
CONTINUOUS
 62
     7
 10
572.1240067577137
 20
140.2157771495648
 30
0.0
 11
534.5801182918121
 21
140.2157771495648
 31
0.0
  0
LINE
  5
208
  8
0
  6
CONTINUOUS
 62
     7
 10
572.168021272529
 20
139.2157771495648
 30
0.0
 11
572.1240067577137
 21
140.2157771495648
 31
0.0
  0
LINE
  5
209
  8
0
  6
CONTINUOUS
 62
     7
 10
572.168021272529
 20
139.2157771495648
 30
0.0
 11
534.5800533554931
 21
139.2157771495648
 31
0.0
  0
LINE
  5
20A
  8
0
  6
CONTINUOUS
 62
     7
 10
523.4522723630733
 20
139.2157771495648
 30
0.0
 11
485.5152101741199
 21
139.2157771495648
 31
0.0
  0
LINE
  5
20B
  8
0
  6
CONTINUOUS
 62
     7
 10
523.0161628592832
 20
133.6721577621995
 30
0.0
 11
523.0161628592832
 21
139.2157771495648
 31
0.0
  0
LINE
  5
20C
  8
0
  6
CONTINUOUS
 62
     7
 10
535.0161628592832
 20
139.2157771495648
 30
0.0
 11
535.0161628592832
 21
133.6721577621995
 31
0.0
  0
POLYLINE
  5
20D
  8
0
  6
CONTINUOUS
 62
     7
 66
     1
 10
0.0
 20
0.0
 30
0.0
  0
VERTEX
  5
595
  8
0
  6
CONTINUOUS
 62
     7
 10
501.7040832749759
 20
164.2157771495648
 30
0.0
  0
VERTEX
  5
596
  8
0
  6
CONTINUOUS
 62
     7
 10
503.6103712694512
 20
159.212286902505
 30
0.0
  0
VERTEX
  5
597
  8
0
  6
CONTINUOUS
 62
     7
 10
505.7179588753111
 20
154.2157771495648
 30
0.0
  0
SEQEND
  5
615
  8
0
  6
CONTINUOUS
 62
     7
  0
ARC
  5
20E
  8
0
  6
CONTINUOUS
 62
     7
 10
613.0917352882929
 20
205.3054046931709
 30
0.0
 40
118.7247510534854
 50
182.5190175588809
 51
200.2484394127101
  0
LINE
  5
20F
  8
0
  6
CONTINUOUS
 62
     7
 10
505.7590592918397
 20
200.0873345770414
 30
0.0
 11
505.8674489419336
 21
199.376412211277
 31
0.0
  0
ARC
  5
210
  8
0
  6
CONTINUOUS
 62
     7
 10
741.2386277613956
 20
291.5112353729304
 30
0.0
 40
252.7615822428168
 50
201.3776004944456
 51
212.9004926631657
  0
LINE
  5
211
  8
0
  6
CONTINUOUS
 62
     7
 10
486.0375169881557
 20
140.2157771495648
 30
0.0
 11
523.0161628592832
 21
140.2157771495648
 31
0.0
  0
LINE
  5
212
  8
0
  6
CONTINUOUS
 62
     7
 10
523.0161628592832
 20
140.2137358925116
 30
0.0
 11
523.452238495133
 21
139.7375868432475
 31
0.0
  0
LINE
  5
213
  8
0
  6
CONTINUOUS
 62
     7
 10
523.0161628592832
 20
140.2137358925116
 30
0.0
 11
523.0161628592832
 21
153.2375868432475
 31
0.0
  0
LINE
  5
214
  8
0
  6
CONTINUOUS
 62
     7
 10
535.0161628592832
 20
153.2375868432475
 30
0.0
 11
535.0161628592832
 21
140.2157771495648
 31
0.0
  0
LINE
  5
215
  8
0
  6
CONTINUOUS
 62
     7
 10
523.5161628592832
 20
154.2157771495648
 30
0.0
 11
534.5161628592832
 21
154.2157771495648
 31
0.0
  0
ARC
  5
216
  8
0
  6
CONTINUOUS
 62
     7
 10
534.5161628592831
 20
153.7157771495648
 30
0.0
 40
0.500000000000056
 50
0.0
 51
90.0
  0
LINE
  5
217
  8
0
  6
CONTINUOUS
 62
     7
 10
535.0161628592832
 20
153.7157771495648
 30
0.0
 11
535.0161628592832
 21
153.2375868432475
 31
0.0
  0
ARC
  5
218
  8
0
  6
CONTINUOUS
 62
     7
 10
523.5161628592832
 20
153.7157771495648
 30
0.0
 40
0.5000000000000004
 50
90.0
 51
180.0
  0
LINE
  5
219
  8
0
  6
CONTINUOUS
 62
     7
 10
523.0161628592832
 20
153.2375868432475
 30
0.0
 11
523.0161628592832
 21
153.7157771495648
 31
0.0
  0
ARC
  5
21A
  8
0
  6
CONTINUOUS
 62
     7
 10
770.2969753227632
 20
312.4108104042256
 30
0.0
 40
283.1575503926869
 50
203.3709113796135
 51
211.5583078743037
  0
LINE
  5
21B
  8
0
  6
CONTINUOUS
 62
     7
 10
531.5237062178226
 20
200.0873345770414
 30
0.0
 11
531.724569755565
 21
199.376412211277
 31
0.0
  0
ARC
  5
21C
  8
0
  6
CONTINUOUS
 62
     7
 10
-1005.929501613549
 20
-694.4749592180111
 30
0.0
 40
1778.580984212986
 50
28.67206653776719
 51
30.16980062184296
  0
LINE
  5
21D
  8
0
  6
CONTINUOUS
 62
     7
 10
554.5622082248279
 20
158.8807350441944
 30
0.0
 11
556.9468807161518
 21
154.2157771495648
 31
0.0
  0
ARC
  5
21E
  8
0
  6
CONTINUOUS
 62
     7
 10
524.4357385684619
 20
206.1443712128505
 30
0.0
 40
15.31375822746292
 50
190.2006009776601
 51
203.29897523522
  0
LINE
  5
21F
  8
0
  6
CONTINUOUS
 62
     7
 10
487.6497228740383
 20
154.2157771495648
 30
0.0
 11
523.5161628592832
 21
154.2157771495648
 31
0.0
  0
LINE
  5
220
  8
0
  6
CONTINUOUS
 62
     7
 10
534.5161628592831
 20
154.2157771495648
 30
0.0
 11
569.965646575662
 21
154.2157771495648
 31
0.0
  0
LINE
  5
221
  8
0
  6
CONTINUOUS
 62
     7
 10
529.5009604211049
 20
163.407959138415
 30
0.0
 11
529.4882931993963
 21
163.4093609592601
 31
0.0
  0
LINE
  5
222
  8
0
  6
CONTINUOUS
 62
     7
 10
529.0161628592832
 20
164.2157771495648
 30
0.0
 11
529.5009604211049
 21
163.407959138415
 31
0.0
  0
LINE
  5
223
  8
0
  6
CONTINUOUS
 62
     7
 10
555.8194682526116
 20
200.0873345770414
 30
0.0
 11
555.9951425417795
 21
199.376412211277
 31
0.0
  0
ARC
  5
224
  8
0
  6
CONTINUOUS
 62
     7
 10
417.4439157177117
 20
136.345806155996
 30
0.0
 40
152.2146502612358
 50
8.072374810001122
 51
24.46203968768845
  0
LINE
  5
225
  8
0
  6
CONTINUOUS
 62
     7
 10
568.1503438048694
 20
157.7203772010653
 30
0.0
 11
568.5161628592832
 21
154.2157771495648
 31
0.0
  0
LINE
  5
226
  8
0
  6
CONTINUOUS
 62
     7
 10
531.4526068817445
 20
209.2157771495648
 30
0.0
 11
531.523706217822
 21
200.0873345770414
 31
0.0
  0
LINE
  5
227
  8
0
  6
CONTINUOUS
 62
     7
 10
531.4526068817444
 20
209.2157771495648
 30
0.0
 11
531.5393498948634
 21
209.2157771495648
 31
0.0
  0
LINE
  5
228
  8
0
  6
CONTINUOUS
 62
     7
 10
531.5393498948634
 20
209.2157771495648
 30
0.0
 11
531.6414305086146
 21
209.2157771495648
 31
0.0
  0
ARC
  5
229
  8
0
  6
CONTINUOUS
 62
     7
 10
513.9131534225123
 20
204.8808653584494
 30
0.0
 40
4.77415981427402
 50
123.8996239104719
 51
197.6619934825247
  0
ARC
  5
22A
  8
0
  6
CONTINUOUS
 62
     7
 10
512.8662482322771
 20
205.5236263453319
 30
0.0
 40
3.692213250921277
 50
89.54185325047466
 51
115.9529324473224
  0
LINE
  5
22B
  8
0
  6
CONTINUOUS
 62
     7
 10
512.9178456267232
 20
209.2157771495648
 30
0.0
 11
512.8957521048249
 21
209.2157771495648
 31
0.0
  0
LINE
  5
22C
  8
0
  6
CONTINUOUS
 62
     7
 10
512.9178567466793
 20
209.2157771495648
 30
0.0
 11
512.9946928892712
 21
209.2157771495648
 31
0.0
  0
LINE
  5
22D
  8
0
  6
CONTINUOUS
 62
     7
 10
512.9946928892712
 20
209.2157771495648
 30
0.0
 11
531.4526068817444
 21
209.2157771495648
 31
0.0
  0
LINE
  5
22E
  8
0
  6
CONTINUOUS
 62
     7
 10
535.2498936332729
 20
203.4323802259728
 30
0.0
 11
534.6622938943383
 21
204.4133213116825
 31
0.0
  0
LINE
  5
22F
  8
0
  6
CONTINUOUS
 62
     7
 10
531.6393636572051
 20
209.2157771495648
 30
0.0
 11
531.6414305086145
 21
209.2157771495648
 31
0.0
  0
LINE
  5
230
  8
0
  6
CONTINUOUS
 62
     7
 10
531.6393784614273
 20
209.2157771495648
 30
0.0
 11
531.7417325274015
 21
209.2157771495648
 31
0.0
  0
LINE
  5
231
  8
0
  6
CONTINUOUS
 62
     7
 10
531.7417325274015
 20
209.2157771495648
 30
0.0
 11
548.7053430066453
 21
209.2157771495648
 31
0.0
  0
ARC
  5
232
  8
0
  6
CONTINUOUS
 62
     7
 10
547.8912084394203
 20
201.7925218788492
 30
0.0
 40
7.46776632653689
 50
13.01927776145988
 51
83.74118421324602
  0
ARC
  5
233
  8
0
  6
CONTINUOUS
 62
     7
 10
542.5901547455388
 20
199.2958766766355
 30
0.0
 40
13.25296727063509
 50
3.423700829578764
 51
18.38035887251522
  0
ARC
  5
234
  8
0
  6
CONTINUOUS
 62
     7
 10
440.5049615354571
 20
149.5480031122718
 30
0.0
 40
108.9761734420116
 50
30.22928282300592
 51
33.15392362556765
  0
LINE
  5
235
  8
0
  6
CONTINUOUS
 62
     7
 10
531.7402917649501
 20
209.1459971722965
 30
0.0
 11
531.6414521213819
 21
209.215721559183
 31
0.0
  0
ARC
  5
236
  8
0
  6
CONTINUOUS
 62
     7
 10
513.622359920106
 20
201.8679854128285
 30
0.0
 40
7.396761185078071
 50
96.59658751902376
 51
167.4530704569775
  0
ARC
  5
237
  8
0
  6
CONTINUOUS
 62
     7
 10
519.1573266731243
 20
199.2982326920334
 30
0.0
 40
13.42148466472046
 50
161.8690965607802
 51
176.6294119424345
  0
LINE
  5
238
  8
0
  6
CONTINUOUS
 62
     7
 10
512.7726348924484
 20
209.2157771495648
 30
0.0
 11
512.8957521048249
 21
209.2157771495648
 31
0.0
  0
ARC
  5
239
  8
0
  6
CONTINUOUS
 62
     7
 10
605.504608738351
 20
194.8281471361279
 30
0.0
 40
112.0389501523367
 50
179.2902991199156
 51
201.2528492460041
  0
LINE
  5
23A
  8
0
  6
CONTINUOUS
 62
     7
 10
493.5705307895907
 20
199.376412211277
 30
0.0
 11
493.4742534479549
 21
196.2158952203987
 31
0.0
  0
POLYLINE
  5
23B
  8
0
  6
CONTINUOUS
 62
     7
 66
     1
 10
0.0
 20
0.0
 30
0.0
  0
VERTEX
  5
598
  8
0
  6
CONTINUOUS
 62
     7
 10
490.3910494945424
 20
164.2157771495648
 30
0.0
  0
VERTEX
  5
599
  8
0
  6
CONTINUOUS
 62
     7
 10
490.0699807564477
 20
159.212286902505
 30
0.0
  0
VERTEX
  5
59A
  8
0
  6
CONTINUOUS
 62
     7
 10
489.9869818191856
 20
154.2157771495648
 30
0.0
  0
SEQEND
  5
616
  8
0
  6
CONTINUOUS
 62
     7
  0
ARC
  5
23C
  8
0
  6
CONTINUOUS
 62
     7
 10
503.2132756519837
 20
200.4713803539478
 30
0.0
 40
8.740008096750456
 50
160.1970199330212
 51
182.5184518259831
  0
ARC
  5
23D
  8
0
  6
CONTINUOUS
 62
     7
 10
503.4257597477875
 20
200.174326267245
 30
0.0
 40
9.042945549895112
 50
88.93905990766785
 51
158.8821892669884
  0
LINE
  5
23E
  8
0
  6
CONTINUOUS
 62
     7
 10
503.6265034996905
 20
209.2157771495648
 30
0.0
 11
503.5931916899715
 21
209.2157771495648
 31
0.0
  0
LINE
  5
23F
  8
0
  6
CONTINUOUS
 62
     7
 10
503.6265044214607
 20
209.2157771495648
 30
0.0
 11
503.7180594073477
 21
209.2157771495648
 31
0.0
  0
LINE
  5
240
  8
0
  6
CONTINUOUS
 62
     7
 10
503.7180594073477
 20
209.2157771495648
 30
0.0
 11
512.7726348924484
 21
209.2157771495648
 31
0.0
  0
LINE
  5
241
  8
0
  6
CONTINUOUS
 62
     7
 10
548.7053430066454
 20
209.2157771495648
 30
0.0
 11
548.8492627282852
 21
209.2157771495648
 31
0.0
  0
LINE
  5
242
  8
0
  6
CONTINUOUS
 62
     7
 10
568.3600523558252
 20
163.1593419028336
 30
0.0
 11
568.2872403599138
 21
163.9675326850108
 31
0.0
  0
LINE
  5
243
  8
0
  6
CONTINUOUS
 62
     7
 10
548.8242560534682
 20
209.2157771495648
 30
0.0
 11
548.9528440307846
 21
209.2157771495648
 31
0.0
  0
LINE
  5
244
  8
0
  6
CONTINUOUS
 62
     7
 10
548.9528440307846
 20
209.2157771495648
 30
0.0
 11
548.9982099500168
 21
209.2157771495648
 31
0.0
  0
LINE
  5
245
  8
0
  6
CONTINUOUS
 62
     7
 10
548.9982099500168
 20
209.2157771495648
 30
0.0
 11
554.5409746251831
 21
209.2157771495648
 31
0.0
  0
LINE
  5
246
  8
0
  6
CONTINUOUS
 62
     7
 10
548.8242462370923
 20
209.2157771495648
 30
0.0
 11
548.8492627282853
 21
209.2157771495648
 31
0.0
  0
ARC
  5
247
  8
0
  6
CONTINUOUS
 62
     7
 10
548.3028339304709
 20
200.6276892266993
 30
0.0
 40
8.627345534685224
 50
54.77725973319737
 51
83.13016801226067
  0
LINE
  5
248
  8
0
  6
CONTINUOUS
 62
     7
 10
550.5161628592832
 20
209.5157771495648
 30
0.0
 11
512.5462073322252
 21
209.5157771495648
 31
0.0
  0
LINE
  5
249
  8
0
  6
CONTINUOUS
 62
     7
 10
512.5462073322252
 20
209.5157771495648
 30
0.0
 11
512.5462073322252
 21
209.2157771495648
 31
0.0
  0
LINE
  5
24A
  8
0
  6
CONTINUOUS
 62
     7
 10
568.2872403599138
 20
163.9675326850108
 30
0.0
 11
568.2822956191408
 21
164.0364320504881
 31
0.0
  0
LINE
  5
24B
  8
0
  6
CONTINUOUS
 62
     7
 10
509.8385483387844
 20
209.5157771495648
 30
0.0
 11
509.8385483387844
 21
209.2157771495648
 31
0.0
  0
LINE
  5
24C
  8
0
  6
CONTINUOUS
 62
     7
 10
511.3971406675467
 20
209.5157771495648
 30
0.0
 11
511.3971406675467
 21
209.2157771495648
 31
0.0
  0
LINE
  5
24D
  8
0
  6
CONTINUOUS
 62
     7
 10
511.3971406675467
 20
209.5157771495648
 30
0.0
 11
509.8385483387844
 21
209.5157771495648
 31
0.0
  0
LINE
  5
24E
  8
0
  6
CONTINUOUS
 62
     7
 10
512.5462073322252
 20
209.5157771495648
 30
0.0
 11
511.3971406675467
 21
209.5157771495648
 31
0.0
  0
ARC
  5
24F
  8
0
  6
CONTINUOUS
 62
     7
 10
503.5953049842417
 20
199.0606944579631
 30
0.0
 40
10.15508355321522
 50
90.03753188311414
 51
139.2841079379114
  0
LINE
  5
250
  8
0
  6
CONTINUOUS
 62
     7
 10
574.5055065033583
 20
154.2157771495648
 30
0.0
 11
583.6462276536463
 21
154.2157771495648
 31
0.0
  0
LINE
  5
251
  8
0
  6
CONTINUOUS
 62
     7
 10
583.9769465675292
 20
139.2157771495648
 30
0.0
 11
574.1833167636494
 21
139.2157771495648
 31
0.0
  0
LINE
  5
252
  8
0
  6
CONTINUOUS
 62
     7
 10
573.4881753617093
 20
154.2157771495648
 30
0.0
 11
573.5351995002928
 21
154.2173752882958
 31
0.0
  0
POLYLINE
  5
253
  8
0
  6
CONTINUOUS
 62
     7
 66
     1
 10
0.0
 20
0.0
 30
0.0
  0
VERTEX
  5
59B
  8
0
  6
CONTINUOUS
 62
     7
 10
573.5351995002928
 20
154.2173752882958
 30
0.0
  0
VERTEX
  5
59C
  8
0
  6
CONTINUOUS
 62
     7
 10
573.5508581414277
 20
154.2186181048279
 30
0.0
  0
VERTEX
  5
59D
  8
0
  6
CONTINUOUS
 62
     7
 10
573.5823561807598
 20
154.222203386578
 30
0.0
  0
VERTEX
  5
59E
  8
0
  6
CONTINUOUS
 62
     7
 10
573.6137228413386
 20
154.2272362204475
 30
0.0
  0
VERTEX
  5
59F
  8
0
  6
CONTINUOUS
 62
     7
 10
573.6452135121813
 20
154.2337957904953
 30
0.0
  0
VERTEX
  5
5A0
  8
0
  6
CONTINUOUS
 62
     7
 10
573.6764304078232
 20
154.2418425844822
 30
0.0
  0
VERTEX
  5
5A1
  8
0
  6
CONTINUOUS
 62
     7
 10
573.7075182791657
 20
154.2514559318335
 30
0.0
  0
VERTEX
  5
5A2
  8
0
  6
CONTINUOUS
 62
     7
 10
573.7381753617092
 20
154.2625908811735
 30
0.0
  0
VERTEX
  5
5A3
  8
0
  6
CONTINUOUS
 62
     7
 10
573.764468658027
 20
154.2735379862536
 30
0.0
  0
VERTEX
  5
5A4
  8
0
  6
CONTINUOUS
 62
     7
 10
573.7903072481301
 20
154.285647419597
 30
0.0
  0
VERTEX
  5
5A5
  8
0
  6
CONTINUOUS
 62
     7
 10
573.8158096718237
 20
154.299022647902
 30
0.0
  0
VERTEX
  5
5A6
  8
0
  6
CONTINUOUS
 62
     7
 10
573.8407232869778
 20
154.3135851082598
 30
0.0
  0
VERTEX
  5
5A7
  8
0
  6
CONTINUOUS
 62
     7
 10
573.8652320168128
 20
154.329512006385
 30
0.0
  0
VERTEX
  5
5A8
  8
0
  6
CONTINUOUS
 62
     7
 10
573.8889901082556
 20
154.3466569916372
 30
0.0
  0
VERTEX
  5
5A9
  8
0
  6
CONTINUOUS
 62
     7
 10
573.912079983179
 20
154.3651600479306
 30
0.0
  0
VERTEX
  5
5AA
  8
0
  6
CONTINUOUS
 62
     7
 10
573.9232870443385
 20
154.3748813672217
 30
0.0
  0
VERTEX
  5
5AB
  8
0
  6
CONTINUOUS
 62
     7
 10
573.9342322511516
 20
154.3848965144841
 30
0.0
  0
VERTEX
  5
5AC
  8
0
  6
CONTINUOUS
 62
     7
 10
573.9542395983245
 20
154.4046994310251
 30
0.0
  0
VERTEX
  5
5AD
  8
0
  6
CONTINUOUS
 62
     7
 10
573.9724516426645
 20
154.4246871509708
 30
0.0
  0
VERTEX
  5
5AE
  8
0
  6
CONTINUOUS
 62
     7
 10
573.9811865397625
 20
154.4350562376829
 30
0.0
  0
VERTEX
  5
5AF
  8
0
  6
CONTINUOUS
 62
     7
 10
573.9896438844128
 20
154.4456528622108
 30
0.0
  0
VERTEX
  5
5B0
  8
0
  6
CONTINUOUS
 62
     7
 10
573.9978995482021
 20
154.4565902188478
 30
0.0
  0
VERTEX
  5
5B1
  8
0
  6
CONTINUOUS
 62
     7
 10
574.0058507156915
 20
154.4677508321784
 30
0.0
  0
VERTEX
  5
5B2
  8
0
  6
CONTINUOUS
 62
     7
 10
574.0135099840992
 20
154.4791653551289
 30
0.0
  0
VERTEX
  5
5B3
  8
0
  6
CONTINUOUS
 62
     7
 10
574.0208413029384
 20
154.490793167147
 30
0.0
  0
VERTEX
  5
5B4
  8
0
  6
CONTINUOUS
 62
     7
 10
574.0282061597077
 20
154.5032807974075
 30
0.0
  0
VERTEX
  5
5B5
  8
0
  6
CONTINUOUS
 62
     7
 10
574.0351879779327
 20
154.5160023072837
 30
0.0
  0
VERTEX
  5
5B6
  8
0
  6
CONTINUOUS
 62
     7
 10
574.0438391285901
 20
154.5332322176917
 30
0.0
  0
VERTEX
  5
5B7
  8
0
  6
CONTINUOUS
 62
     7
 10
574.0517641467948
 20
154.5508460074367
 30
0.0
  0
VERTEX
  5
5B8
  8
0
  6
CONTINUOUS
 62
     7
 10
574.0582959341737
 20
154.5671296879108
 30
0.0
  0
VERTEX
  5
5B9
  8
0
  6
CONTINUOUS
 62
     7
 10
574.0641726182752
 20
154.5836609433545
 30
0.0
  0
VERTEX
  5
5BA
  8
0
  6
CONTINUOUS
 62
     7
 10
574.0694069997837
 20
154.6005277017061
 30
0.0
  0
VERTEX
  5
5BB
  8
0
  6
CONTINUOUS
 62
     7
 10
574.0739414477172
 20
154.6175958273161
 30
0.0
  0
VERTEX
  5
5BC
  8
0
  6
CONTINUOUS
 62
     7
 10
574.077141671817
 20
154.6317991352699
 30
0.0
  0
VERTEX
  5
5BD
  8
0
  6
CONTINUOUS
 62
     7
 10
574.0798478350825
 20
154.6461047575124
 30
0.0
  0
VERTEX
  5
5BE
  8
0
  6
CONTINUOUS
 62
     7
 10
574.0820624776755
 20
154.660566787025
 30
0.0
  0
VERTEX
  5
5BF
  8
0
  6
CONTINUOUS
 62
     7
 10
574.0837659630628
 20
154.6750978639886
 30
0.0
  0
VERTEX
  5
5C0
  8
0
  6
CONTINUOUS
 62
     7
 10
574.0852768513722
 20
154.6953876077952
 30
0.0
  0
VERTEX
  5
5C1
  8
0
  6
CONTINUOUS
 62
     7
 10
574.0857829780434
 20
154.7157771495648
 30
0.0
  0
SEQEND
  5
617
  8
0
  6
CONTINUOUS
 62
     7
  0
LINE
  5
254
  8
0
  6
CONTINUOUS
 62
     7
 10
489.3361314791678
 20
157.4703740243414
 30
0.0
 11
489.5685984532
 21
161.8654694292296
 31
0.0
  0
LINE
  5
255
  8
0
  6
CONTINUOUS
 62
     7
 10
573.8200104365766
 20
162.2157771495648
 30
0.0
 11
573.8200104365766
 21
163.7157771495648
 31
0.0
  0
POLYLINE
  5
256
  8
0
  6
CONTINUOUS
 62
     7
 66
     1
 10
0.0
 20
0.0
 30
0.0
  0
VERTEX
  5
5C2
  8
0
  6
CONTINUOUS
 62
     7
 10
573.8200104365766
 20
163.7157771495648
 30
0.0
  0
VERTEX
  5
5C3
  8
0
  6
CONTINUOUS
 62
     7
 10
573.8202134603479
 20
163.7345259352854
 30
0.0
  0
VERTEX
  5
5C4
  8
0
  6
CONTINUOUS
 62
     7
 10
573.8208234384966
 20
163.753274721006
 30
0.0
  0
VERTEX
  5
5C5
  8
0
  6
CONTINUOUS
 62
     7
 10
573.8218478882941
 20
163.772094729146
 30
0.0
  0
VERTEX
  5
5C6
  8
0
  6
CONTINUOUS
 62
     7
 10
573.8232802487765
 20
163.7908081037218
 30
0.0
  0
VERTEX
  5
5C7
  8
0
  6
CONTINUOUS
 62
     7
 10
573.8251321082138
 20
163.8095204502519
 30
0.0
  0
VERTEX
  5
5C8
  8
0
  6
CONTINUOUS
 62
     7
 10
573.8273880935604
 20
163.8280551411446
 30
0.0
  0
VERTEX
  5
5C9
  8
0
  6
CONTINUOUS
 62
     7
 10
573.8300633729376
 20
163.8465164116475
 30
0.0
  0
VERTEX
  5
5CA
  8
0
  6
CONTINUOUS
 62
     7
 10
573.8331404865712
 20
163.8647647063789
 30
0.0
  0
VERTEX
  5
5CB
  8
0
  6
CONTINUOUS
 62
     7
 10
573.8365074452356
 20
163.8822536788389
 30
0.0
  0
VERTEX
  5
5CC
  8
0
  6
CONTINUOUS
 62
     7
 10
573.8402397658044
 20
163.8994810398671
 30
0.0
  0
VERTEX
  5
5CD
  8
0
  6
CONTINUOUS
 62
     7
 10
573.8443509733092
 20
163.9165035297146
 30
0.0
  0
VERTEX
  5
5CE
  8
0
  6
CONTINUOUS
 62
     7
 10
573.8488066752649
 20
163.933181017193
 30
0.0
  0
VERTEX
  5
5CF
  8
0
  6
CONTINUOUS
 62
     7
 10
573.8536283910415
 20
163.9495952434444
 30
0.0
  0
VERTEX
  5
5D0
  8
0
  6
CONTINUOUS
 62
     7
 10
573.8587766335819
 20
163.965616441742
 30
0.0
  0
VERTEX
  5
5D1
  8
0
  6
CONTINUOUS
 62
     7
 10
573.8642751811193
 20
163.9813220420133
 30
0.0
  0
VERTEX
  5
5D2
  8
0
  6
CONTINUOUS
 62
     7
 10
573.8700894160544
 20
163.9966151399864
 30
0.0
  0
VERTEX
  5
5D3
  8
0
  6
CONTINUOUS
 62
     7
 10
573.8756740734519
 20
164.010225495188
 30
0.0
  0
VERTEX
  5
5D4
  8
0
  6
CONTINUOUS
 62
     7
 10
573.8815040177387
 20
164.0234608169484
 30
0.0
  0
VERTEX
  5
5D5
  8
0
  6
CONTINUOUS
 62
     7
 10
573.8871608548421
 20
164.0354692926371
 30
0.0
  0
VERTEX
  5
5D6
  8
0
  6
CONTINUOUS
 62
     7
 10
573.8930101533766
 20
164.0471198578439
 30
0.0
  0
VERTEX
  5
5D7
  8
0
  6
CONTINUOUS
 62
     7
 10
573.8990681289436
 20
164.058449063197
 30
0.0
  0
VERTEX
  5
5D8
  8
0
  6
CONTINUOUS
 62
     7
 10
573.9053046088287
 20
164.0694052389258
 30
0.0
  0
VERTEX
  5
5D9
  8
0
  6
CONTINUOUS
 62
     7
 10
573.9109493697126
 20
164.078758057839
 30
0.0
  0
VERTEX
  5
5DA
  8
0
  6
CONTINUOUS
 62
     7
 10
573.9167220226896
 20
164.0878133691815
 30
0.0
  0
VERTEX
  5
5DB
  8
0
  6
CONTINUOUS
 62
     7
 10
573.9286642559282
 20
164.105066350562
 30
0.0
  0
VERTEX
  5
5DC
  8
0
  6
CONTINUOUS
 62
     7
 10
573.9380477771722
 20
164.117361770327
 30
0.0
  0
VERTEX
  5
5DD
  8
0
  6
CONTINUOUS
 62
     7
 10
573.9476909627289
 20
164.1289593380309
 30
0.0
  0
VERTEX
  5
5DE
  8
0
  6
CONTINUOUS
 62
     7
 10
573.9576174954652
 20
164.139892455534
 30
0.0
  0
VERTEX
  5
5DF
  8
0
  6
CONTINUOUS
 62
     7
 10
573.9677738472656
 20
164.1501066322045
 30
0.0
  0
VERTEX
  5
5E0
  8
0
  6
CONTINUOUS
 62
     7
 10
573.978203279662
 20
164.1596470492265
 30
0.0
  0
VERTEX
  5
5E1
  8
0
  6
CONTINUOUS
 62
     7
 10
573.9888341212162
 20
164.1684493621534
 30
0.0
  0
VERTEX
  5
5E2
  8
0
  6
CONTINUOUS
 62
     7
 10
573.9996940329348
 20
164.1765394827518
 30
0.0
  0
VERTEX
  5
5E3
  8
0
  6
CONTINUOUS
 62
     7
 10
574.0107269292403
 20
164.1838780454282
 30
0.0
  0
VERTEX
  5
5E4
  8
0
  6
CONTINUOUS
 62
     7
 10
574.0231400022186
 20
164.1911303584749
 30
0.0
  0
VERTEX
  5
5E5
  8
0
  6
CONTINUOUS
 62
     7
 10
574.0357301563675
 20
164.1974536766706
 30
0.0
  0
VERTEX
  5
5E6
  8
0
  6
CONTINUOUS
 62
     7
 10
574.0485319611728
 20
164.2028656609991
 30
0.0
  0
VERTEX
  5
5E7
  8
0
  6
CONTINUOUS
 62
     7
 10
574.0614743865652
 20
164.2073355337995
 30
0.0
  0
VERTEX
  5
5E8
  8
0
  6
CONTINUOUS
 62
     7
 10
574.0746165240123
 20
164.2108792544034
 30
0.0
  0
VERTEX
  5
5E9
  8
0
  6
CONTINUOUS
 62
     7
 10
574.0878635196786
 20
164.2134656559686
 30
0.0
  0
VERTEX
  5
5EA
  8
0
  6
CONTINUOUS
 62
     7
 10
574.1012521993765
 20
164.2150976789883
 30
0.0
  0
VERTEX
  5
5EB
  8
0
  6
CONTINUOUS
 62
     7
 10
574.1147092120735
 20
164.2157608171191
 30
0.0
  0
VERTEX
  5
5EC
  8
0
  6
CONTINUOUS
 62
     7
 10
574.1171833737168
 20
164.2157771495648
 30
0.0
  0
SEQEND
  5
618
  8
0
  6
CONTINUOUS
 62
     7
  0
LINE
  5
257
  8
0
  6
CONTINUOUS
 62
     7
 10
574.1171833737169
 20
164.2157771495648
 30
0.0
 11
580.7579736321818
 21
164.2157771495648
 31
0.0
  0
LINE
  5
258
  8
0
  6
CONTINUOUS
 62
     7
 10
569.965646575662
 20
154.2157771495648
 30
0.0
 11
569.9953192816035
 21
154.2157771495648
 31
0.0
  0
LINE
  5
259
  8
0
  6
CONTINUOUS
 62
     7
 10
569.9953192816035
 20
154.2157771495648
 30
0.0
 11
570.9565486668621
 21
154.2157771495648
 31
0.0
  0
LINE
  5
25A
  8
0
  6
CONTINUOUS
 62
     7
 10
574.5055065033583
 20
154.2157771495648
 30
0.0
 11
573.5389372842316
 21
154.2157771495648
 31
0.0
  0
LINE
  5
25B
  8
0
  6
CONTINUOUS
 62
     7
 10
573.5389372842316
 20
139.2157771495648
 30
0.0
 11
574.1833167636494
 21
139.2157771495648
 31
0.0
  0
LINE
  5
25C
  8
0
  6
CONTINUOUS
 62
     7
 10
580.7579736321818
 20
164.2157771495648
 30
0.0
 11
581.099627198282
 21
164.2157771495648
 31
0.0
  0
LINE
  5
25D
  8
0
  6
CONTINUOUS
 62
     7
 10
583.6462276536463
 20
154.2157771495648
 30
0.0
 11
583.9847898258801
 21
154.2157771495648
 31
0.0
  0
LINE
  5
25E
  8
0
  6
CONTINUOUS
 62
     7
 10
584.4847898258802
 20
139.2157771495648
 30
0.0
 11
583.9769465675292
 21
139.2157771495648
 31
0.0
  0
LINE
  5
25F
  8
0
  6
CONTINUOUS
 62
     7
 10
489.3006359545126
 20
156.0286632658849
 30
0.0
 11
489.3361314791678
 21
157.4703740243414
 31
0.0
  0
LINE
  5
260
  8
0
  6
CONTINUOUS
 62
     7
 10
570.9565486668621
 20
154.2157771495648
 30
0.0
 11
573.5389372842316
 21
154.2157771495648
 31
0.0
  0
LINE
  5
261
  8
0
  6
CONTINUOUS
 62
     7
 10
573.5389372842316
 20
139.2157771495648
 30
0.0
 11
572.168021272529
 21
139.2157771495648
 31
0.0
  0
LINE
  5
262
  8
0
  6
CONTINUOUS
 62
     7
 10
573.8200104365766
 20
162.2157771495648
 30
0.0
 11
572.4442643605001
 21
162.2157771495648
 31
0.0
  0
LINE
  5
263
  8
0
  6
CONTINUOUS
 62
     7
 10
572.4442643605001
 20
164.2157771495648
 30
0.0
 11
574.1171833737168
 21
164.2157771495648
 31
0.0
  0
LINE
  5
264
  8
0
  6
CONTINUOUS
 62
     7
 10
572.4442643605001
 20
162.2157771495648
 30
0.0
 11
571.9442643605001
 21
162.2157771495648
 31
0.0
  0
LINE
  5
265
  8
0
  6
CONTINUOUS
 62
     7
 10
568.7316897653527
 20
156.0286631919589
 30
0.0
 11
568.6961942393987
 21
157.4703740243413
 31
0.0
  0
LINE
  5
266
  8
0
  6
CONTINUOUS
 62
     7
 10
568.6961942393987
 20
157.4703740243413
 30
0.0
 11
568.4637272653665
 21
161.8654694292279
 31
0.0
  0
LINE
  5
267
  8
0
  6
CONTINUOUS
 62
     7
 10
568.360052355825
 20
163.1593419028336
 30
0.0
 11
568.354200551004
 21
163.2267102663912
 31
0.0
  0
LINE
  5
268
  8
0
  6
CONTINUOUS
 62
     7
 10
485.5379928773648
 20
139.7375868432476
 30
0.0
 11
485.5152101741198
 21
139.2157771495648
 31
0.0
  0
ARC
  5
269
  8
0
  6
CONTINUOUS
 62
     7
 10
486.0375169881557
 20
139.7157771495648
 30
0.0
 40
0.5000000000000004
 50
90.0
 51
177.4999999999894
  0
LINE
  5
26A
  8
0
  6
CONTINUOUS
 62
     7
 10
487.1501987632474
 20
153.7375868432476
 30
0.0
 11
486.5598238021917
 21
140.2157771495648
 31
0.0
  0
ARC
  5
26B
  8
0
  6
CONTINUOUS
 62
     7
 10
487.6497228740383
 20
153.7157771495648
 30
0.0
 40
0.5000000000000004
 50
90.0
 51
177.4999999999877
  0
LINE
  5
26C
  8
0
  6
CONTINUOUS
 62
     7
 10
535.1552231493828
 20
154.157408483671
 30
0.0
 11
529.4882928659183
 21
163.4093612880928
 31
0.0
  0
ARC
  5
26D
  8
0
  6
CONTINUOUS
 62
     7
 10
-80.4801423875785
 20
-156.0806868358052
 30
0.0
 40
713.0299851961504
 50
26.68933534292581
 51
29.92340262160141
  0
LINE
  5
26E
  8
0
  6
CONTINUOUS
 62
     7
 10
537.4980029968431
 20
199.6084634289354
 30
0.0
 11
535.2299061377863
 21
203.4703874199165
 31
0.0
  0
LINE
  5
26F
  8
0
  6
CONTINUOUS
 62
     7
 10
535.221161847832
 20
203.4772681378017
 30
0.0
 11
534.6423845649834
 21
204.4457260272295
 31
0.0
  0
LINE
  5
270
  8
0
  6
CONTINUOUS
 62
     7
 10
556.9744785939458
 20
163.369488269897
 30
0.0
 11
556.5778526484193
 21
164.1831832169934
 31
0.0
  0
LINE
  5
271
  8
0
  6
CONTINUOUS
 62
     7
 10
493.5251185999806
 20
199.3761718909763
 30
0.0
 11
493.4739627383672
 21
196.1979143271066
 31
0.0
  0
LINE
  5
272
  8
0
  6
CONTINUOUS
 62
     7
 10
493.5294041124658
 20
200.0873345770414
 30
0.0
 11
490.3910494945425
 21
164.2157771495648
 31
0.0
  0
POLYLINE
  5
273
  8
0
  6
CONTINUOUS
 62
     7
 66
     1
 10
0.0
 20
0.0
 30
0.0
  0
VERTEX
  5
5ED
  8
0
  6
CONTINUOUS
 62
     7
 10
561.2063868279187
 20
154.2141822619225
 30
0.0
  0
VERTEX
  5
5EE
  8
0
  6
CONTINUOUS
 62
     7
 10
559.1768332780771
 20
158.7252608470947
 30
0.0
  0
VERTEX
  5
5EF
  8
0
  6
CONTINUOUS
 62
     7
 10
556.9746490637343
 20
163.3691423021036
 30
0.0
  0
SEQEND
  5
619
  8
0
  6
CONTINUOUS
 62
     7
  0
ARC
  5
274
  8
0
  6
CONTINUOUS
 62
     7
 10
554.5409746251831
 20
199.2157771495648
 30
0.0
 40
10.0
 50
4.999999999999845
 51
89.99999999999996
  0
ARC
  5
275
  8
0
  6
CONTINUOUS
 62
     7
 10
543.3635025215893
 20
193.0533345915267
 30
0.0
 40
17.67515621409715
 50
36.204057943481
 51
55.96596180621292
  0
LINE
  5
276
  8
0
  6
CONTINUOUS
 62
     7
 10
550.5161628592832
 20
209.2157771495648
 30
0.0
 11
550.5161628592832
 21
209.5157771495648
 31
0.0
  0
ARC
  5
277
  8
0
  6
CONTINUOUS
 62
     7
 10
544.9942266677266
 20
194.0075046054475
 30
0.0
 40
15.79702332945615
 50
20.4989044547652
 51
36.90899834152088
  0
ARC
  5
278
  8
0
  6
CONTINUOUS
 62
     7
 10
426.3746798624606
 20
148.8630542429219
 30
0.0
 40
142.7165119588932
 50
6.103125239761499
 51
20.79861482539442
  0
LINE
  5
279
  8
0
  6
CONTINUOUS
 62
     7
 10
566.6800511353024
 20
175.2026301883792
 30
0.0
 11
564.5029216061006
 21
200.0873345770414
 31
0.0
  0
ARC
  5
27A
  8
0
  6
CONTINUOUS
 62
     7
 10
503.5238318717165
 20
199.2157771495648
 30
0.0
 40
9.99999999999998
 50
139.694021365433
 51
140.9609079406625
  0
ARC
  5
27B
  8
0
  6
CONTINUOUS
 62
     7
 10
503.5238318717165
 20
199.2157771495648
 30
0.0
 40
9.999999999999961
 50
140.9609079406625
 51
145.7229101703437
  0
ARC
  5
27C
  8
0
  6
CONTINUOUS
 62
     7
 10
503.5238318717165
 20
199.2157771495648
 30
0.0
 40
9.999999999999972
 50
145.7229101703439
 51
179.0819241996921
  0
ARC
  5
27D
  8
0
  6
CONTINUOUS
 62
     7
 10
582.099627198282
 20
154.7157771495648
 30
0.0
 40
0.5000000000000004
 50
180.0000000000002
 51
270.0
  0
LINE
  5
27E
  8
0
  6
CONTINUOUS
 62
     7
 10
489.6781252071365
 20
163.2267103877288
 30
0.0
 11
489.5719373992429
 21
161.9186929033238
 31
0.0
  0
LINE
  5
27F
  8
0
  6
CONTINUOUS
 62
     7
 10
573.0161628592832
 20
162.2157771495648
 30
0.0
 11
573.0161628592832
 21
154.2157771495648
 31
0.0
  0
ARC
  5
280
  8
0
  6
CONTINUOUS
 62
     7
 10
581.099627198282
 20
163.7157771495648
 30
0.0
 40
0.4999999999999449
 50
0.0
 51
90.0
  0
LINE
  5
281
  8
0
  6
CONTINUOUS
 62
     7
 10
581.599627198282
 20
154.7157771495648
 30
0.0
 11
581.599627198282
 21
163.7157771495648
 31
0.0
  0
ARC
  5
282
  8
0
  6
CONTINUOUS
 62
     7
 10
583.9847898258801
 20
153.7157771495648
 30
0.0
 40
0.500000000000056
 50
0.0
 51
90.0000000000008
  0
LINE
  5
283
  8
0
  6
CONTINUOUS
 62
     7
 10
584.4847898258802
 20
139.2157771495648
 30
0.0
 11
584.4847898258802
 21
153.7157771495648
 31
0.0
  0
LINE
  5
284
  8
0
  6
CONTINUOUS
 62
     7
 10
489.3014974818424
 20
156.077843090311
 30
0.0
 11
489.2688772320365
 21
154.2161496838124
 31
0.0
  0
ARC
  5
285
  8
0
  6
CONTINUOUS
 62
     7
 10
503.4913510933833
 20
199.2157771495648
 30
0.0
 40
9.999999999999993
 50
91.30953586700988
 51
175.0000000000001
  0
LINE
  5
286
  8
0
  6
CONTINUOUS
 62
     7
 10
571.9442643605001
 20
163.7157771495648
 30
0.0
 11
571.9442643605001
 21
162.2157771495648
 31
0.0
  0
ARC
  5
287
  8
0
  6
CONTINUOUS
 62
     7
 10
572.4442643605001
 20
163.7157771495648
 30
0.0
 40
0.5000000000000004
 50
90.0
 51
180.0
  0
LINE
  5
288
  8
0
  6
CONTINUOUS
 62
     7
 10
489.7504816268321
 20
164.0413049551724
 30
0.0
 11
489.6781251807023
 21
163.2267096906189
 31
0.0
  0
ARC
  5
289
  8
0
  6
CONTINUOUS
 62
     7
 10
606.8383536580025
 20
153.0132208159933
 30
0.0
 40
117.6060656760604
 50
169.1094610867962
 51
174.6217745784993
  0
LINE
  5
28A
  8
0
  6
CONTINUOUS
 62
     7
 10
568.763449785763
 20
154.2160755370696
 30
0.0
 11
568.730828236724
 21
156.0778430903109
 31
0.0
  0
LINE
  5
28B
  8
0
  6
CONTINUOUS
 62
     7
 10
568.4603883193237
 20
161.9186929033221
 30
0.0
 11
568.3704782532487
 21
163.0387773233444
 31
0.0
  0
LINE
  5
28C
  8
0
  6
CONTINUOUS
 62
     7
 10
568.3704782532487
 20
163.0387773233444
 30
0.0
 11
568.3542005114299
 21
163.2267103877289
 31
0.0
  0
ENDBLK
  8
0
  0
ENDSEC
  0
SECTION
  2
ENTITIES
  0
INSERT
  5
70
  8
0
 62
     7
  2
D_FRAME_DRAWING_17
 10
0.0
 20
0.0
 30
0.0
  0
TEXT
  5
75
  8
0
  6
CONTINUOUS
 62
     4
 10
392.6716268600725
 20
103.9507940477679
 30
0.0
 40
10.0
  1
MB-PC
  0
INSERT
  5
11E
  8
0
  6
CONTINUOUS
 62
     7
  2
D_FRAME_VIEW_1280
 10
0.0
 20
0.0
 30
0.0
  0
LINE
  5
11F
  8
0
  6
CENTER
 62
     1
 10
337.5
 20
284.0161628592832
 30
0.0
 11
447.5
 21
284.0161628592832
 31
0.0
  0
LINE
  5
121
  8
0
  6
CENTER
 62
     1
 10
529.0161628592832
 20
125.0
 30
0.0
 11
529.0161628592832
 21
215.0
 31
0.0
  0
LINE
  5
122
  8
0
  6
CENTER
 62
     1
 10
392.5
 20
235.0
 30
0.0
 11
392.5
 21
339.9999999999999
 31
0.0
  0
INSERT
  5
1F5
  8
0
  6
CONTINUOUS
 62
     7
  2
D_FRAME_VIEW_2120
 10
0.0
 20
0.0
 30
0.0
  0
INSERT
  5
28D
  8
0
  6
CONTINUOUS
 62
     7
  2
D_FRAME_VIEW_2378
 10
0.0
 20
0.0
 30
0.0
  0
LINE
  5
28E
  8
0
  6
CENTER
 62
     1
 10
392.5
 20
127.2157771495648
 30
0.0
 11
392.5
 21
212.5157771495648
 31
0.0
  0
POINT
  5
28F
  8
0
 62
     1
 10
402.5
 20
339.9999999999999
 30
0.0
  0
POINT
  5
290
  8
0
 62
     1
 10
392.5
 20
170.0
 30
0.0
  0
POINT
  5
291
  8
0
 62
     1
 10
447.5
 20
274.9999999999999
 30
0.0
  0
POINT
  5
292
  8
0
 62
     1
 10
525.0
 20
125.0
 30
0.0
  0
POINT
  5
293
  8
0
 62
     1
 10
525.0
 20
215.0
 30
0.0
  0
POINT
  5
294
  8
0
 62
     1
 10
337.5
 20
279.9999999999999
 30
0.0
  0
POINT
  5
295
  8
0
 62
     1
 10
402.5
 20
235.0
 30
0.0
  0
ENDSEC
  0
EOF
