  0
SECTION
  2
HEADER
  9
$ACADVER
  1
AC1006
  9
$DWGCODEPAGE
  3
ansi_932
  9
$INSBASE
 10
0.0
 20
0.0
 30
0.0
  9
$EXTMIN
 10
311.9935967810315
 20
110.0
  9
$EXTMAX
 10
430.0000000000001
 20
255.0
  9
$LIMMIN
 10
0.0
 20
0.0
  9
$LIMMAX
 10
12.0
 20
9.0
  9
$ORTHOMODE
 70
     0
  9
$REGENMODE
 70
     1
  9
$FILLMODE
 70
     1
  9
$QTEXTMODE
 70
     0
  9
$MIRRTEXT
 70
     1
  9
$DRAGMODE
 70
     2
  9
$LTSCALE
 40
1.0
  9
$OSMODE
 70
    37
  9
$ATTMODE
 70
     1
  9
$TEXTSIZE
 40
0.2
  9
$TRACEWID
 40
0.05
  9
$TEXTSTYLE
  7
STANDARD
  9
$CLAYER
  8
0
  9
$CELTYPE
  6
BYLAYER
  9
$CECOLOR
 62
   256
  9
$DIMSCALE
 40
1.0
  9
$DIMASZ
 40
3.0
  9
$DIMEXO
 40
0.0625
  9
$DIMDLI
 40
0.38
  9
$DIMRND
 40
0.0
  9
$DIMDLE
 40
0.0
  9
$DIMEXE
 40
1.5
  9
$DIMTP
 40
0.0
  9
$DIMTM
 40
0.0
  9
$DIMTXT
 40
3.0
  9
$DIMCEN
 40
0.09
  9
$DIMTSZ
 40
0.0
  9
$DIMTOL
 70
     0
  9
$DIMLIM
 70
     0
  9
$DIMTIH
 70
     1
  9
$DIMTOH
 70
     1
  9
$DIMSE1
 70
     0
  9
$DIMSE2
 70
     0
  9
$DIMTAD
 70
     1
  9
$DIMZIN
 70
     0
  9
$DIMBLK
  1

  9
$DIMASO
 70
     1
  9
$DIMSHO
 70
     1
  9
$DIMPOST
  1

  9
$DIMAPOST
  1

  9
$DIMALT
 70
     0
  9
$DIMALTD
 70
     2
  9
$DIMALTF
 40
25.4
  9
$DIMLFAC
 40
1.0
  9
$DIMTOFL
 70
     0
  9
$DIMTVP
 40
0.0
  9
$DIMTIX
 70
     0
  9
$DIMSOXD
 70
     0
  9
$DIMSAH
 70
     0
  9
$DIMBLK1
  1

  9
$DIMBLK2
  1

  9
$LUNITS
 70
     2
  9
$LUPREC
 70
     4
  9
$SKETCHINC
 40
0.1
  9
$FILLETRAD
 40
0.5
  9
$AUNITS
 70
     0
  9
$AUPREC
 70
     0
  9
$MENU
  1
.
  9
$ELEVATION
 40
0.0
  9
$THICKNESS
 40
0.0
  9
$LIMCHECK
 70
     0
  9
$CHAMFERA
 40
0.0
  9
$CHAMFERB
 40
0.0
  9
$SKPOLY
 70
     0
  9
$TDCREATE
 40
2458926.46584728
  9
$TDUPDATE
 40
2458926.465847454
  9
$TDINDWG
 40
0.0000000116
  9
$TDUSRTIMER
 40
0.0000000116
  9
$USRTIMER
 70
     1
  9
$ANGBASE
 50
0.0
  9
$ANGDIR
 70
     0
  9
$PDMODE
 70
     0
  9
$PDSIZE
 40
0.0
  9
$PLINEWID
 40
0.0
  9
$COORDS
 70
     1
  9
$SPLFRAME
 70
     0
  9
$SPLINETYPE
 70
     6
  9
$SPLINESEGS
 70
     8
  9
$ATTDIA
 70
     0
  9
$ATTREQ
 70
     1
  9
$HANDLING
 70
     1
  9
$HANDSEED
  5
369
  9
$SURFTAB1
 70
     6
  9
$SURFTAB2
 70
     6
  9
$SURFTYPE
 70
     6
  9
$SURFU
 70
     6
  9
$SURFV
 70
     6
  9
$UCSNAME
  2

  9
$UCSORG
 10
0.0
 20
0.0
 30
0.0
  9
$UCSXDIR
 10
1.0
 20
0.0
 30
0.0
  9
$UCSYDIR
 10
0.0
 20
1.0
 30
0.0
  9
$USERI1
 70
     0
  9
$USERI2
 70
     0
  9
$USERI3
 70
     0
  9
$USERI4
 70
     0
  9
$USERI5
 70
     0
  9
$USERR1
 40
0.0
  9
$USERR2
 40
0.0
  9
$USERR3
 40
0.0
  9
$USERR4
 40
0.0
  9
$USERR5
 40
0.0
  9
$WORLDVIEW
 70
     1
  0
ENDSEC
  0
SECTION
  2
TABLES
  0
TABLE
  2
VPORT
 70
     1
  0
VPORT
  2
*ACTIVE
 70
     0
 10
0.0
 20
0.0
 11
1.0
 21
1.0
 12
370.9967983905158
 22
182.5
 13
0.0
 23
0.0
 14
0.5
 24
0.5
 15
0.5
 25
0.5
 16
0.0
 26
0.0
 36
1.0
 17
0.0
 27
0.0
 37
0.0
 40
145.0
 41
1.6
 42
50.0
 43
0.0
 44
0.0
 50
0.0
 51
0.0
 71
     0
 72
   100
 73
     1
 74
     3
 75
     0
 76
     0
 77
     0
 78
     0
  0
ENDTAB
  0
TABLE
  2
LTYPE
 70
     2
  0
LTYPE
  2
CONTINUOUS
 70
     0
  3
Solid line
 72
    65
 73
     0
 40
0.0
  0
LTYPE
  2
CENTER
 70
     0
  3

 72
    65
 73
     0
 40
0.0
  0
ENDTAB
  0
TABLE
  2
LAYER
 70
     1
  0
LAYER
  2
0
 70
     0
 62
     7
  6
CONTINUOUS
  0
ENDTAB
  0
TABLE
  2
STYLE
 70
     2
  0
STYLE
  2
STANDARD
 70
     0
 40
0.0
 41
1.0
 50
0.0
 71
     0
 42
0.2
  3
txt
  4

  0
STYLE
  2
ＭＳ_ゴシック
 70
     0
 40
0.0
 41
1.0
 50
0.0
 71
     0
 42
0.2
  3
ＭＳ ゴシック.shx
  4

  0
ENDTAB
  0
TABLE
  2
VIEW
 70
     0
  0
ENDTAB
  0
TABLE
  2
UCS
 70
     0
  0
ENDTAB
  0
ENDSEC
  0
SECTION
  2
BLOCKS
  0
ENDSEC
  0
SECTION
  2
ENTITIES
  0
ARC
  5
6F
  8
0
  6
CONTINUOUS
 62
     7
 10
424.9691587763637
 20
127.0
 30
0.0
 40
1.000000000000003
 50
0.4999999999999818
 51
90.0
  0
ARC
  5
70
  8
0
  6
CONTINUOUS
 62
     7
 10
354.5090050149666
 20
124.5
 30
0.0
 40
0.5000000000000004
 50
89.9999999999992
 51
179.5000000000021
  0
LINE
  5
71
  8
0
  6
CENTER
 62
     1
 10
392.7302849292847
 20
145.0
 30
0.0
 11
392.7302849292847
 21
255.0
 31
0.0
  0
LINE
  5
73
  8
0
  6
CONTINUOUS
 62
     7
 10
365.8094061390012
 20
114.4919791888387
 30
0.0
 11
365.8094879655658
 21
114.4919182412316
 31
0.0
  0
ARC
  5
74
  8
0
  6
CONTINUOUS
 62
     7
 10
382.2302849292847
 20
116.7081655870087
 30
0.0
 40
0.5000000000000004
 50
180.0
 51
264.9999999999991
  0
ARC
  5
75
  8
0
  6
CONTINUOUS
 62
     7
 10
360.561191734131
 20
127.0
 30
0.0
 40
0.9999999999999825
 50
93.40239233559416
 51
179.5
  0
LINE
  5
76
  8
0
  6
CONTINUOUS
 62
     7
 10
365.8176303435526
 20
114.9997236948799
 30
0.0
 11
365.8094880148236
 21
114.4918791579415
 31
0.0
  0
LINE
  5
77
  8
0
  6
CONTINUOUS
 62
     7
 10
367.4804676089991
 20
128.0
 30
0.0
 11
366.3788492967946
 21
128.0
 31
0.0
  0
ARC
  5
78
  8
0
  6
CONTINUOUS
 62
     7
 10
424.9691587763637
 20
113.0
 30
0.0
 40
1.000000000000001
 50
270.0
 51
359.5000000000278
  0
LINE
  5
79
  8
0
  6
CENTER
 62
     1
 10
387.4802849292847
 20
172.0516258601608
 30
0.0
 11
397.9802849292847
 21
172.0516258601608
 31
0.0
  0
LINE
  5
7A
  8
0
  6
CENTER
 62
     1
 10
320.0
 20
145.0
 30
0.0
 11
320.0
 21
255.0
 31
0.0
  0
ARC
  5
7B
  8
0
  6
CONTINUOUS
 62
     7
 10
354.5483390269142
 20
115.5
 30
0.0
 40
0.5000000000000057
 50
180.9999999999999
 51
270.0
  0
LINE
  5
7C
  8
0
  6
CONTINUOUS
 62
     7
 10
424.9691587763637
 20
128.0
 30
0.0
 11
360.6248044257054
 21
128.0
 31
0.0
  0
LINE
  5
7D
  8
0
  6
CONTINUOUS
 62
     7
 10
365.526995521568
 20
114.0496909430287
 30
0.0
 11
365.4298502951954
 21
114.0146212476388
 31
0.0
  0
LINE
  5
7E
  8
0
  6
CONTINUOUS
 62
     7
 10
389.1107283489904
 20
112.0
 30
0.0
 11
388.692257504772
 21
112.0
 31
0.0
  0
LINE
  5
7F
  8
0
  6
CONTINUOUS
 62
     7
 10
366.3788492967946
 20
128.0
 30
0.0
 11
364.416429172014
 21
128.0
 31
0.0
  0
LINE
  5
80
  8
0
  6
CONTINUOUS
 62
     7
 10
425.9691206994278
 20
112.9912734645021
 30
0.0
 11
426.0302849292847
 21
120.0
 31
0.0
  0
LINE
  5
81
  8
0
  6
CONTINUOUS
 62
     7
 10
426.0302849292847
 20
120.0
 30
0.0
 11
425.9691206994278
 21
127.0087265354984
 31
0.0
  0
LINE
  5
82
  8
0
  6
CONTINUOUS
 62
     7
 10
359.5436999201638
 20
115.0
 30
0.0
 11
359.5612298110669
 21
112.9912734645017
 31
0.0
  0
LINE
  5
83
  8
0
  6
CONTINUOUS
 62
     7
 10
389.1827099365089
 20
112.0
 30
0.0
 11
392.7302786178033
 21
112.0
 31
0.0
  0
LINE
  5
84
  8
0
  6
CONTINUOUS
 62
     7
 10
354.0090240534345
 20
124.5043632677492
 30
0.0
 11
353.9697150707153
 21
120.0
 31
0.0
  0
LINE
  5
85
  8
0
  6
CONTINUOUS
 62
     7
 10
353.9697150707153
 20
120.0
 30
0.0
 11
354.048415179336
 21
115.4912737967814
 31
0.0
  0
LINE
  5
86
  8
0
  6
CONTINUOUS
 62
     7
 10
389.1827099365089
 20
112.0
 30
0.0
 11
389.1107283489904
 21
112.0
 31
0.0
  0
LINE
  5
87
  8
0
  6
CONTINUOUS
 62
     7
 10
388.692257504772
 20
128.0
 30
0.0
 11
367.4909329100223
 21
128.0
 31
0.0
  0
LINE
  5
88
  8
0
  6
CONTINUOUS
 62
     7
 10
392.730291240766
 20
128.0
 30
0.0
 11
389.1827099365088
 21
128.0
 31
0.0
  0
LINE
  5
89
  8
0
  6
CENTER
 62
     1
 10
357.4302849292847
 20
213.0516258601608
 30
0.0
 11
428.0302849292847
 21
213.0516258601608
 31
0.0
  0
LINE
  5
8A
  8
0
  6
CENTER
 62
     1
 10
349.9999999999999
 20
120.0
 30
0.0
 11
430.0000000000001
 21
120.0
 31
0.0
  0
LINE
  5
8B
  8
0
  6
CONTINUOUS
 62
     7
 10
388.9427332094389
 20
119.5759368555885
 30
0.0
 11
388.9190230542847
 21
120.0
 31
0.0
  0
ARC
  5
8C
  8
0
  6
CONTINUOUS
 62
     7
 10
360.561191734131
 20
113.0
 30
0.0
 40
1.000000000000003
 50
180.4999999999976
 51
270.0
  0
LINE
  5
8D
  8
0
  6
CONTINUOUS
 62
     7
 10
382.1867070579108
 20
116.2100682379628
 30
0.0
 11
385.618178512019
 21
115.9098533865156
 31
0.0
  0
LINE
  5
8E
  8
0
  6
CONTINUOUS
 62
     7
 10
367.4909329100223
 20
128.0
 30
0.0
 11
367.4804676089991
 21
128.0
 31
0.0
  0
LINE
  5
8F
  8
0
  6
CENTER
 62
     1
 10
392.7302849292847
 20
110.0
 30
0.0
 11
392.7302849292847
 21
130.0
 31
0.0
  0
ARC
  5
90
  8
0
  6
CONTINUOUS
 62
     7
 10
392.7302849292847
 20
119.999980790037
 30
0.0
 40
3.811261875048412
 50
0.0002887888153396
 51
179.9997112111846
  0
LINE
  5
91
  8
0
  6
CONTINUOUS
 62
     7
 10
360.561191734131
 20
112.0
 30
0.0
 11
424.9691587763637
 21
112.0
 31
0.0
  0
LINE
  5
92
  8
0
  6
CONTINUOUS
 62
     7
 10
389.1107283489904
 20
128.0
 30
0.0
 11
389.182709936509
 21
128.0
 31
0.0
  0
ARC
  5
93
  8
0
  6
CONTINUOUS
 62
     7
 10
385.5750300348284
 20
115.4117184703465
 30
0.0
 40
0.4999999999999913
 50
32.66987711680013
 51
85.00000000000001
  0
ARC
  5
94
  8
0
  6
CONTINUOUS
 62
     7
 10
392.7303076080686
 20
119.9999815620623
 30
0.0
 40
3.811239196260692
 50
186.0051952297336
 51
0.000277184390427
  0
LINE
  5
95
  8
0
  6
CONTINUOUS
 62
     7
 10
367.4306072456869
 20
112.0
 30
0.0
 11
388.692257504772
 21
112.0
 31
0.0
  0
LINE
  5
96
  8
0
  6
CONTINUOUS
 62
     7
 10
359.5612298110669
 20
127.0087265354984
 30
0.0
 11
359.5436999201638
 21
125.0
 31
0.0
  0
LINE
  5
97
  8
0
  6
CONTINUOUS
 62
     7
 10
366.0087690717568
 20
127.101649881374
 30
0.0
 11
365.9759933948275
 21
125.0012498008104
 31
0.0
  0
LINE
  5
98
  8
0
  6
CONTINUOUS
 62
     7
 10
388.692257504772
 20
128.0
 30
0.0
 11
389.1107283489903
 21
128.0
 31
0.0
  0
ARC
  5
99
  8
0
  6
CONTINUOUS
 62
     7
 10
385.5750300348284
 20
124.5882815296535
 30
0.0
 40
0.4999999999999948
 50
275.0
 51
327.3301228831999
  0
ARC
  5
9A
  8
0
  6
CONTINUOUS
 62
     7
 10
382.2302849292847
 20
123.2918344129913
 30
0.0
 40
0.5000000000000063
 50
95.00000000000094
 51
180.0
  0
LINE
  5
9B
  8
0
  6
CONTINUOUS
 62
     7
 10
385.618084093886
 20
124.0901383529682
 30
0.0
 11
382.1867070579108
 21
123.7899317620371
 31
0.0
  0
LINE
  5
9C
  8
0
  6
CONTINUOUS
 62
     7
 10
319.9999996266534
 20
171.0516258634191
 30
0.0
 11
316.1671228509263
 21
171.085074872299
 31
0.0
  0
LINE
  5
9D
  8
0
  6
CONTINUOUS
 62
     7
 10
320.0000623268771
 20
171.0516258640396
 30
0.0
 11
319.9999999999997
 21
172.051663891379
 31
0.0
  0
LINE
  5
9E
  8
0
  6
CONTINUOUS
 62
     7
 10
319.9999370267946
 20
164.5516842068803
 30
0.0
 11
319.9999875372323
 21
163.5515878769409
 31
0.0
  0
LINE
  5
9F
  8
0
  6
CONTINUOUS
 62
     7
 10
387.8745958892683
 20
126.3603878385338
 30
0.0
 11
387.9301021530331
 21
120.0000000000003
 31
0.0
  0
LINE
  5
A0
  8
0
  6
CONTINUOUS
 62
     7
 10
315.0889346827989
 20
172.0944840778958
 30
0.0
 11
312.4405107800466
 21
172.117596523149
 31
0.0
  0
LINE
  5
A1
  8
0
  6
CONTINUOUS
 62
     7
 10
399.9513608395943
 20
118.75
 30
0.0
 11
410.198772327623
 21
118.75
 31
0.0
  0
LINE
  5
A2
  8
0
  6
CONTINUOUS
 62
     7
 10
311.9935967810315
 20
151.1225111966789
 30
0.0
 11
312.992842742652
 21
149.6038188811896
 31
0.0
  0
LINE
  5
A3
  8
0
  6
CONTINUOUS
 62
     7
 10
315.0
 20
179.6109988288578
 30
0.0
 11
315.0
 21
210.0284236549005
 31
0.0
  0
LINE
  5
A4
  8
0
  6
CONTINUOUS
 62
     7
 10
386.4877162703792
 20
115.0
 30
0.0
 11
354.5483390269143
 21
115.0
 31
0.0
  0
LINE
  5
A5
  8
0
  6
CONTINUOUS
 62
     7
 10
354.5090050149666
 20
125.0
 30
0.0
 11
386.4878069894281
 21
125.0
 31
0.0
  0
LINE
  5
A6
  8
0
  6
CONTINUOUS
 62
     7
 10
410.198772327623
 20
121.25
 30
0.0
 11
399.9575635822892
 21
121.25
 31
0.0
  0
LINE
  5
A7
  8
0
  6
CONTINUOUS
 62
     7
 10
328.0
 20
158.6127520130818
 30
0.0
 11
328.0
 21
249.4904997072397
 31
0.0
  0
LINE
  5
A8
  8
0
  6
CONTINUOUS
 62
     7
 10
325.0
 20
210.0677576668482
 30
0.0
 11
325.0
 21
179.591331822884
 31
0.0
  0
LINE
  5
A9
  8
0
  6
CONTINUOUS
 62
     7
 10
323.8328771490737
 20
171.085074872299
 30
0.0
 11
320.0000003733466
 21
171.0516258634191
 31
0.0
  0
LINE
  5
AA
  8
0
  6
CONTINUOUS
 62
     7
 10
395.9972543513636
 20
121.9495796456542
 30
0.0
 11
395.9803011221344
 21
119.9999998591896
 31
0.0
  0
LINE
  5
AB
  8
0
  6
CONTINUOUS
 62
     7
 10
321.5959557884957
 20
157.5376981649941
 30
0.0
 11
318.4040442115043
 21
157.5655535553275
 31
0.0
  0
LINE
  5
AC
  8
0
  6
CONTINUOUS
 62
     7
 10
397.5304677055361
 20
120.0000000000003
 30
0.0
 11
397.6002826478623
 21
128.0
 31
0.0
  0
LINE
  5
AD
  8
0
  6
CONTINUOUS
 62
     7
 10
312.0
 20
249.4904997072397
 30
0.0
 11
312.0
 21
158.6127520130818
 31
0.0
  0
LINE
  5
AE
  8
0
  6
CONTINUOUS
 62
     7
 10
327.0087265354984
 20
165.9192588274682
 30
0.0
 11
327.0087265354984
 21
174.7294690461112
 31
0.0
  0
ARC
  5
AF
  8
0
  6
CONTINUOUS
 62
     7
 10
418.952011900643
 20
196.4689261442486
 30
0.0
 40
0.5001757268257946
 50
37.51053425345617
 51
59.99489030533562
  0
ARC
  5
B0
  8
0
  6
CONTINUOUS
 62
     7
 10
418.9523155769813
 20
196.469159252019
 30
0.0
 40
0.4997928971624997
 50
15.0000000000033
 51
37.51053425340467
  0
ARC
  5
B1
  8
0
  6
CONTINUOUS
 62
     7
 10
418.9523155769814
 20
196.469159252019
 30
0.0
 40
0.4997928971623854
 50
352.4894657465942
 51
15.00000000000353
  0
ARC
  5
B2
  8
0
  6
CONTINUOUS
 62
     7
 10
418.9519360316727
 20
196.4692092911006
 30
0.0
 40
0.5001757268256444
 50
330.005109694666
 51
352.4894657465534
  0
ARC
  5
B3
  8
0
  6
CONTINUOUS
 62
     7
 10
416.365981968461
 20
200.8488129814504
 30
0.0
 40
0.4999025694092706
 50
152.6909795013783
 51
240.0023267916594
  0
ARC
  5
B4
  8
0
  6
CONTINUOUS
 62
     7
 10
423.7051803505421
 20
211.8017289044562
 30
0.0
 40
0.4998969564887275
 50
357.6859972322775
 51
90.0032091015696
  0
ARC
  5
B5
  8
0
  6
CONTINUOUS
 62
     7
 10
419.3008054407185
 20
211.8017232911646
 30
0.0
 40
0.4999025694084726
 50
89.9976732082515
 51
177.3090204987105
  0
LINE
  5
B6
  8
0
  6
CONTINUOUS
 62
     7
 10
384.7302849292847
 20
163.551587767675
 30
0.0
 11
384.7302849292847
 21
162.0220485352128
 31
0.0
  0
ARC
  5
B7
  8
0
  6
CONTINUOUS
 62
     7
 10
419.3008054407192
 20
214.3015284291579
 30
0.0
 40
0.4999025694092845
 50
182.6909795013806
 51
270.0023267916594
  0
ARC
  5
B8
  8
0
  6
CONTINUOUS
 62
     7
 10
420.1802797215075
 20
198.6466206653015
 30
0.0
 40
0.4998969565005146
 50
239.9967908998391
 51
332.3140027663106
  0
LINE
  5
B9
  8
0
  6
CONTINUOUS
 62
     7
 10
387.874617871385
 20
153.6071101418048
 30
0.0
 11
387.9304676985766
 21
153.5512603146173
 31
0.0
  0
LINE
  5
BA
  8
0
  6
CONTINUOUS
 62
     7
 10
384.7302849292847
 20
153.0812372848835
 30
0.0
 11
384.7302849292847
 21
151.0516829663768
 31
0.0
  0
ARC
  5
BB
  8
0
  6
CONTINUOUS
 62
     7
 10
388.7009944938541
 20
160.7016258601613
 30
0.0
 40
0.2180285604305721
 50
297.500000000131
 51
359.9999999998761
  0
LINE
  5
BC
  8
0
  6
CONTINUOUS
 62
     7
 10
388.801668879279
 20
160.5082321651173
 30
0.0
 11
387.9301021530331
 21
160.0545232450765
 31
0.0
  0
ARC
  5
BD
  8
0
  6
CONTINUOUS
 62
     7
 10
387.4665116592544
 20
120.6565619878605
 30
0.0
 40
2.114561648996712
 50
288.1408276666019
 51
313.2063119003463
  0
POLYLINE
  5
BE
  8
0
  6
CONTINUOUS
 62
     7
 66
     1
 10
0.0
 20
0.0
 30
0.0
  0
VERTEX
  5
34A
  8
0
  6
CONTINUOUS
 62
     7
 10
388.9141985189396
 20
119.1152723578096
 30
0.0
  0
VERTEX
  5
34B
  8
0
  6
CONTINUOUS
 62
     7
 10
388.9564060012984
 20
119.2192096911518
 30
0.0
  0
VERTEX
  5
34C
  8
0
  6
CONTINUOUS
 62
     7
 10
388.9629764722872
 20
119.3360029087438
 30
0.0
  0
VERTEX
  5
34D
  8
0
  6
CONTINUOUS
 62
     7
 10
388.9506978558813
 20
119.500571402609
 30
0.0
  0
VERTEX
  5
34E
  8
0
  6
CONTINUOUS
 62
     7
 10
388.9399533857567
 20
119.6015344937627
 30
0.0
  0
SEQEND
  5
362
  8
0
  6
CONTINUOUS
 62
     7
  0
ARC
  5
BF
  8
0
  6
CONTINUOUS
 62
     7
 10
423.7051803505298
 20
214.3015228158772
 30
0.0
 40
0.4998969565005318
 50
269.9967908998366
 51
2.3140027663149
  0
ARC
  5
C0
  8
0
  6
CONTINUOUS
 62
     7
 10
420.1802797215122
 20
227.4566310550365
 30
0.0
 40
0.4998969564887194
 50
27.68599723228158
 51
120.0032091015749
  0
LINE
  5
C1
  8
0
  6
CONTINUOUS
 62
     7
 10
397.5301021599927
 20
153.5512603146173
 30
0.0
 11
397.5859519871844
 21
153.6071101418048
 31
0.0
  0
ARC
  5
C2
  8
0
  6
CONTINUOUS
 62
     7
 10
392.7302849292847
 20
239.0516258601608
 30
0.0
 40
11.50000000000001
 50
56.97801668660205
 51
123.021983313398
  0
ARC
  5
C3
  8
0
  6
CONTINUOUS
 62
     7
 10
416.3659819684599
 20
225.2544387388715
 30
0.0
 40
0.4999025694084279
 50
119.9976732082493
 51
207.3090204987112
  0
LINE
  5
C4
  8
0
  6
CONTINUOUS
 62
     7
 10
321.5726499940063
 20
157.2955691877507
 30
0.0
 11
319.9999972294411
 21
157.3799268245922
 31
0.0
  0
LINE
  5
C5
  8
0
  6
CONTINUOUS
 62
     7
 10
385.7288795069271
 20
149.5519914057043
 30
0.0
 11
400.7143167562382
 21
149.5519914057043
 31
0.0
  0
LINE
  5
C6
  8
0
  6
CONTINUOUS
 62
     7
 10
387.9301021530331
 20
161.3487284752451
 30
0.0
 11
388.801668879279
 21
160.8950195552042
 31
0.0
  0
ARC
  5
C7
  8
0
  6
CONTINUOUS
 62
     7
 10
388.700994493855
 20
160.7016258601608
 30
0.0
 40
0.2180285604297021
 50
359.9999999999927
 51
62.50000000001553
  0
ARC
  5
C8
  8
0
  6
CONTINUOUS
 62
     7
 10
397.5343141980676
 20
239.2141295811792
 30
0.0
 40
0.4999116196305549
 50
184.9989324554645
 51
259.5961507773984
  0
ARC
  5
C9
  8
0
  6
CONTINUOUS
 62
     7
 10
393.9801691062477
 20
248.1664446023817
 30
0.0
 40
0.499884179032151
 50
82.18642505215327
 51
180.0052130584818
  0
ARC
  5
CA
  8
0
  6
CONTINUOUS
 62
     7
 10
404.933097807995
 20
236.6873228993372
 30
0.0
 40
0.4999025694093465
 50
242.6909795013882
 51
330.0023267916572
  0
ARC
  5
CB
  8
0
  6
CONTINUOUS
 62
     7
 10
393.9801962838903
 20
243.6859403313412
 30
0.0
 40
0.4999113546972528
 50
179.9989031749192
 51
254.9070060437936
  0
LINE
  5
CC
  8
0
  6
CONTINUOUS
 62
     7
 10
387.9304676985766
 20
153.5512603146173
 30
0.0
 11
397.5301021599927
 21
153.5512603146173
 31
0.0
  0
ARC
  5
CD
  8
0
  6
CONTINUOUS
 62
     7
 10
366.5301870927619
 20
229.6215160865426
 30
0.0
 40
0.4998969564888112
 50
147.6859972322897
 51
240.0032091015652
  0
LINE
  5
CE
  8
0
  6
CONTINUOUS
 62
     7
 10
384.2743869979784
 20
161.5242059500243
 30
0.0
 11
382.1867070579108
 21
161.3415576221979
 31
0.0
  0
LINE
  5
CF
  8
0
  6
CONTINUOUS
 62
     7
 10
320.0000027483877
 20
157.6733244727289
 30
0.0
 11
318.419746269647
 21
157.7581059774925
 31
0.0
  0
ARC
  5
D0
  8
0
  6
CONTINUOUS
 62
     7
 10
386.4802849292847
 20
181.9613138642995
 30
0.0
 40
1.199999999999979
 50
317.1041612738144
 51
122.8958387261852
  0
LINE
  5
D1
  8
0
  6
CONTINUOUS
 62
     7
 10
397.5301021599927
 20
157.5519914057043
 30
0.0
 11
397.5859519871844
 21
157.4961415785168
 31
0.0
  0
ARC
  5
D2
  8
0
  6
CONTINUOUS
 62
     7
 10
355.9697150707153
 20
208.6070476110995
 30
0.0
 40
1.999999999999996
 50
343.5781784782019
 51
296.4218215217979
  0
ARC
  5
D3
  8
0
  6
CONTINUOUS
 62
     7
 10
392.7302849292847
 20
172.0516258601608
 30
0.0
 40
3.24999999999998
 50
0.0
 51
140.0
  0
LINE
  5
D4
  8
0
  6
CONTINUOUS
 62
     7
 10
384.7988025334126
 20
176.6972215950503
 30
0.0
 11
384.7865873503114
 21
176.6627805718576
 31
0.0
  0
ARC
  5
D5
  8
0
  6
CONTINUOUS
 62
     7
 10
415.1160793994637
 20
198.6839182274378
 30
0.0
 40
0.4999025694084293
 50
59.99767320824638
 51
147.3090204987091
  0
ARC
  5
D6
  8
0
  6
CONTINUOUS
 62
     7
 10
407.2022688240199
 20
240.6177900057532
 30
0.0
 40
0.5001669248748492
 50
35.99901514138685
 51
56.97346752129987
  0
ARC
  5
D7
  8
0
  6
CONTINUOUS
 62
     7
 10
407.202563037067
 20
240.6180037563173
 30
0.0
 40
0.4998032620904578
 50
13.48900834330214
 51
35.99901514141658
  0
ARC
  5
D8
  8
0
  6
CONTINUOUS
 62
     7
 10
407.2025630370671
 20
240.6180037563173
 30
0.0
 40
0.4998032620903433
 50
350.9790015451796
 51
13.48900834330198
  0
ARC
  5
D9
  8
0
  6
CONTINUOUS
 62
     7
 10
407.2022038724486
 20
240.6180607773449
 30
0.0
 40
0.5001669248747439
 50
330.0045491653098
 51
350.9790015452215
  0
LINE
  5
DA
  8
0
  6
CONTINUOUS
 62
     7
 10
387.9161750295631
 20
157.5659473825906
 30
0.0
 11
397.5301021599927
 21
157.5519914057043
 31
0.0
  0
LINE
  5
DB
  8
0
  6
CONTINUOUS
 62
     7
 10
397.5301021599927
 20
157.5512603146173
 30
0.0
 11
387.9161750295631
 21
157.5373043377311
 31
0.0
  0
LINE
  5
DC
  8
0
  6
CONTINUOUS
 62
     7
 10
387.9304676985766
 20
161.5512603146173
 30
0.0
 11
397.5301021599927
 21
161.5512603146173
 31
0.0
  0
LINE
  5
DD
  8
0
  6
CONTINUOUS
 62
     7
 10
387.8746178713871
 20
161.6071101418069
 30
0.0
 11
387.9304676985767
 21
161.5512603146173
 31
0.0
  0
ARC
  5
DE
  8
0
  6
CONTINUOUS
 62
     7
 10
364.00006558121
 20
215.0552466355362
 30
0.0
 40
4.500000000000067
 50
176.0107006548367
 51
282.6775490777071
  0
ARC
  5
DF
  8
0
  6
CONTINUOUS
 62
     7
 10
382.3929480521198
 20
168.8419251721422
 30
0.0
 40
11.91617176369345
 50
298.752168203271
 51
303.0836860737591
  0
POLYLINE
  5
E0
  8
0
  6
CONTINUOUS
 62
     7
 66
     1
 10
0.0
 20
0.0
 30
0.0
  0
VERTEX
  5
34F
  8
0
  6
CONTINUOUS
 62
     7
 10
388.8975502502864
 20
158.8576725839185
 30
0.0
  0
VERTEX
  5
350
  8
0
  6
CONTINUOUS
 62
     7
 10
388.9587672362996
 20
158.9418836233744
 30
0.0
  0
VERTEX
  5
351
  8
0
  6
CONTINUOUS
 62
     7
 10
388.9511469031733
 20
159.0564992951338
 30
0.0
  0
VERTEX
  5
352
  8
0
  6
CONTINUOUS
 62
     7
 10
388.9178976727013
 20
159.1372286404762
 30
0.0
  0
SEQEND
  5
363
  8
0
  6
CONTINUOUS
 62
     7
  0
ARC
  5
E1
  8
0
  6
CONTINUOUS
 62
     7
 10
392.7302849292847
 20
120.0
 30
0.0
 40
8.0
 50
8.987728432108952
 51
351.0085979576504
  0
ARC
  5
E2
  8
0
  6
CONTINUOUS
 62
     7
 10
386.4802849292847
 20
181.9613138642995
 30
0.0
 40
2.800000000000022
 50
334.8499045790466
 51
105.1500954209535
  0
ARC
  5
E3
  8
0
  6
CONTINUOUS
 62
     7
 10
392.7302849292847
 20
239.0516258601608
 30
0.0
 40
2.500000000000002
 50
4.999999999999886
 51
175.0000000000001
  0
ARC
  5
E4
  8
0
  6
CONTINUOUS
 62
     7
 10
396.7595753647146
 20
158.3203758601607
 30
0.0
 40
0.2180285604299059
 50
117.5000000000065
 51
179.9999999999635
  0
LINE
  5
E5
  8
0
  6
CONTINUOUS
 62
     7
 10
396.6589009792904
 20
158.5137695552042
 30
0.0
 11
397.5304677055362
 21
158.9674784752451
 31
0.0
  0
LINE
  5
E6
  8
0
  6
CONTINUOUS
 62
     7
 10
397.5304677055362
 20
157.6732732450765
 30
0.0
 11
396.6589009792904
 21
158.1269821651174
 31
0.0
  0
ARC
  5
E7
  8
0
  6
CONTINUOUS
 62
     7
 10
396.7595753647146
 20
158.320375860161
 30
0.0
 40
0.218028560429978
 50
180.0000000000437
 51
242.499999999971
  0
LINE
  5
E8
  8
0
  6
CONTINUOUS
 62
     7
 10
387.9301021530331
 20
159.7612284752451
 30
0.0
 11
388.801668879279
 21
159.3075195552042
 31
0.0
  0
ARC
  5
E9
  8
0
  6
CONTINUOUS
 62
     7
 10
388.701074202958
 20
159.1142109647039
 30
0.0
 40
0.2179162684733973
 50
6.506202509915
 51
62.50825742585192
  0
LINE
  5
EA
  8
0
  6
CONTINUOUS
 62
     7
 10
397.5304677055362
 20
159.2607732450765
 30
0.0
 11
396.6589009792904
 21
159.7144821651173
 31
0.0
  0
ARC
  5
EB
  8
0
  6
CONTINUOUS
 62
     7
 10
396.7595753647146
 20
159.9078758601609
 30
0.0
 40
0.218028560429978
 50
180.0000000000364
 51
242.499999999971
  0
ARC
  5
EC
  8
0
  6
CONTINUOUS
 62
     7
 10
569.9765375550538
 20
58.28596772185202
 30
0.0
 40
197.6257693934116
 50
149.27139044622
 51
149.5006816686212
  0
ARC
  5
ED
  8
0
  6
CONTINUOUS
 62
     7
 10
289.6940782541725
 20
224.8948637409031
 30
0.0
 40
128.4367724976146
 50
329.27139044622
 51
329.4745042501662
  0
ARC
  5
EE
  8
0
  6
CONTINUOUS
 62
     7
 10
423.1771984525255
 20
146.1872685243542
 30
0.0
 40
26.52331566272462
 50
148.4909323459769
 51
149.4745042501547
  0
ARC
  5
EF
  8
0
  6
CONTINUOUS
 62
     7
 10
394.9825210475608
 20
163.4711273860378
 30
0.0
 40
6.547390575888222
 50
328.4909323459767
 51
329.4995495911542
  0
ARC
  5
F0
  8
0
  6
CONTINUOUS
 62
     7
 10
402.1531970524605
 20
159.2472004923478
 30
0.0
 40
1.774877911157901
 50
149.0430252631359
 51
149.4995495911886
  0
ARC
  5
F1
  8
0
  6
CONTINUOUS
 62
     7
 10
396.7595753647146
 20
159.9078758601607
 30
0.0
 40
0.2180285604299059
 50
117.5000000000065
 51
179.9999999999635
  0
LINE
  5
F2
  8
0
  6
CONTINUOUS
 62
     7
 10
396.6589009792904
 20
160.1012695552042
 30
0.0
 11
397.5304677055362
 21
160.5549784752451
 31
0.0
  0
ARC
  5
F3
  8
0
  6
CONTINUOUS
 62
     7
 10
407.097992562009
 20
190.6658313899815
 30
0.0
 40
0.4999025694094079
 50
122.6909795013934
 51
210.0023267916486
  0
LINE
  5
F4
  8
0
  6
CONTINUOUS
 62
     7
 10
397.5301021599927
 20
161.5512603146173
 30
0.0
 11
397.6002826478623
 21
161.6214408024869
 31
0.0
  0
ARC
  5
F5
  8
0
  6
CONTINUOUS
 62
     7
 10
392.7303076080686
 20
119.9999815620623
 30
0.0
 40
3.811239196260692
 50
186.0051952297336
 51
179.9997228189084
  0
ARC
  5
F6
  8
0
  6
CONTINUOUS
 62
     7
 10
411.3498193603718
 20
183.3014853873954
 30
0.0
 40
0.4999535644995821
 50
315.0072264573245
 51
329.9994989751795
  0
ARC
  5
F7
  8
0
  6
CONTINUOUS
 62
     7
 10
411.3495379233777
 20
183.3017667534057
 30
0.0
 40
0.500351526323627
 50
292.5210647485151
 51
315.007226457325
  0
ARC
  5
F8
  8
0
  6
CONTINUOUS
 62
     7
 10
411.3498311106501
 20
183.3010596721
 30
0.0
 40
0.4995860704140043
 50
270.0
 51
292.5210647485288
  0
ARC
  5
F9
  8
0
  6
CONTINUOUS
 62
     7
 10
411.3498311106501
 20
183.3010596721
 30
0.0
 40
0.4995860704140043
 50
247.4789352514713
 51
270.0
  0
ARC
  5
FA
  8
0
  6
CONTINUOUS
 62
     7
 10
411.3501242979225
 20
183.3017667534057
 30
0.0
 40
0.500351526323627
 50
224.992773542675
 51
247.478935251485
  0
ARC
  5
FB
  8
0
  6
CONTINUOUS
 62
     7
 10
411.349842860928
 20
183.301485387395
 30
0.0
 40
0.499953564498954
 50
210.0005010248018
 51
224.9927735426755
  0
ARC
  5
FC
  8
0
  6
CONTINUOUS
 62
     7
 10
366.1430724187513
 20
216.4261753447128
 30
0.0
 40
5.879874514842323
 50
257.1697721976057
 51
258.6597110053973
  0
ARC
  5
FD
  8
0
  6
CONTINUOUS
 62
     7
 10
394.7304065841167
 20
183.8377447956204
 30
0.0
 40
2.000117113190908
 50
172.5017557025663
 51
179.9999595801801
  0
ARC
  5
FE
  8
0
  6
CONTINUOUS
 62
     7
 10
394.730153529192
 20
183.8377781030446
 30
0.0
 40
1.999861875694735
 50
150.0000000000001
 51
172.5017557025691
  0
ARC
  5
FF
  8
0
  6
CONTINUOUS
 62
     7
 10
394.730153529192
 20
183.8377781030446
 30
0.0
 40
1.999861875694735
 50
127.4982442974293
 51
150.0000000000001
  0
ARC
  5
100
  8
0
  6
CONTINUOUS
 62
     7
 10
394.7303089017299
 20
183.8375756047635
 30
0.0
 40
2.000117113190826
 50
120.0000404198199
 51
127.4982442974338
  0
ARC
  5
101
  8
0
  6
CONTINUOUS
 62
     7
 10
389.7989260139153
 20
180.4131918865764
 30
0.0
 40
0.4999664970288336
 50
210.0027056935622
 51
300.0016576849389
  0
ARC
  5
102
  8
0
  6
CONTINUOUS
 62
     7
 10
322.9609931817964
 20
167.4009386660102
 30
0.0
 40
2.878644393469093
 50
266.6338920751969
 51
291.2637692833813
  0
ARC
  5
103
  8
0
  6
CONTINUOUS
 62
     7
 10
323.2750346740314
 20
165.9741967687808
 30
0.0
 40
1.452637010248857
 50
300.1647780289409
 51
358.6181983938843
  0
ARC
  5
104
  8
0
  6
CONTINUOUS
 62
     7
 10
325.911031867168
 20
165.8078006406253
 30
0.0
 40
1.309729109008602
 50
266.3179544060399
 51
305.8065958864796
  0
ARC
  5
105
  8
0
  6
CONTINUOUS
 62
     7
 10
325.3651528919473
 20
165.7494546737142
 30
0.0
 40
1.652089168587202
 50
322.5825061523436
 51
5.899362558625626
  0
ARC
  5
106
  8
0
  6
CONTINUOUS
 62
     7
 10
399.0002015758778
 20
174.5515499490109
 30
0.0
 40
0.4999240888501056
 50
201.7380413774335
 51
269.9999812564228
  0
ARC
  5
107
  8
0
  6
CONTINUOUS
 62
     7
 10
376.1591801345488
 20
239.2536907392608
 30
0.0
 40
0.499975423823298
 50
121.5148070690614
 51
123.0169237042076
  0
ARC
  5
108
  8
0
  6
CONTINUOUS
 62
     7
 10
376.1592899498843
 20
239.2535116408299
 30
0.0
 40
0.5001855087010477
 50
99.02211206347444
 51
121.5148070690618
  0
ARC
  5
109
  8
0
  6
CONTINUOUS
 62
     7
 10
376.1592265760875
 20
239.2539107702358
 30
0.0
 40
0.4997813793643577
 50
76.51099165669905
 51
99.02211206345385
  0
ARC
  5
10A
  8
0
  6
CONTINUOUS
 62
     7
 10
376.1592265760875
 20
239.2539107702361
 30
0.0
 40
0.4997813793640748
 50
53.99987124993498
 51
76.5109916566978
  0
ARC
  5
10B
  8
0
  6
CONTINUOUS
 62
     7
 10
376.158989034089
 20
239.2535838232687
 30
0.0
 40
0.5001855087005203
 50
31.50717624433537
 51
53.99987124994811
  0
ARC
  5
10C
  8
0
  6
CONTINUOUS
 62
     7
 10
376.1591681471432
 20
239.25369361475
 30
0.0
 40
0.4999754238234591
 50
30.00505960919253
 51
31.50717624433412
  0
ARC
  5
10D
  8
0
  6
CONTINUOUS
 62
     7
 10
378.258365986121
 20
240.618060777345
 30
0.0
 40
0.5001669248750056
 50
189.0209984547903
 51
209.9954508346881
  0
ARC
  5
10E
  8
0
  6
CONTINUOUS
 62
     7
 10
378.2580068215023
 20
240.6180037563173
 30
0.0
 40
0.4998032620903973
 50
166.5109916566994
 51
189.0209984548225
  0
ARC
  5
10F
  8
0
  6
CONTINUOUS
 62
     7
 10
378.2580068215028
 20
240.6180037563171
 30
0.0
 40
0.4998032620909155
 50
144.0009848585979
 51
166.5109916566973
  0
ARC
  5
110
  8
0
  6
CONTINUOUS
 62
     7
 10
378.2583010345496
 20
240.6177900057531
 30
0.0
 40
0.5001669248750255
 50
123.0265324787092
 51
144.0009848586052
  0
ARC
  5
111
  8
0
  6
CONTINUOUS
 62
     7
 10
380.527472050574
 20
236.687322899336
 30
0.0
 40
0.49990256940844
 50
209.9976732082461
 51
297.309020498707
  0
ARC
  5
112
  8
0
  6
CONTINUOUS
 62
     7
 10
365.2802901370619
 20
227.4566310550202
 30
0.0
 40
0.4998969565005018
 50
59.99679089983601
 51
152.3140027663135
  0
ARC
  5
113
  8
0
  6
CONTINUOUS
 62
     7
 10
404.9478683602246
 20
189.3902137045652
 30
0.0
 40
0.5001757268255723
 50
97.51053425344111
 51
119.9948903053395
  0
ARC
  5
114
  8
0
  6
CONTINUOUS
 62
     7
 10
404.9478183211431
 20
189.3905932498746
 30
0.0
 40
0.4997928971616648
 50
74.99999999999739
 51
97.51053425343287
  0
ARC
  5
115
  8
0
  6
CONTINUOUS
 62
     7
 10
404.9478183211431
 20
189.3905932498746
 30
0.0
 40
0.4997928971616648
 50
52.48946574655543
 51
74.99999999999739
  0
ARC
  5
116
  8
0
  6
CONTINUOUS
 62
     7
 10
404.947585213373
 20
189.3902895735357
 30
0.0
 40
0.5001757268252953
 50
30.00510969466506
 51
52.48946574656032
  0
ARC
  5
117
  8
0
  6
CONTINUOUS
 62
     7
 10
391.4803735746658
 20
243.6859403313513
 30
0.0
 40
0.4999113547105085
 50
285.0929939573722
 51
0.0010968239196814
  0
ARC
  5
118
  8
0
  6
CONTINUOUS
 62
     7
 10
391.7302729430621
 20
182.1057147487983
 30
0.0
 40
1.000058556595723
 50
300.0000404198156
 51
307.4982442974247
  0
ARC
  5
119
  8
0
  6
CONTINUOUS
 62
     7
 10
391.7303506293304
 20
182.1056134996578
 30
0.0
 40
0.9999309378480977
 50
307.4982442974451
 51
329.9999999999976
  0
ARC
  5
11A
  8
0
  6
CONTINUOUS
 62
     7
 10
391.7303506293309
 20
182.1056134996576
 30
0.0
 40
0.9999309378475882
 50
329.9999999999973
 51
352.5017557025619
  0
ARC
  5
11B
  8
0
  6
CONTINUOUS
 62
     7
 10
391.730224101869
 20
182.1056301533697
 30
0.0
 40
1.000058556595127
 50
352.5017557025574
 51
359.9999595801738
  0
ARC
  5
11C
  8
0
  6
CONTINUOUS
 62
     7
 10
-32309.96443177238
 20
712.4583758701233
 30
0.0
 40
32682.06712566226
 50
358.9516297733879
 51
358.9525217808481
  0
ARC
  5
11D
  8
0
  6
CONTINUOUS
 62
     7
 10
361.2363419730515
 20
214.8959501110046
 30
0.0
 40
5.656312144834137
 50
311.5610307220733
 51
312.5789166470427
  0
ARC
  5
11E
  8
0
  6
CONTINUOUS
 62
     7
 10
385.557000428384
 20
183.3886873892018
 30
0.0
 40
0.4999557201661668
 50
230.0026977095151
 51
302.8945627455167
  0
ARC
  5
11F
  8
0
  6
CONTINUOUS
 62
     7
 10
-19388.81573823086
 20
321.7647820418198
 30
0.0
 40
19756.58252850209
 50
359.4293556676021
 51
359.4351814511912
  0
ARC
  5
120
  8
0
  6
CONTINUOUS
 62
     7
 10
429.7686412248808
 20
170.6060681683394
 30
0.0
 40
19.99893183240204
 50
149.9998473644767
 51
160.0
  0
ARC
  5
121
  8
0
  6
CONTINUOUS
 62
     7
 10
429.7686412248806
 20
170.6060681683394
 30
0.0
 40
19.99893183240192
 50
160.0
 51
170.0001526355234
  0
ARC
  5
122
  8
0
  6
CONTINUOUS
 62
     7
 10
418.930382765791
 20
229.6215160865467
 30
0.0
 40
0.4998969565006172
 50
299.9967908998431
 51
32.3140027663016
  0
ARC
  5
123
  8
0
  6
CONTINUOUS
 62
     7
 10
378.3625772965605
 20
235.43742033034
 30
0.0
 40
0.4999025694092775
 50
302.6909795013861
 51
30.00232679166083
  0
ARC
  5
124
  8
0
  6
CONTINUOUS
 62
     7
 10
401.2252466756804
 20
166.7760170326564
 30
0.0
 40
1.005373685542877
 50
322.5783906925735
 51
330.0144704702691
  0
ARC
  5
125
  8
0
  6
CONTINUOUS
 62
     7
 10
401.2297853570086
 20
166.7725442355779
 30
0.0
 40
0.9996587972896044
 50
300.0269248036089
 51
322.5783906925692
  0
ARC
  5
126
  8
0
  6
CONTINUOUS
 62
     7
 10
401.2283001513737
 20
166.7751138977177
 30
0.0
 40
1.002626793126908
 50
277.578538182255
 51
300.0269248036091
  0
ARC
  5
127
  8
0
  6
CONTINUOUS
 62
     7
 10
401.2290525813128
 20
166.7694585392527
 30
0.0
 40
0.9969215998628564
 50
254.9999999999982
 51
277.5785381822459
  0
ARC
  5
128
  8
0
  6
CONTINUOUS
 62
     7
 10
401.2290525813127
 20
166.7694585392524
 30
0.0
 40
0.9969215998625058
 50
232.4214618177481
 51
254.9999999999994
  0
ARC
  5
129
  8
0
  6
CONTINUOUS
 62
     7
 10
401.232531883987
 20
166.7739800083812
 30
0.0
 40
1.002626793126687
 50
209.9730751963913
 51
232.4214618177503
  0
ARC
  5
12A
  8
0
  6
CONTINUOUS
 62
     7
 10
401.2299608271077
 20
166.7724972185066
 30
0.0
 40
0.9996587972896341
 50
187.4216093074296
 51
209.9730751963909
  0
ARC
  5
12B
  8
0
  6
CONTINUOUS
 62
     7
 10
401.2356278389765
 20
166.7732354083347
 30
0.0
 40
1.005373685542587
 50
179.9855295297359
 51
187.4216093074335
  0
ARC
  5
12C
  8
0
  6
CONTINUOUS
 62
     7
 10
399.2299334660254
 20
173.0516889526647
 30
0.0
 40
1.00035145365125
 50
0.0051096946623943
 51
22.48946574654542
  0
ARC
  5
12D
  8
0
  6
CONTINUOUS
 62
     7
 10
399.230640896866
 20
173.0519818277422
 30
0.0
 40
0.9995857943240353
 50
22.48946574657153
 51
44.99999999999997
  0
ARC
  5
12E
  8
0
  6
CONTINUOUS
 62
     7
 10
399.2306408968668
 20
173.051981827743
 30
0.0
 40
0.9995857943228971
 50
44.99999999999775
 51
67.5105342534516
  0
ARC
  5
12F
  8
0
  6
CONTINUOUS
 62
     7
 10
399.2303480217886
 20
173.0512743969023
 30
0.0
 40
1.000351453650473
 50
67.51053425343929
 51
89.99489030533915
  0
ARC
  5
130
  8
0
  6
CONTINUOUS
 62
     7
 10
361.5723750189889
 20
214.2948241440936
 30
0.0
 40
5.879874514841252
 50
331.3402889946017
 51
332.8302278023991
  0
ARC
  5
131
  8
0
  6
CONTINUOUS
 62
     7
 10
409.9063713384944
 20
180.8015281542166
 30
0.0
 40
0.5001171431419886
 50
22.50702325331486
 51
29.99983956706001
  0
ARC
  5
132
  8
0
  6
CONTINUOUS
 62
     7
 10
409.9066071397536
 20
180.8016258601608
 30
0.0
 40
0.4998619007368643
 50
0.0
 51
22.50702325336982
  0
ARC
  5
133
  8
0
  6
CONTINUOUS
 62
     7
 10
409.9066071397536
 20
180.8016258601608
 30
0.0
 40
0.4998619007368643
 50
337.4929767466302
 51
0.0
  0
ARC
  5
134
  8
0
  6
CONTINUOUS
 62
     7
 10
409.9063713384944
 20
180.801723566105
 30
0.0
 40
0.5001171431419886
 50
330.0001604329401
 51
337.4929767466851
  0
ARC
  5
135
  8
0
  6
CONTINUOUS
 62
     7
 10
387.5473081201716
 20
179.1132280361628
 30
0.0
 40
0.4999737252841402
 50
299.9991706344997
 51
29.99646598700065
  0
ARC
  5
136
  8
0
  6
CONTINUOUS
 62
     7
 10
317.8745375290446
 20
166.781271306106
 30
0.0
 40
6.967876378106999
 50
21.42847934749699
 51
26.94783671868083
  0
ARC
  5
137
  8
0
  6
CONTINUOUS
 62
     7
 10
318.6553386557879
 20
167.0877117185291
 30
0.0
 40
6.129093852126859
 50
11.00033819644523
 51
21.42847934749705
  0
ARC
  5
138
  8
0
  6
CONTINUOUS
 62
     7
 10
317.819208680516
 20
166.9251793935985
 30
0.0
 40
6.980874394400207
 50
1.847503241228935
 51
11.00033819644329
  0
ARC
  5
139
  8
0
  6
CONTINUOUS
 62
     7
 10
317.8192086805188
 20
166.9251793935986
 30
0.0
 40
6.980874394397373
 50
0.0424857233915645
 51
1.847503241228821
  0
ARC
  5
13A
  8
0
  6
CONTINUOUS
 62
     7
 10
407.0979925620077
 20
235.4374203303398
 30
0.0
 40
0.4999025694084526
 50
149.9976732082479
 51
237.3090204987109
  0
ARC
  5
13B
  8
0
  6
CONTINUOUS
 62
     7
 10
400.7136559440095
 20
155.5516022481679
 30
0.0
 40
6.0004490395155
 50
332.5022438854533
 51
349.9991693829052
  0
ARC
  5
13C
  8
0
  6
CONTINUOUS
 62
     7
 10
400.7145240074778
 20
155.5511504061363
 30
0.0
 40
5.999470420382933
 50
310.0
 51
332.5022438854531
  0
ARC
  5
13D
  8
0
  6
CONTINUOUS
 62
     7
 10
400.7145240074777
 20
155.5511504061366
 30
0.0
 40
5.999470420383211
 50
287.4977561145483
 51
309.9999999999998
  0
ARC
  5
13E
  8
0
  6
CONTINUOUS
 62
     7
 10
400.7142297675814
 20
155.5520837433154
 30
0.0
 40
6.00044903951544
 50
270.0008306170955
 51
287.4977561145478
  0
ARC
  5
13F
  8
0
  6
CONTINUOUS
 62
     7
 10
366.7944154113205
 20
218.9578497900368
 30
0.0
 40
0.4998648337608594
 50
234.387384607599
 51
347.1811279852516
  0
ARC
  5
140
  8
0
  6
CONTINUOUS
 62
     7
 10
391.4804007523074
 20
248.1664446023653
 30
0.0
 40
0.499884179046405
 50
359.9947869433889
 51
97.81357494597243
  0
POLYLINE
  5
141
  8
0
  6
CONTINUOUS
 62
     7
 66
     1
 10
0.0
 20
0.0
 30
0.0
  0
VERTEX
  5
353
  8
0
  6
CONTINUOUS
 62
     7
 10
364.4065799932188
 20
127.9982373507674
 30
0.0
  0
VERTEX
  5
354
  8
0
  6
CONTINUOUS
 62
     7
 10
364.5011087215404
 20
127.9626115683666
 30
0.0
  0
VERTEX
  5
355
  8
0
  6
CONTINUOUS
 62
     7
 10
364.5811788827397
 20
127.89332409414
 30
0.0
  0
SEQEND
  5
364
  8
0
  6
CONTINUOUS
 62
     7
  0
ARC
  5
142
  8
0
  6
CONTINUOUS
 62
     7
 10
363.2871360510857
 20
127.037906713018
 30
0.0
 40
1.551220727711073
 50
358.9221394443346
 51
33.46640036914282
  0
ARC
  5
143
  8
0
  6
CONTINUOUS
 62
     7
 10
365.3093393913668
 20
114.4999758621292
 30
0.0
 40
0.5001306823056643
 50
295.7979263614111
 51
359.0839612107054
  0
ARC
  5
144
  8
0
  6
CONTINUOUS
 62
     7
 10
415.116079399464
 20
227.419333492885
 30
0.0
 40
0.4999025694093219
 50
212.6909795013854
 51
300.0023267916506
  0
ARC
  5
145
  8
0
  6
CONTINUOUS
 62
     7
 10
384.7422281291282
 20
176.3378882967087
 30
0.0
 40
0.0133244202114199
 50
205.83870917653
 51
206.8034887228522
  0
ARC
  5
146
  8
0
  6
CONTINUOUS
 62
     7
 10
384.7422281291283
 20
176.3378882967087
 30
0.0
 40
0.0133244202115315
 50
206.8034887227435
 51
210.9251290807931
  0
ARC
  5
147
  8
0
  6
CONTINUOUS
 62
     7
 10
365.8985810905581
 20
217.0699879156473
 30
0.0
 40
5.656312144833735
 50
277.4210833529575
 51
278.4389692779273
  0
ARC
  5
148
  8
0
  6
CONTINUOUS
 62
     7
 10
384.7422281291283
 20
176.3378882967087
 30
0.0
 40
0.0133244202115315
 50
206.8034887227434
 51
210.656673560135
  0
ARC
  5
149
  8
0
  6
CONTINUOUS
 62
     7
 10
384.7422281291282
 20
176.3378882967087
 30
0.0
 40
0.0133244202114199
 50
205.8387091765301
 51
206.8034887228522
  0
ARC
  5
14A
  8
0
  6
CONTINUOUS
 62
     7
 10
362.4275330213825
 20
219.5901849998463
 30
0.0
 40
0.4998463291410195
 50
167.8076549492906
 51
289.1386295078644
  0
ARC
  5
14B
  8
0
  6
CONTINUOUS
 62
     7
 10
325.1452967226618
 20
165.1266173525018
 30
0.0
 40
2.858367979189762
 50
338.8391632149991
 51
3.00567889192041
  0
ARC
  5
14C
  8
0
  6
CONTINUOUS
 62
     7
 10
326.7998356209849
 20
164.6393095124942
 30
0.0
 40
1.148396756777636
 50
262.4711147672811
 51
331.6951776915482
  0
ARC
  5
14D
  8
0
  6
CONTINUOUS
 62
     7
 10
387.9262556604999
 20
239.2141295811809
 30
0.0
 40
0.4999116196325286
 50
280.4038492227737
 51
355.0010675443637
  0
ARC
  5
14E
  8
0
  6
CONTINUOUS
 62
     7
 10
363.6403450673916
 20
212.0964359967149
 30
0.0
 40
0.4893238964111046
 50
23.99211420611704
 51
83.11924026684925
  0
ARC
  5
14F
  8
0
  6
CONTINUOUS
 62
     7
 10
366.4979550556662
 20
213.4289164279242
 30
0.0
 40
0.4893980940641328
 50
146.8856869922743
 51
206.002958534771
  0
ARC
  5
150
  8
0
  6
CONTINUOUS
 62
     7
 10
384.7422281291283
 20
176.3378882967087
 30
0.0
 40
0.0133244202115315
 50
210.656673560135
 51
214.5319183859037
  0
ARC
  5
151
  8
0
  6
CONTINUOUS
 62
     7
 10
317.8192086805188
 20
166.9251793935986
 30
0.0
 40
6.980874394397373
 50
352.6946682860107
 51
0.0424857233915645
  0
ARC
  5
152
  8
0
  6
CONTINUOUS
 62
     7
 10
318.6640749914905
 20
166.8168696120625
 30
0.0
 40
6.129093852126472
 50
351.7631035522941
 51
352.6946682860148
  0
ARC
  5
153
  8
0
  6
CONTINUOUS
 62
     7
 10
400.0797770984783
 20
120.8671852156744
 30
0.0
 40
0.4018498508616769
 50
107.7056688004713
 51
196.3233047621459
  0
ARC
  5
154
  8
0
  6
CONTINUOUS
 62
     7
 10
387.7256467719973
 20
180.8041953181277
 30
0.0
 40
0.4999557201612447
 50
137.1054372540669
 51
209.9973022908946
  0
ARC
  5
155
  8
0
  6
CONTINUOUS
 62
     7
 10
-19387.05366714382
 20
-303.1985544590709
 30
0.0
 40
19756.58252850211
 50
1.241910114714187
 51
1.247736933713213
  0
ARC
  5
156
  8
0
  6
CONTINUOUS
 62
     7
 10
-32314.09436267719
 20
-321.4312474129342
 30
0.0
 40
32682.06712567038
 50
0.764249808099919
 51
0.7651417508488976
  0
ARC
  5
157
  8
0
  6
CONTINUOUS
 62
     7
 10
365.5564645626591
 20
114.4937878430547
 30
0.0
 40
0.4939645396677214
 50
180.2916097235214
 51
268.4674424114997
  0
ARC
  5
158
  8
0
  6
CONTINUOUS
 62
     7
 10
366.1648634596855
 20
114.4633404100026
 30
0.0
 40
0.4649529948339918
 50
274.7733138615955
 51
3.44428260103399
  0
ARC
  5
159
  8
0
  6
CONTINUOUS
 62
     7
 10
365.2314547036717
 20
127.0794704432965
 30
0.0
 40
1.570735421884364
 50
357.4185983890338
 51
30.61472149153741
  0
POLYLINE
  5
15A
  8
0
  6
CONTINUOUS
 62
     7
 66
     1
 10
0.0
 20
0.0
 30
0.0
  0
VERTEX
  5
356
  8
0
  6
CONTINUOUS
 62
     7
 10
366.5832472098095
 20
127.8793871801584
 30
0.0
  0
VERTEX
  5
357
  8
0
  6
CONTINUOUS
 62
     7
 10
366.4952282936822
 20
127.9616907847987
 30
0.0
  0
VERTEX
  5
358
  8
0
  6
CONTINUOUS
 62
     7
 10
366.4004013556719
 20
127.9982373507674
 30
0.0
  0
SEQEND
  5
365
  8
0
  6
CONTINUOUS
 62
     7
  0
ARC
  5
15B
  8
0
  6
CONTINUOUS
 62
     7
 10
370.3444904591057
 20
227.4193334928839
 30
0.0
 40
0.4999025694084908
 50
239.9976732082496
 51
327.30902049871
  0
ARC
  5
15C
  8
0
  6
CONTINUOUS
 62
     7
 10
395.7302059755875
 20
178.0982702061823
 30
0.0
 40
0.4999210463058327
 50
179.9998008896933
 51
243.6128000342836
  0
ARC
  5
15D
  8
0
  6
CONTINUOUS
 62
     7
 10
400.0657397930011
 20
119.1278158046909
 30
0.0
 40
0.3947497020349686
 50
162.6160656855799
 51
253.1569760568338
  0
ARC
  5
15E
  8
0
  6
CONTINUOUS
 62
     7
 10
369.0945878901084
 20
225.2544387388712
 30
0.0
 40
0.4999025694092706
 50
332.6909795013782
 51
60.00232679165947
  0
ARC
  5
15F
  8
0
  6
CONTINUOUS
 62
     7
 10
409.3014017114256
 20
239.2536936147503
 30
0.0
 40
0.49997542382275
 50
148.4928237556647
 51
149.9949403908057
  0
ARC
  5
160
  8
0
  6
CONTINUOUS
 62
     7
 10
409.3015808244804
 20
239.2535838232686
 30
0.0
 40
0.5001855087005203
 50
126.0001287500519
 51
148.4928237556646
  0
ARC
  5
161
  8
0
  6
CONTINUOUS
 62
     7
 10
409.3013432824819
 20
239.2539107702361
 30
0.0
 40
0.4997813793639938
 50
103.4890083433044
 51
126.0001287500724
  0
ARC
  5
162
  8
0
  6
CONTINUOUS
 62
     7
 10
409.3013432824819
 20
239.253910770236
 30
0.0
 40
0.4997813793641147
 50
80.97788793654165
 51
103.4890083433077
  0
ARC
  5
163
  8
0
  6
CONTINUOUS
 62
     7
 10
409.3012799086853
 20
239.2535116408301
 30
0.0
 40
0.5001855087008424
 50
58.48519293094614
 51
80.97788793654142
  0
ARC
  5
164
  8
0
  6
CONTINUOUS
 62
     7
 10
409.3013897240207
 20
239.2536907392609
 30
0.0
 40
0.4999754238231452
 50
56.98307629578914
 51
58.48519293094279
  0
ARC
  5
165
  8
0
  6
CONTINUOUS
 62
     7
 10
395.7304066142851
 20
184.0686849130808
 30
0.0
 40
0.5001171431426422
 50
172.5070232533446
 51
179.9998395670842
  0
ARC
  5
166
  8
0
  6
CONTINUOUS
 62
     7
 10
395.7301535514319
 20
184.0687181978803
 30
0.0
 40
0.4998619007371498
 50
150.0000000000006
 51
172.5070232533568
  0
ARC
  5
167
  8
0
  6
CONTINUOUS
 62
     7
 10
395.7301535514318
 20
184.0687181978803
 30
0.0
 40
0.4998619007371017
 50
127.4929767466359
 51
149.9999999999973
  0
ARC
  5
168
  8
0
  6
CONTINUOUS
 62
     7
 10
395.7303089083404
 20
184.0685156814203
 30
0.0
 40
0.5001171431426112
 50
120.00016043292
 51
127.4929767466525
  0
LINE
  5
169
  8
0
  6
CONTINUOUS
 62
     7
 10
397.5859519871823
 20
151.1002317241797
 30
0.0
 11
397.5859519871823
 21
153.6071101418069
 31
0.0
  0
ARC
  5
16A
  8
0
  6
CONTINUOUS
 62
     7
 10
392.7302849292847
 20
172.0516258601608
 30
0.0
 40
4.311126152921036
 50
319.9999999999998
 51
90.0
  0
ARC
  5
16B
  8
0
  6
CONTINUOUS
 62
     7
 10
392.7302849292847
 20
213.0516258601608
 30
0.0
 40
26.09999999999999
 50
332.6933062930429
 51
357.3066937069572
  0
LINE
  5
16C
  8
0
  6
CONTINUOUS
 62
     7
 10
419.9303069958815
 20
198.2137112018318
 30
0.0
 11
416.1160482652577
 21
200.4158745067163
 31
0.0
  0
LINE
  5
16D
  8
0
  6
CONTINUOUS
 62
     7
 10
423.7051523516193
 20
213.8016258601608
 30
0.0
 11
419.3008257418503
 21
213.8016258601608
 31
0.0
  0
ARC
  5
16E
  8
0
  6
CONTINUOUS
 62
     7
 10
397.9745065821945
 20
159.6054958904308
 30
0.0
 40
2.001098941918131
 50
269.4038627887242
 51
329.3688080405052
  0
LINE
  5
16F
  8
0
  6
CONTINUOUS
 62
     7
 10
387.8746178713871
 20
153.6071101418069
 30
0.0
 11
397.5859519871823
 21
153.6071101418069
 31
0.0
  0
LINE
  5
170
  8
0
  6
CONTINUOUS
 62
     7
 10
387.8746178713871
 20
161.6071101418069
 30
0.0
 11
392.7302849292847
 21
161.6214408024869
 31
0.0
  0
LINE
  5
171
  8
0
  6
CONTINUOUS
 62
     7
 10
387.8746178713871
 20
157.4961415785147
 30
0.0
 11
397.5859519871823
 21
157.4961415785147
 31
0.0
  0
ARC
  5
172
  8
0
  6
CONTINUOUS
 62
     7
 10
392.7302849292847
 20
213.0516258601608
 30
0.0
 40
31.49999999999999
 50
332.310793666148
 51
357.6892063338522
  0
LINE
  5
173
  8
0
  6
CONTINUOUS
 62
     7
 10
391.9070332699371
 20
165.9192588274682
 30
0.0
 11
391.9642696547908
 21
165.9874673177645
 31
0.0
  0
LINE
  5
174
  8
0
  6
CONTINUOUS
 62
     7
 10
410.9168843586898
 20
183.0515116315281
 30
0.0
 11
406.6650743884058
 21
190.4158625241878
 31
0.0
  0
LINE
  5
175
  8
0
  6
CONTINUOUS
 62
     7
 10
419.3008257418503
 20
212.3016258601608
 30
0.0
 11
423.7051523516193
 21
212.3016258601608
 31
0.0
  0
LINE
  5
176
  8
0
  6
CONTINUOUS
 62
     7
 10
400.6320252439243
 20
160.1596587228087
 30
0.0
 11
400.6320252439243
 21
151.0599775614219
 31
0.0
  0
ARC
  5
177
  8
0
  6
CONTINUOUS
 62
     7
 10
392.7302849292847
 20
213.0516258601608
 30
0.0
 40
26.09999999999999
 50
302.6933062930429
 51
327.3066937069572
  0
LINE
  5
178
  8
0
  6
CONTINUOUS
 62
     7
 10
387.8746178713871
 20
153.6071101418069
 30
0.0
 11
387.8746178713871
 21
151.1002317241797
 31
0.0
  0
LINE
  5
179
  8
0
  6
CONTINUOUS
 62
     7
 10
419.3851232247055
 20
196.2191600553621
 30
0.0
 11
411.7827778626105
 21
183.0515116315281
 31
0.0
  0
LINE
  5
17A
  8
0
  6
CONTINUOUS
 62
     7
 10
388.2821465883305
 20
163.5008131627139
 30
0.0
 11
384.7302849292944
 21
163.5515878769409
 31
0.0
  0
LINE
  5
17B
  8
0
  6
CONTINUOUS
 62
     7
 10
415.3660482652577
 20
199.1168364010396
 30
0.0
 11
419.2021383965341
 21
196.9020687311116
 31
0.0
  0
LINE
  5
17C
  8
0
  6
CONTINUOUS
 62
     7
 10
396.0327991623147
 20
169.2804873852675
 30
0.0
 11
392.7302849292847
 21
165.3447041834605
 31
0.0
  0
LINE
  5
17D
  8
0
  6
CONTINUOUS
 62
     7
 10
397.5859432791153
 20
151.1002461172411
 30
0.0
 11
400.6320595129606
 21
151.0599761119003
 31
0.0
  0
LINE
  5
17E
  8
0
  6
CONTINUOUS
 62
     7
 10
392.7302849292847
 20
165.3447041834605
 30
0.0
 11
392.6648719180233
 21
165.2764956931643
 31
0.0
  0
LINE
  5
17F
  8
0
  6
CONTINUOUS
 62
     7
 10
387.8746178713871
 20
161.6071101418069
 30
0.0
 11
387.8746178713871
 21
157.4961415785147
 31
0.0
  0
ARC
  5
180
  8
0
  6
CONTINUOUS
 62
     7
 10
388.3745896475738
 20
169.5691909048806
 30
0.0
 40
6.06908182024485
 50
269.1272482186195
 51
314.9838923791372
  0
LINE
  5
181
  8
0
  6
CONTINUOUS
 62
     7
 10
397.5859519871823
 20
157.6071101418069
 30
0.0
 11
397.5859519871823
 21
157.4961415785147
 31
0.0
  0
LINE
  5
182
  8
0
  6
CONTINUOUS
 62
     7
 10
384.7302849292923
 20
151.051682893555
 30
0.0
 11
387.8746265794541
 21
151.1002461172411
 31
0.0
  0
LINE
  5
183
  8
0
  6
CONTINUOUS
 62
     7
 10
397.5859519871823
 20
157.6071101418069
 30
0.0
 11
397.9536864095817
 21
157.6045052618275
 31
0.0
  0
ARC
  5
184
  8
0
  6
CONTINUOUS
 62
     7
 10
392.6666440545672
 20
171.1497886878057
 30
0.0
 40
5.213351780918755
 50
89.30055667695437
 51
135.2798438040547
  0
ARC
  5
185
  8
0
  6
CONTINUOUS
 62
     7
 10
392.7302849292847
 20
239.0516258601608
 30
0.0
 40
9.700000000000028
 50
56.97801668660203
 51
82.1916381106351
  0
ARC
  5
186
  8
0
  6
CONTINUOUS
 62
     7
 10
392.7302849292847
 20
239.0516258601608
 30
0.0
 40
9.700000000000014
 50
97.80836188936485
 51
123.021983313398
  0
LINE
  5
187
  8
0
  6
CONTINUOUS
 62
     7
 10
395.2302849292847
 20
184.0686863134628
 30
0.0
 11
395.2302849292847
 21
178.0982719434731
 31
0.0
  0
LINE
  5
188
  8
0
  6
CONTINUOUS
 62
     7
 10
406.6650743884058
 20
235.6873891961338
 30
0.0
 11
408.8684334068079
 21
239.5037189633213
 31
0.0
  0
LINE
  5
189
  8
0
  6
CONTINUOUS
 62
     7
 10
397.036304081357
 20
239.1705686916623
 30
0.0
 11
397.0139221310792
 21
239.4263955539757
 31
0.0
  0
ARC
  5
18A
  8
0
  6
CONTINUOUS
 62
     7
 10
392.7302849292847
 20
213.0516258601608
 30
0.0
 40
26.09999999999995
 50
100.404916767139
 51
117.3066937069571
  0
LINE
  5
18B
  8
0
  6
CONTINUOUS
 62
     7
 10
375.5640204522741
 20
239.4631643216993
 30
0.0
 11
375.88675081136
 21
239.6729239578862
 31
0.0
  0
ARC
  5
18C
  8
0
  6
CONTINUOUS
 62
     7
 10
392.7302849292847
 20
239.0516258601608
 30
0.0
 40
4.300000000000007
 50
105.0940907812866
 51
174.9999999999999
  0
ARC
  5
18D
  8
0
  6
CONTINUOUS
 62
     7
 10
392.7302849292847
 20
239.0516258601608
 30
0.0
 40
4.299999999999997
 50
5.000000000000063
 51
74.90590921871342
  0
LINE
  5
18E
  8
0
  6
CONTINUOUS
 62
     7
 10
376.5921364517615
 20
239.5037189633213
 30
0.0
 11
378.7954954701636
 21
235.6873891961338
 31
0.0
  0
LINE
  5
18F
  8
0
  6
CONTINUOUS
 62
     7
 10
377.9856957886773
 20
241.0371400051941
 30
0.0
 11
387.4441653919195
 21
247.1847027832377
 31
0.0
  0
LINE
  5
190
  8
0
  6
CONTINUOUS
 62
     7
 10
370.0945215933117
 20
226.9864153192819
 30
0.0
 11
366.2802628626879
 21
229.1885786241664
 31
0.0
  0
LINE
  5
191
  8
0
  6
CONTINUOUS
 62
     7
 10
419.1803069958815
 20
229.1885786241664
 30
0.0
 11
415.3660482652577
 21
226.9864153192819
 31
0.0
  0
LINE
  5
192
  8
0
  6
CONTINUOUS
 62
     7
 10
398.0164044666498
 20
247.1847027832377
 30
0.0
 11
407.4748740698921
 21
241.0371400051941
 31
0.0
  0
ARC
  5
193
  8
0
  6
CONTINUOUS
 62
     7
 10
392.7302849292847
 20
213.0516258601608
 30
0.0
 40
26.09999999999996
 50
122.6933062930429
 51
147.3066937069571
  0
ARC
  5
194
  8
0
  6
CONTINUOUS
 62
     7
 10
392.7302849292847
 20
213.0516258601608
 30
0.0
 40
31.50000000000002
 50
32.31079366614791
 51
56.97801668660196
  0
LINE
  5
195
  8
0
  6
CONTINUOUS
 62
     7
 10
388.4466477274901
 20
239.4263955539757
 30
0.0
 11
388.4242657772123
 21
239.1705686916622
 31
0.0
  0
ARC
  5
196
  8
0
  6
CONTINUOUS
 62
     7
 10
392.7302849292847
 20
213.0516258601608
 30
0.0
 40
31.50000000000001
 50
123.021983313398
 51
147.6892063338521
  0
ARC
  5
197
  8
0
  6
CONTINUOUS
 62
     7
 10
392.7302849292847
 20
213.0516258601608
 30
0.0
 40
31.50000000000002
 50
2.310793666147902
 51
27.6892063338521
  0
LINE
  5
198
  8
0
  6
CONTINUOUS
 62
     7
 10
391.9802849292847
 20
248.1663991204024
 30
0.0
 11
391.9802849292847
 21
243.6859499012487
 31
0.0
  0
LINE
  5
199
  8
0
  6
CONTINUOUS
 62
     7
 10
416.1160482652577
 20
225.6873772136053
 30
0.0
 11
419.9303069958815
 21
227.8895405184898
 31
0.0
  0
LINE
  5
19A
  8
0
  6
CONTINUOUS
 62
     7
 10
410.3394901228788
 20
181.0515877839499
 30
0.0
 11
405.3807278002354
 21
189.6404160694266
 31
0.0
  0
ARC
  5
19B
  8
0
  6
CONTINUOUS
 62
     7
 10
392.7302849292847
 20
213.0516258601608
 30
0.0
 40
26.09999999999999
 50
62.69330629304286
 51
79.5950832328611
  0
LINE
  5
19C
  8
0
  6
CONTINUOUS
 62
     7
 10
393.4802849292847
 20
243.6859499012487
 30
0.0
 11
393.4802849292847
 21
248.1663991204024
 31
0.0
  0
LINE
  5
19D
  8
0
  6
CONTINUOUS
 62
     7
 10
365.5302628626878
 20
227.8895405184898
 30
0.0
 11
369.3445215933116
 21
225.6873772136053
 31
0.0
  0
LINE
  5
19E
  8
0
  6
CONTINUOUS
 62
     7
 10
407.6353819334114
 20
240.368011163051
 30
0.0
 11
405.3660362827292
 21
236.4373891961338
 31
0.0
  0
LINE
  5
19F
  8
0
  6
CONTINUOUS
 62
     7
 10
380.0945335758402
 20
236.4373891961338
 30
0.0
 11
377.8251879251579
 21
240.368011163051
 31
0.0
  0
LINE
  5
1A0
  8
0
  6
CONTINUOUS
 62
     7
 10
409.5738190472092
 20
239.6729239578862
 30
0.0
 11
409.8965494062952
 21
239.4631643216993
 31
0.0
  0
ARC
  5
1A1
  8
0
  6
CONTINUOUS
 62
     7
 10
392.7302849292847
 20
213.0516258601608
 30
0.0
 40
26.09999999999995
 50
152.6933062930428
 51
167.1709506421475
  0
ARC
  5
1A2
  8
0
  6
CONTINUOUS
 62
     7
 10
392.7302849292847
 20
213.0516258601608
 30
0.0
 40
26.1
 50
2.693306293042927
 51
27.3066937069572
  0
ARC
  5
1A3
  8
0
  6
CONTINUOUS
 62
     7
 10
392.7302849292847
 20
213.0516258601608
 30
0.0
 40
31.50000000000001
 50
152.310793666148
 51
167.8234604062395
  0
ARC
  5
1A4
  8
0
  6
CONTINUOUS
 62
     7
 10
392.7302849292847
 20
213.0516258601608
 30
0.0
 40
26.09999999999999
 50
32.69330629304287
 51
57.30669370695713
  0
LINE
  5
1A5
  8
0
  6
CONTINUOUS
 62
     7
 10
404.697819124486
 20
189.8234008975978
 30
0.0
 11
395.4802468530738
 21
184.5016330654232
 31
0.0
  0
LINE
  5
1A6
  8
0
  6
CONTINUOUS
 62
     7
 10
402.0960261283618
 20
166.2735654675035
 30
0.0
 11
410.3394901228788
 21
180.5516639363717
 31
0.0
  0
ARC
  5
1A7
  8
0
  6
CONTINUOUS
 62
     7
 10
364.00006558121
 20
215.0552466355362
 30
0.0
 40
4.300000000000007
 50
54.39756195070645
 51
109.1228240509113
  0
ARC
  5
1A8
  8
0
  6
CONTINUOUS
 62
     7
 10
364.00006558121
 20
215.0552466355362
 30
0.0
 40
3.498221901241741
 50
176.0107006548365
 51
276.6731907852467
  0
LINE
  5
1A9
  8
0
  6
CONTINUOUS
 62
     7
 10
392.7302849292847
 20
161.6214408024869
 30
0.0
 11
397.6002826478623
 21
161.6214408024869
 31
0.0
  0
LINE
  5
1AA
  8
0
  6
CONTINUOUS
 62
     7
 10
388.2024936237215
 20
157.5377199697228
 30
0.0
 11
387.916174457867
 21
157.5376981649947
 31
0.0
  0
LINE
  5
1AB
  8
0
  6
CONTINUOUS
 62
     7
 10
399.000201412334
 20
174.0516258601608
 30
0.0
 11
399.2304372341283
 21
174.0516258601608
 31
0.0
  0
LINE
  5
1AC
  8
0
  6
CONTINUOUS
 62
     7
 10
397.5301021599927
 20
157.5512603146173
 30
0.0
 11
388.2024936237215
 21
157.5377199697228
 31
0.0
  0
LINE
  5
1AD
  8
0
  6
CONTINUOUS
 62
     7
 10
397.5304677055362
 20
153.5516258601608
 30
0.0
 11
397.5301021599927
 21
153.5519914057043
 31
0.0
  0
LINE
  5
1AE
  8
0
  6
CONTINUOUS
 62
     7
 10
400.2302849292847
 20
173.0517781650044
 30
0.0
 11
400.2302849292847
 21
166.7734893150817
 31
0.0
  0
LINE
  5
1AF
  8
0
  6
CONTINUOUS
 62
     7
 10
397.5304677055362
 20
153.5516258601608
 30
0.0
 11
397.5859519871823
 21
153.6071101418069
 31
0.0
  0
ARC
  5
1B0
  8
0
  6
CONTINUOUS
 62
     7
 10
392.7302849292847
 20
172.0516258601608
 30
0.0
 40
6.249999999999991
 50
21.73802263385397
 51
63.6126009239826
  0
LINE
  5
1B1
  8
0
  6
CONTINUOUS
 62
     7
 10
366.4004013556719
 20
212.5104588958286
 30
0.0
 11
366.058098040959
 21
213.214355711374
 31
0.0
  0
LINE
  5
1B2
  8
0
  6
CONTINUOUS
 62
     7
 10
364.4065799932188
 20
211.5807247255237
 30
0.0
 11
364.8380822988069
 21
210.6962340208121
 31
0.0
  0
LINE
  5
1B3
  8
0
  6
CONTINUOUS
 62
     7
 10
364.0873920785932
 20
212.2954004291512
 30
0.0
 11
364.4065799932188
 21
211.5807247255237
 31
0.0
  0
LINE
  5
1B4
  8
0
  6
CONTINUOUS
 62
     7
 10
384.7302849292847
 20
176.3321047705681
 30
0.0
 11
384.7992570965451
 21
176.697069751336
 31
0.0
  0
LINE
  5
1B5
  8
0
  6
CONTINUOUS
 62
     7
 10
387.9304676985766
 20
153.5519914057043
 30
0.0
 11
387.9301021530331
 21
153.5516258601608
 31
0.0
  0
LINE
  5
1B6
  8
0
  6
CONTINUOUS
 62
     7
 10
387.8746178713871
 20
153.6071101418069
 30
0.0
 11
387.9301021530331
 21
153.5516258601608
 31
0.0
  0
LINE
  5
1B7
  8
0
  6
CONTINUOUS
 62
     7
 10
397.5301021599927
 20
153.5519914057043
 30
0.0
 11
387.9304676985767
 21
153.5519914057043
 31
0.0
  0
LINE
  5
1B8
  8
0
  6
CONTINUOUS
 62
     7
 10
367.4898115031168
 20
214.8118747578208
 30
0.0
 11
367.4804676089991
 21
215.4251138075879
 31
0.0
  0
LINE
  5
1B9
  8
0
  6
CONTINUOUS
 62
     7
 10
360.6248044257053
 20
215.981320138095
 30
0.0
 11
360.5103196593033
 21
215.2986185132515
 31
0.0
  0
LINE
  5
1BA
  8
0
  6
CONTINUOUS
 62
     7
 10
397.5301021599927
 20
157.5512603146173
 30
0.0
 11
397.5304677055363
 21
157.5516258601608
 31
0.0
  0
LINE
  5
1BB
  8
0
  6
CONTINUOUS
 62
     7
 10
397.5304677055362
 20
157.5516258601608
 30
0.0
 11
397.5859519871823
 21
157.4961415785147
 31
0.0
  0
LINE
  5
1BC
  8
0
  6
CONTINUOUS
 62
     7
 10
366.8005962094231
 20
211.611369286569
 30
0.0
 11
366.4004013556719
 21
212.5104588958286
 31
0.0
  0
LINE
  5
1BD
  8
0
  6
CONTINUOUS
 62
     7
 10
387.8746178713871
 20
157.4961415785147
 30
0.0
 11
387.916174457867
 21
157.5376981649947
 31
0.0
  0
LINE
  5
1BE
  8
0
  6
CONTINUOUS
 62
     7
 10
397.5301021599927
 20
157.5519914057043
 30
0.0
 11
397.5304677055362
 21
157.5516258601608
 31
0.0
  0
LINE
  5
1BF
  8
0
  6
CONTINUOUS
 62
     7
 10
384.8194551853995
 20
176.7449061309364
 30
0.0
 11
385.2303094072134
 21
177.1981882758238
 31
0.0
  0
ARC
  5
1C0
  8
0
  6
CONTINUOUS
 62
     7
 10
364.00006558121
 20
215.0552466355362
 30
0.0
 40
3.500000000000001
 50
6.066134494312108
 51
164.6572637060272
  0
LINE
  5
1C1
  8
0
  6
CONTINUOUS
 62
     7
 10
386.3700227451282
 20
172.0885772859136
 30
0.0
 11
388.9622866175446
 21
174.8181361046113
 31
0.0
  0
LINE
  5
1C2
  8
0
  6
CONTINUOUS
 62
     7
 10
384.7302849292888
 20
172.0516640004189
 30
0.0
 11
386.3699669569951
 21
172.0887207681569
 31
0.0
  0
LINE
  5
1C3
  8
0
  6
CONTINUOUS
 62
     7
 10
397.6002826478623
 20
158.6127520130818
 30
0.0
 11
397.6002826478623
 21
161.6214408024869
 31
0.0
  0
ARC
  5
1C4
  8
0
  6
CONTINUOUS
 62
     7
 10
364.00006558121
 20
215.0552466355362
 30
0.0
 40
2.491273464501631
 50
326.9417963131771
 51
263.0582036868213
  0
ARC
  5
1C5
  8
0
  6
CONTINUOUS
 62
     7
 10
364.00006558121
 20
215.0552466355362
 30
0.0
 40
3.498221901241736
 50
313.3268092147534
 51
356.0107006548374
  0
ARC
  5
1C6
  8
0
  6
CONTINUOUS
 62
     7
 10
396.7911328588008
 20
238.5299673191013
 30
0.0
 40
1.499929639569813
 50
184.9996051075482
 51
260.9444940939878
  0
LINE
  5
1C7
  8
0
  6
CONTINUOUS
 62
     7
 10
397.5301021599927
 20
160.5570875303611
 30
0.0
 11
397.5304677055362
 21
160.5549784752451
 31
0.0
  0
ARC
  5
1C8
  8
0
  6
CONTINUOUS
 62
     7
 10
388.669438935775
 20
238.5299655155109
 30
0.0
 40
1.499927553749213
 50
279.0554437177037
 51
355.00045708076
  0
ARC
  5
1C9
  8
0
  6
CONTINUOUS
 62
     7
 10
388.8690004240216
 20
168.4811131561986
 30
0.0
 40
3.954088311844172
 50
269.3741967604753
 51
319.9941879845323
  0
LINE
  5
1CA
  8
0
  6
CONTINUOUS
 62
     7
 10
387.8746178713871
 20
161.6071101418069
 30
0.0
 11
387.9301021530331
 21
161.5516258601608
 31
0.0
  0
ARC
  5
1CB
  8
0
  6
CONTINUOUS
 62
     7
 10
392.7164562214991
 20
172.0477341877147
 30
0.0
 40
3.293781375715976
 50
320.2064827467137
 51
341.9354745613396
  0
LINE
  5
1CC
  8
0
  6
CONTINUOUS
 62
     7
 10
395.9972543513636
 20
172.0346121363456
 30
0.0
 11
395.8478802097234
 21
171.0263725686067
 31
0.0
  0
LINE
  5
1CD
  8
0
  6
CONTINUOUS
 62
     7
 10
397.5304677055362
 20
160.5549784752451
 30
0.0
 11
397.5304677055362
 21
159.2607732450765
 31
0.0
  0
LINE
  5
1CE
  8
0
  6
CONTINUOUS
 62
     7
 10
397.5304677055362
 20
161.5516258601608
 30
0.0
 11
397.5301021599927
 21
161.5519914057043
 31
0.0
  0
LINE
  5
1CF
  8
0
  6
CONTINUOUS
 62
     7
 10
397.5916319353931
 20
157.6127900900177
 30
0.0
 11
397.6002826478623
 21
158.6127520130818
 31
0.0
  0
LINE
  5
1D0
  8
0
  6
CONTINUOUS
 62
     7
 10
397.5301021599927
 20
161.5519914057043
 30
0.0
 11
387.9304676985767
 21
161.5519914057043
 31
0.0
  0
LINE
  5
1D1
  8
0
  6
CONTINUOUS
 62
     7
 10
387.9304676985766
 20
161.5519914057043
 30
0.0
 11
387.9301021530331
 21
161.5516258601608
 31
0.0
  0
LINE
  5
1D2
  8
0
  6
CONTINUOUS
 62
     7
 10
397.5859519871823
 20
157.6071101418069
 30
0.0
 11
397.591631935393
 21
157.6127900900177
 31
0.0
  0
LINE
  5
1D3
  8
0
  6
CONTINUOUS
 62
     7
 10
397.5304677055362
 20
158.9674784752451
 30
0.0
 11
397.5304677055362
 21
157.6732732450765
 31
0.0
  0
LINE
  5
1D4
  8
0
  6
CONTINUOUS
 62
     7
 10
397.5301021599927
 20
158.9695875303611
 30
0.0
 11
397.5304677055362
 21
158.9674784752451
 31
0.0
  0
LINE
  5
1D5
  8
0
  6
CONTINUOUS
 62
     7
 10
395.9972543513636
 20
172.0346121363456
 30
0.0
 11
395.9802849292847
 21
172.0516258601608
 31
0.0
  0
ARC
  5
1D6
  8
0
  6
CONTINUOUS
 62
     7
 10
392.7302849292847
 20
172.0516258601608
 30
0.0
 40
3.249999999999975
 50
0.0000000000001223
 51
90.00000000000001
  0
LINE
  5
1D7
  8
0
  6
CONTINUOUS
 62
     7
 10
397.5301021599927
 20
161.5512603146173
 30
0.0
 11
397.5304677055363
 21
161.5516258601608
 31
0.0
  0
ARC
  5
1D8
  8
0
  6
CONTINUOUS
 62
     7
 10
392.7302849292847
 20
172.0516258601608
 30
0.0
 40
3.24999999999998
 50
90.00000000000006
 51
140.0
  0
LINE
  5
1D9
  8
0
  6
CONTINUOUS
 62
     7
 10
397.5304677055362
 20
161.5516258601608
 30
0.0
 11
397.6002826478623
 21
161.6214408024869
 31
0.0
  0
LINE
  5
1DA
  8
0
  6
CONTINUOUS
 62
     7
 10
395.2472527199758
 20
169.9396391153067
 30
0.0
 11
391.8977499665049
 21
165.9391669359237
 31
0.0
  0
LINE
  5
1DB
  8
0
  6
CONTINUOUS
 62
     7
 10
323.6886865915753
 20
171.083816540367
 30
0.0
 11
324.8528131077925
 21
172.0887200646509
 31
0.0
  0
LINE
  5
1DC
  8
0
  6
CONTINUOUS
 62
     7
 10
315.0
 20
183.485652791122
 30
0.0
 11
315.0
 21
180.7940809165013
 31
0.0
  0
LINE
  5
1DD
  8
0
  6
CONTINUOUS
 62
     7
 10
323.8328771490737
 20
171.085074872299
 30
0.0
 11
323.6886865915753
 21
171.083816540367
 31
0.0
  0
LINE
  5
1DE
  8
0
  6
CONTINUOUS
 62
     7
 10
312.0
 20
247.8042200857885
 30
0.0
 11
312.0
 21
249.4904997072397
 31
0.0
  0
LINE
  5
1DF
  8
0
  6
CONTINUOUS
 62
     7
 10
324.4770306266167
 20
171.6561226617942
 30
0.0
 11
323.8328923565856
 21
171.0850750061934
 31
0.0
  0
LINE
  5
1E0
  8
0
  6
CONTINUOUS
 62
     7
 10
320.0000000000003
 20
164.5516258601608
 30
0.0
 11
325.8269215945445
 21
164.5007750857781
 31
0.0
  0
LINE
  5
1E1
  8
0
  6
CONTINUOUS
 62
     7
 10
319.9999319020767
 20
149.6016313863271
 30
0.0
 11
319.9999926258575
 21
149.5513256048602
 31
0.0
  0
LINE
  5
1E2
  8
0
  6
CONTINUOUS
 62
     7
 10
323.6886865915753
 20
171.083816540367
 30
0.0
 11
320.0000003733466
 21
171.0516258634189
 31
0.0
  0
LINE
  5
1E3
  8
0
  6
CONTINUOUS
 62
     7
 10
314.5847947410247
 20
172.5879127535673
 30
0.0
 11
315.147468012891
 21
172.0885774305104
 31
0.0
  0
LINE
  5
1E4
  8
0
  6
CONTINUOUS
 62
     7
 10
319.9581126296078
 20
158.9695875303611
 30
0.0
 11
320.0
 21
158.9674784752451
 31
0.0
  0
LINE
  5
1E5
  8
0
  6
CONTINUOUS
 62
     7
 10
315.4893141195109
 20
182.9857669922057
 30
0.0
 11
315.4893360146929
 21
182.9858963100518
 31
0.0
  0
LINE
  5
1E6
  8
0
  6
CONTINUOUS
 62
     7
 10
313.6421310627815
 20
157.6071101418069
 30
0.0
 11
312.9912734645016
 21
157.6127900900177
 31
0.0
  0
LINE
  5
1E7
  8
0
  6
CONTINUOUS
 62
     7
 10
320.0000592105217
 20
171.1016279511329
 30
0.0
 11
319.9999999999997
 21
172.051663891379
 31
0.0
  0
LINE
  5
1E8
  8
0
  6
CONTINUOUS
 62
     7
 10
320.0
 20
157.6732732450765
 30
0.0
 11
320.0
 21
158.9674784752451
 31
0.0
  0
LINE
  5
1E9
  8
0
  6
CONTINUOUS
 62
     7
 10
320.0418873703922
 20
157.3776798229799
 30
0.0
 11
320.0
 21
157.3799784752451
 31
0.0
  0
LINE
  5
1EA
  8
0
  6
CONTINUOUS
 62
     7
 10
325.0
 20
180.7989246539935
 30
0.0
 11
325.0
 21
183.4373286493764
 31
0.0
  0
LINE
  5
1EB
  8
0
  6
CONTINUOUS
 62
     7
 10
320.0
 20
156.0857732450765
 30
0.0
 11
320.0418873703922
 21
156.0836641899605
 31
0.0
  0
LINE
  5
1EC
  8
0
  6
CONTINUOUS
 62
     7
 10
312.0
 20
180.303018222341
 30
0.0
 11
312.0
 21
176.3627520130818
 31
0.0
  0
LINE
  5
1ED
  8
0
  6
CONTINUOUS
 62
     7
 10
313.6398285593874
 20
163.503530472029
 30
0.0
 11
314.9353567794691
 21
164.5083892531738
 31
0.0
  0
LINE
  5
1EE
  8
0
  6
CONTINUOUS
 62
     7
 10
319.9999993554588
 20
164.5516842100282
 30
0.0
 11
319.999939555132
 21
164.5016236443381
 31
0.0
  0
LINE
  5
1EF
  8
0
  6
CONTINUOUS
 62
     7
 10
325.8269215945445
 20
164.5007750857781
 30
0.0
 11
326.649365781767
 21
163.5008131627139
 31
0.0
  0
LINE
  5
1F0
  8
0
  6
CONTINUOUS
 62
     7
 10
319.9999996266534
 20
171.0516258634189
 30
0.0
 11
316.3113134084247
 21
171.083816540367
 31
0.0
  0
LINE
  5
1F1
  8
0
  6
CONTINUOUS
 62
     7
 10
326.3603878385338
 20
151.0997362779072
 30
0.0
 11
325.0693817703329
 21
149.5948529853723
 31
0.0
  0
LINE
  5
1F2
  8
0
  6
CONTINUOUS
 62
     7
 10
320.0
 20
157.3799784752451
 30
0.0
 11
320.0
 21
156.0857732450765
 31
0.0
  0
LINE
  5
1F3
  8
0
  6
CONTINUOUS
 62
     7
 10
319.9581126296078
 20
157.5519914057043
 30
0.0
 11
318.4063989984895
 21
157.5655330054122
 31
0.0
  0
LINE
  5
1F4
  8
0
  6
CONTINUOUS
 62
     7
 10
316.3113134084247
 20
171.083816540367
 30
0.0
 11
315.1475414983523
 21
172.0884001628283
 31
0.0
  0
LINE
  5
1F5
  8
0
  6
CONTINUOUS
 62
     7
 10
319.9999889753466
 20
151.051682893555
 30
0.0
 11
319.9999319020766
 21
149.6016313863271
 31
0.0
  0
LINE
  5
1F6
  8
0
  6
CONTINUOUS
 62
     7
 10
316.1671076434144
 20
171.0850750061934
 30
0.0
 11
315.5229694987686
 21
171.6561225371649
 31
0.0
  0
LINE
  5
1F7
  8
0
  6
CONTINUOUS
 62
     7
 10
325.0
 20
180.7989246539935
 30
0.0
 11
325.0
 21
179.591331822884
 31
0.0
  0
LINE
  5
1F8
  8
0
  6
CONTINUOUS
 62
     7
 10
319.3553350095592
 20
159.0014309629947
 30
0.0
 11
319.9581126296078
 21
158.9695875303611
 31
0.0
  0
ARC
  5
1F9
  8
0
  6
CONTINUOUS
 62
     7
 10
319.5004513655782
 20
178.6617475293188
 30
0.0
 40
8.477958615829783
 50
314.2396235187157
 51
333.0402022781935
  0
LINE
  5
1FA
  8
0
  6
CONTINUOUS
 62
     7
 10
324.8525318081171
 20
172.0885772859136
 30
0.0
 11
325.4151901066363
 21
172.5878980154809
 31
0.0
  0
LINE
  5
1FB
  8
0
  6
CONTINUOUS
 62
     7
 10
319.9581126296078
 20
157.6755718973417
 30
0.0
 11
318.419746269647
 21
157.7581059774925
 31
0.0
  0
LINE
  5
1FC
  8
0
  6
CONTINUOUS
 62
     7
 10
321.5726499940063
 20
157.2955691877507
 30
0.0
 11
320.0418873703922
 21
157.3776798229799
 31
0.0
  0
LINE
  5
1FD
  8
0
  6
CONTINUOUS
 62
     7
 10
320.0000000006502
 20
171.0516258601551
 30
0.0
 11
320.0000592105216
 21
171.1016279511329
 31
0.0
  0
LINE
  5
1FE
  8
0
  6
CONTINUOUS
 62
     7
 10
319.999939555132
 20
164.5016236443381
 30
0.0
 11
319.9999875372323
 21
163.5515878769409
 31
0.0
  0
LINE
  5
1FF
  8
0
  6
CONTINUOUS
 62
     7
 10
321.5939233298819
 20
157.5377159019923
 30
0.0
 11
320.0418873703922
 21
157.5512603146173
 31
0.0
  0
LINE
  5
200
  8
0
  6
CONTINUOUS
 62
     7
 10
315.1474698987573
 20
172.0887213147965
 30
0.0
 11
320.0000081018655
 21
172.051663876665
 31
0.0
  0
LINE
  5
201
  8
0
  6
CONTINUOUS
 62
     7
 10
328.0
 20
180.303018222341
 30
0.0
 11
328.0
 21
176.3627520130818
 31
0.0
  0
LINE
  5
202
  8
0
  6
CONTINUOUS
 62
     7
 10
320.0418873703922
 20
156.0836641899605
 30
0.0
 11
320.5353628462012
 21
156.0576179688545
 31
0.0
  0
LINE
  5
203
  8
0
  6
CONTINUOUS
 62
     7
 10
320.0
 20
157.6732732450765
 30
0.0
 11
319.9581126296078
 21
157.6755718973417
 31
0.0
  0
LINE
  5
204
  8
0
  6
CONTINUOUS
 62
     7
 10
325.0682549964225
 20
149.5958558514444
 30
0.0
 11
320.0000000000003
 21
149.5516258601608
 31
0.0
  0
ARC
  5
205
  8
0
  6
CONTINUOUS
 62
     7
 10
320.5013679099025
 20
178.6630868089081
 30
0.0
 40
8.48018737206737
 50
206.9622904181694
 51
225.7577404240317
  0
LINE
  5
206
  8
0
  6
CONTINUOUS
 62
     7
 10
328.0
 20
249.4904997072397
 30
0.0
 11
328.0
 21
247.8042200857885
 31
0.0
  0
LINE
  5
207
  8
0
  6
CONTINUOUS
 62
     7
 10
315.0
 20
179.6109988288578
 30
0.0
 11
315.0
 21
180.7940809165013
 31
0.0
  0
LINE
  5
208
  8
0
  6
CONTINUOUS
 62
     7
 10
319.9999994099616
 20
149.55162586531
 30
0.0
 11
312.9869101967524
 21
149.6128281676785
 31
0.0
  0
ARC
  5
209
  8
0
  6
CONTINUOUS
 62
     7
 10
313.0
 20
158.6127520130818
 30
0.0
 40
1.000000000000003
 50
180.0
 51
269.5000000000001
  0
LINE
  5
20A
  8
0
  6
CONTINUOUS
 62
     7
 10
327.0570665805781
 20
174.8181361046096
 30
0.0
 11
328.0000000000001
 21
176.3627520130818
 31
0.0
  0
LINE
  5
20B
  8
0
  6
CONTINUOUS
 62
     7
 10
312.0
 20
176.3627520130818
 30
0.0
 11
312.9429334194211
 21
174.8181361046113
 31
0.0
  0
LINE
  5
20C
  8
0
  6
CONTINUOUS
 62
     7
 10
316.3113134084247
 20
171.083816540367
 30
0.0
 11
316.1671228509263
 21
171.085074872299
 31
0.0
  0
LINE
  5
20D
  8
0
  6
CONTINUOUS
 62
     7
 10
320.0000081006608
 20
172.0516640004189
 30
0.0
 11
324.8524586851791
 21
172.0887207681569
 31
0.0
  0
LINE
  5
20E
  8
0
  6
CONTINUOUS
 62
     7
 10
312.0
 20
180.303018222341
 30
0.0
 11
312.0
 21
180.3383314069136
 31
0.0
  0
LINE
  5
20F
  8
0
  6
CONTINUOUS
 62
     7
 10
320.0418873703922
 20
157.5512603146173
 30
0.0
 11
320.0000000000001
 21
157.5516258601608
 31
0.0
  0
LINE
  5
210
  8
0
  6
CONTINUOUS
 62
     7
 10
327.0087265354984
 20
165.9874673177645
 30
0.0
 11
327.0087265354984
 21
169.9232505195715
 31
0.0
  0
LINE
  5
211
  8
0
  6
CONTINUOUS
 62
     7
 10
311.9935967810409
 20
151.122511196685
 30
0.0
 11
311.9999999999933
 21
151.1127793390529
 31
0.0
  0
LINE
  5
212
  8
0
  6
CONTINUOUS
 62
     7
 10
319.999480132096
 20
182.8888518476624
 30
0.0
 11
324.5053677537358
 21
182.9374852283883
 31
0.0
  0
LINE
  5
213
  8
0
  6
CONTINUOUS
 62
     7
 10
312.0
 20
183.8024330220514
 30
0.0
 11
312.0
 21
184.6684254502421
 31
0.0
  0
LINE
  5
214
  8
0
  6
CONTINUOUS
 62
     7
 10
327.0087265354984
 20
174.7294690461112
 30
0.0
 11
327.0087265354984
 21
169.9232505195715
 31
0.0
  0
LINE
  5
215
  8
0
  6
CONTINUOUS
 62
     7
 10
312.0
 20
182.0703162632951
 30
0.0
 11
312.0
 21
183.8024330220514
 31
0.0
  0
LINE
  5
216
  8
0
  6
CONTINUOUS
 62
     7
 10
320.0
 20
206.6070476110995
 30
0.0
 11
324.5043632677492
 21
206.6463565938187
 31
0.0
  0
LINE
  5
217
  8
0
  6
CONTINUOUS
 62
     7
 10
328.0
 20
212.4891986434369
 30
0.0
 11
328.0
 21
215.4251138075879
 31
0.0
  0
ARC
  5
218
  8
0
  6
CONTINUOUS
 62
     7
 10
315.5
 20
210.0284236549005
 30
0.0
 40
0.4999999999999918
 50
90.99999999999996
 51
180.0000000000002
  0
ARC
  5
219
  8
0
  6
CONTINUOUS
 62
     7
 10
315.5
 20
183.485652791122
 30
0.0
 40
0.4999999999999935
 50
180.0
 51
268.7753950596299
  0
LINE
  5
21A
  8
0
  6
CONTINUOUS
 62
     7
 10
324.474994817562
 20
171.6576589449773
 30
0.0
 11
325.4218181234244
 21
172.5938279919123
 31
0.0
  0
LINE
  5
21B
  8
0
  6
CONTINUOUS
 62
     7
 10
328.0
 20
158.6127520130818
 30
0.0
 11
328.0
 21
161.6214408024869
 31
0.0
  0
LINE
  5
21C
  8
0
  6
CONTINUOUS
 62
     7
 10
328.0
 20
180.3383314069136
 30
0.0
 11
328.0
 21
180.303018222341
 31
0.0
  0
LINE
  5
21D
  8
0
  6
CONTINUOUS
 62
     7
 10
328.0
 20
180.3383314069136
 30
0.0
 11
328.0
 21
182.0703162632951
 31
0.0
  0
ARC
  5
21E
  8
0
  6
CONTINUOUS
 62
     7
 10
327.0
 20
211.6163727884571
 30
0.0
 40
1.000000000000003
 50
270.5000000000001
 51
356.5976076644058
  0
LINE
  5
21F
  8
0
  6
CONTINUOUS
 62
     7
 10
312.0
 20
176.3627520130818
 30
0.0
 11
312.0
 21
172.0189648115178
 31
0.0
  0
ARC
  5
220
  8
0
  6
CONTINUOUS
 62
     7
 10
327.0
 20
158.6127520130818
 30
0.0
 40
1.0
 50
270.4999999999997
 51
0.0
  0
LINE
  5
221
  8
0
  6
CONTINUOUS
 62
     7
 10
319.9581126296078
 20
157.5519914057043
 30
0.0
 11
320.0000000000001
 21
157.5516258601608
 31
0.0
  0
LINE
  5
222
  8
0
  6
CONTINUOUS
 62
     7
 10
312.9912734645016
 20
172.1127900900177
 30
0.0
 11
312.4405107800466
 21
172.117596523149
 31
0.0
  0
LINE
  5
223
  8
0
  6
CONTINUOUS
 62
     7
 10
327.0084925313191
 20
165.9192588274682
 30
0.0
 11
327.9997325666523
 21
165.2764956931643
 31
0.0
  0
LINE
  5
224
  8
0
  6
CONTINUOUS
 62
     7
 10
312.0
 20
184.6684254502421
 30
0.0
 11
312.0
 21
191.0882463431493
 31
0.0
  0
LINE
  5
225
  8
0
  6
CONTINUOUS
 62
     7
 10
324.5043632677492
 20
210.5677386283803
 30
0.0
 11
320.0
 21
210.6070476110995
 31
0.0
  0
ARC
  5
226
  8
0
  6
CONTINUOUS
 62
     7
 10
315.5
 20
207.1856715672984
 30
0.0
 40
0.5000000000000004
 50
179.9999999999998
 51
269.0000000000001
  0
ARC
  5
227
  8
0
  6
CONTINUOUS
 62
     7
 10
313.0
 20
211.6163727884571
 30
0.0
 40
1.000000000000001
 50
180.0
 51
269.5000000000024
  0
ARC
  5
228
  8
0
  6
CONTINUOUS
 62
     7
 10
324.5
 20
183.4373286493764
 30
0.0
 40
0.4999999999999925
 50
270.6162503212631
 51
0.0
  0
LINE
  5
229
  8
0
  6
CONTINUOUS
 62
     7
 10
314.5843085440247
 20
172.5879169212243
 30
0.0
 11
315.525005182438
 21
171.6576589449772
 31
0.0
  0
LINE
  5
22A
  8
0
  6
CONTINUOUS
 62
     7
 10
327.0087265354984
 20
250.4904616303039
 30
0.0
 11
320.0
 21
250.5516258601608
 31
0.0
  0
LINE
  5
22B
  8
0
  6
CONTINUOUS
 62
     7
 10
312.0
 20
171.1214788794227
 30
0.0
 11
312.0
 21
161.4818109178347
 31
0.0
  0
LINE
  5
22C
  8
0
  6
CONTINUOUS
 62
     7
 10
328.0
 20
153.6214408024869
 30
0.0
 11
328.0
 21
157.4818109178347
 31
0.0
  0
LINE
  5
22D
  8
0
  6
CONTINUOUS
 62
     7
 10
312.0
 20
172.0189648115178
 30
0.0
 11
312.0
 21
171.1214788794227
 31
0.0
  0
LINE
  5
22E
  8
0
  6
CONTINUOUS
 62
     7
 10
320.0
 20
210.6070476110995
 30
0.0
 11
315.4912737967814
 21
210.5283475024787
 31
0.0
  0
LINE
  5
22F
  8
0
  6
CONTINUOUS
 62
     7
 10
328.0
 20
183.8024330220514
 30
0.0
 11
328.0
 21
182.0703162632951
 31
0.0
  0
ARC
  5
230
  8
0
  6
CONTINUOUS
 62
     7
 10
324.5
 20
207.1463375553508
 30
0.0
 40
0.5000000000000014
 50
270.4999999999979
 51
0.0000000000003411
  0
LINE
  5
231
  8
0
  6
CONTINUOUS
 62
     7
 10
327.0084925313191
 20
165.9192588274682
 30
0.0
 11
327.0087265354983
 21
165.9874673177645
 31
0.0
  0
LINE
  5
232
  8
0
  6
CONTINUOUS
 62
     7
 10
328.0
 20
191.0882463431493
 30
0.0
 11
328.0
 21
211.5873916786047
 31
0.0
  0
LINE
  5
233
  8
0
  6
CONTINUOUS
 62
     7
 10
322.9679019325937
 20
210.5811471233178
 30
0.0
 11
327.0087265354984
 21
210.616410865393
 31
0.0
  0
LINE
  5
234
  8
0
  6
CONTINUOUS
 62
     7
 10
312.0
 20
153.4818109178347
 30
0.0
 11
312.0
 21
151.1127710518118
 31
0.0
  0
LINE
  5
235
  8
0
  6
CONTINUOUS
 62
     7
 10
315.0889346827989
 20
172.0944840778958
 30
0.0
 11
312.9912734645016
 21
172.1127900900177
 31
0.0
  0
LINE
  5
236
  8
0
  6
CONTINUOUS
 62
     7
 10
327.0087265354984
 20
165.9874673177645
 30
0.0
 11
328.0
 21
165.3447041834605
 31
0.0
  0
LINE
  5
237
  8
0
  6
CONTINUOUS
 62
     7
 10
326.3578689372185
 20
157.6071101418069
 30
0.0
 11
327.0087265354984
 21
157.6127900900177
 31
0.0
  0
LINE
  5
238
  8
0
  6
CONTINUOUS
 62
     7
 10
311.9999999999934
 20
151.1127793390529
 30
0.0
 11
312.992842742652
 21
149.6038188811896
 31
0.0
  0
LINE
  5
239
  8
0
  6
CONTINUOUS
 62
     7
 10
320.0
 20
250.5516258601608
 30
0.0
 11
312.9912734645017
 21
250.4904616303039
 31
0.0
  0
LINE
  5
23A
  8
0
  6
CONTINUOUS
 62
     7
 10
323.6497396711802
 20
171.0263725686067
 30
0.0
 11
324.0871595443074
 21
169.9396391153067
 31
0.0
  0
LINE
  5
23B
  8
0
  6
CONTINUOUS
 62
     7
 10
312.9912734645016
 20
172.1127900900177
 30
0.0
 11
312.9912734645016
 21
174.7288130166069
 31
0.0
  0
LINE
  5
23C
  8
0
  6
CONTINUOUS
 62
     7
 10
328.0
 20
169.2804873852675
 30
0.0
 11
328.0
 21
165.3447041834605
 31
0.0
  0
LINE
  5
23D
  8
0
  6
CONTINUOUS
 62
     7
 10
312.0
 20
182.0703162632951
 30
0.0
 11
312.0
 21
180.3383314069136
 31
0.0
  0
LINE
  5
23E
  8
0
  6
CONTINUOUS
 62
     7
 10
328.0
 20
211.5873916786047
 30
0.0
 11
328.0
 21
212.4891986434369
 31
0.0
  0
ARC
  5
23F
  8
0
  6
CONTINUOUS
 62
     7
 10
327.0
 20
249.4904997072397
 30
0.0
 40
1.000000000000001
 50
0.0
 51
89.50000000000003
  0
ARC
  5
240
  8
0
  6
CONTINUOUS
 62
     7
 10
313.0
 20
249.4904997072397
 30
0.0
 40
1.000000000000003
 50
90.49999999999766
 51
180.0
  0
LINE
  5
241
  8
0
  6
CONTINUOUS
 62
     7
 10
328.0
 20
169.2804873852675
 30
0.0
 11
328.0
 21
176.3627520130818
 31
0.0
  0
LINE
  5
242
  8
0
  6
CONTINUOUS
 62
     7
 10
312.4405107800466
 20
172.117596523149
 30
0.0
 11
312.0
 21
172.0189648115178
 31
0.0
  0
LINE
  5
243
  8
0
  6
CONTINUOUS
 62
     7
 10
312.0
 20
211.6163727884571
 30
0.0
 11
312.0
 21
191.0882463431492
 31
0.0
  0
LINE
  5
244
  8
0
  6
CONTINUOUS
 62
     7
 10
315.4912737967814
 20
206.6857477197202
 30
0.0
 11
320.0
 21
206.6070476110995
 31
0.0
  0
ARC
  5
245
  8
0
  6
CONTINUOUS
 62
     7
 10
324.5
 20
210.0677576668482
 30
0.0
 40
0.5000000000000004
 50
359.9999999999998
 51
89.50000000000216
  0
LINE
  5
246
  8
0
  6
CONTINUOUS
 62
     7
 10
328.0
 20
191.0882463431493
 30
0.0
 11
328.0
 21
184.6684254502421
 31
0.0
  0
LINE
  5
247
  8
0
  6
CONTINUOUS
 62
     7
 10
312.9912734645017
 20
210.616410865393
 30
0.0
 11
318.0214991719913
 21
210.572512750686
 31
0.0
  0
LINE
  5
248
  8
0
  6
CONTINUOUS
 62
     7
 10
314.9985840564803
 20
179.800554040726
 30
0.0
 11
314.9640221972496
 21
179.708417019117
 31
0.0
  0
LINE
  5
249
  8
0
  6
CONTINUOUS
 62
     7
 10
328.0
 20
184.6684254502421
 30
0.0
 11
328.0
 21
183.8024330220514
 31
0.0
  0
LINE
  5
24A
  8
0
  6
CONTINUOUS
 62
     7
 10
325.035367902646
 20
179.7281780605
 30
0.0
 11
325.0034970177736
 21
179.8019590215808
 31
0.0
  0
LINE
  5
24B
  8
0
  6
CONTINUOUS
 62
     7
 10
315.4893360134579
 20
182.9858962970816
 30
0.0
 11
319.9994781514774
 21
182.8888516376287
 31
0.0
  0
LINE
  5
24C
  8
0
  6
CONTINUOUS
 62
     7
 10
399.61799149824
 20
118.7498479761066
 30
0.0
 11
399.6901025056402
 21
119.2456367994357
 31
0.0
  0
LINE
  5
24D
  8
0
  6
CONTINUOUS
 62
     7
 10
397.9489031617959
 20
112.0
 30
0.0
 11
392.7302849292847
 21
112.0
 31
0.0
  0
LINE
  5
24E
  8
0
  6
CONTINUOUS
 62
     7
 10
387.8745958892683
 20
126.3603878385338
 30
0.0
 11
387.8858623285426
 21
125.0693817703329
 31
0.0
  0
LINE
  5
24F
  8
0
  6
CONTINUOUS
 62
     7
 10
397.5747075300268
 20
125.0693817703329
 30
0.0
 11
397.5859739693011
 21
126.3603878385338
 31
0.0
  0
ARC
  5
250
  8
0
  6
CONTINUOUS
 62
     7
 10
392.7887721490364
 20
119.9896886261647
 30
0.0
 40
7.060550515649257
 50
134.0043061004547
 51
179.9163240301927
  0
ARC
  5
251
  8
0
  6
CONTINUOUS
 62
     7
 10
392.7302849292847
 20
120.0
 30
0.0
 40
4.8
 50
0.4999999999998178
 51
179.5000000000002
  0
ARC
  5
252
  8
0
  6
CONTINUOUS
 62
     7
 10
409.6730549117362
 20
126.4580254399207
 30
0.0
 40
7.725932628740089
 50
273.9017532260135
 51
291.0080850929503
  0
ARC
  5
253
  8
0
  6
CONTINUOUS
 62
     7
 10
409.673505398244
 20
113.5440141665481
 30
0.0
 40
7.723867102200884
 50
68.98961045788468
 51
86.10055122315163
  0
LINE
  5
254
  8
0
  6
CONTINUOUS
 62
     7
 10
381.7302849292847
 20
116.7081655870087
 30
0.0
 11
381.7302849292847
 21
123.2918344129913
 31
0.0
  0
LINE
  5
255
  8
0
  6
CONTINUOUS
 62
     7
 10
410.198772327623
 20
121.25
 30
0.0
 11
409.5748576702566
 21
121.25
 31
0.0
  0
LINE
  5
256
  8
0
  6
CONTINUOUS
 62
     7
 10
399.6952468385496
 20
120.7543632666558
 30
0.0
 11
399.6240345701194
 21
121.2501594622016
 31
0.0
  0
LINE
  5
257
  8
0
  6
CONTINUOUS
 62
     7
 10
397.5916319353931
 20
127.0087265354984
 30
0.0
 11
397.6002826478623
 21
128.0
 31
0.0
  0
LINE
  5
258
  8
0
  6
CONTINUOUS
 62
     7
 10
387.8858719978649
 20
125.0682737757466
 30
0.0
 11
387.9301021530331
 21
120.0000000000003
 31
0.0
  0
LINE
  5
259
  8
0
  6
CONTINUOUS
 62
     7
 10
406.1250291716569
 20
121.25
 30
0.0
 11
409.5748576702566
 21
121.25
 31
0.0
  0
LINE
  5
25A
  8
0
  6
CONTINUOUS
 62
     7
 10
406.1250291716569
 20
118.75
 30
0.0
 11
400.7087927716287
 21
118.75
 31
0.0
  0
LINE
  5
25B
  8
0
  6
CONTINUOUS
 62
     7
 10
400.7087927716286
 20
121.25
 30
0.0
 11
406.1250291716569
 21
121.25
 31
0.0
  0
LINE
  5
25C
  8
0
  6
CONTINUOUS
 62
     7
 10
397.6002826478623
 20
128.0
 30
0.0
 11
397.9489031617959
 21
128.0
 31
0.0
  0
LINE
  5
25D
  8
0
  6
CONTINUOUS
 62
     7
 10
397.9489031617959
 20
128.0
 30
0.0
 11
398.8148955899866
 21
128.0
 31
0.0
  0
LINE
  5
25E
  8
0
  6
CONTINUOUS
 62
     7
 10
395.9865100733297
 20
120.7140140202609
 30
0.0
 11
395.9802849292847
 21
120.0
 31
0.0
  0
ARC
  5
25F
  8
0
  6
CONTINUOUS
 62
     7
 10
392.7302849292847
 20
120.0
 30
0.0
 40
4.8
 50
180.5
 51
359.5000000000001
  0
ARC
  5
260
  8
0
  6
CONTINUOUS
 62
     7
 10
392.7302849292847
 20
120.0
 30
0.0
 40
7.999999999999991
 50
180.0000482321193
 51
351.0085979576505
  0
LINE
  5
261
  8
0
  6
CONTINUOUS
 62
     7
 10
398.8148955899866
 20
112.0
 30
0.0
 11
397.9489031617958
 21
112.0
 31
0.0
  0
LINE
  5
262
  8
0
  6
CONTINUOUS
 62
     7
 10
397.5304677055362
 20
120.0000000000003
 30
0.0
 11
397.5746978607045
 21
125.0682737757466
 31
0.0
  0
LINE
  5
263
  8
0
  6
CONTINUOUS
 62
     7
 10
388.9399533857567
 20
119.6015344937627
 30
0.0
 11
388.9175870024345
 21
120.0
 31
0.0
  0
ARC
  5
264
  8
0
  6
CONTINUOUS
 62
     7
 10
392.7287419274205
 20
119.9857337175476
 30
0.0
 40
6.99922661447741
 50
179.8832207359345
 51
349.8296933965224
  0
ARC
  5
265
  8
0
  6
CONTINUOUS
 62
     7
 10
392.7302849292845
 20
119.9999999999999
 30
0.0
 40
8.000000000000178
 50
8.987728432109577
 51
52.63018082938566
  0
LINE
  5
266
  8
0
  6
CONTINUOUS
 62
     7
 10
400.7087927716287
 20
118.75
 30
0.0
 11
399.9513608395943
 21
118.75
 31
0.0
  0
LINE
  5
267
  8
0
  6
CONTINUOUS
 62
     7
 10
420.6499686702568
 20
112.0
 30
0.0
 11
398.8148955899866
 21
112.0
 31
0.0
  0
LINE
  5
268
  8
0
  6
CONTINUOUS
 62
     7
 10
398.8148955899867
 20
128.0
 30
0.0
 11
420.6499686702568
 21
128.0
 31
0.0
  0
ARC
  5
269
  8
0
  6
CONTINUOUS
 62
     7
 10
392.7302849292847
 20
120.0
 30
0.0
 40
8.000000000000076
 50
127.3698191706144
 51
180.0000789342654
  0
LINE
  5
26A
  8
0
  6
CONTINUOUS
 62
     7
 10
397.5859519871823
 20
126.3578689372185
 30
0.0
 11
397.591631935393
 21
127.0087265354984
 31
0.0
  0
LINE
  5
26B
  8
0
  6
CONTINUOUS
 62
     7
 10
395.9972543513636
 20
121.9495796456542
 30
0.0
 11
395.9865100733297
 21
120.7140140202609
 31
0.0
  0
LINE
  5
26C
  8
0
  6
CONTINUOUS
 62
     7
 10
395.9807730267041
 20
119.9440653756484
 30
0.0
 11
395.9973591845807
 21
118.0383447411492
 31
0.0
  0
LINE
  5
26D
  8
0
  6
CONTINUOUS
 62
     7
 10
399.9575635822892
 20
121.25
 30
0.0
 11
400.7087927716286
 21
121.25
 31
0.0
  0
ARC
  5
26E
  8
0
  6
CONTINUOUS
 62
     7
 10
392.7302849292847
 20
120.0
 30
0.0
 40
8.0
 50
52.63010235415589
 51
127.3698976458441
  0
LINE
  5
26F
  8
0
  6
CONTINUOUS
 62
     7
 10
409.5748576702566
 20
118.75
 30
0.0
 11
406.1250291716569
 21
118.75
 31
0.0
  0
ARC
  5
270
  8
0
  6
CONTINUOUS
 62
     7
 10
392.6223803713075
 20
119.9538928567119
 30
0.0
 40
7.12063681314652
 50
10.48881703382028
 51
45.90977790258744
  0
LINE
  5
271
  8
0
  6
CONTINUOUS
 62
     7
 10
409.5748576702566
 20
118.75
 30
0.0
 11
410.198772327623
 21
118.75
 31
0.0
  0
LINE
  5
272
  8
0
  6
CONTINUOUS
 62
     7
 10
392.7302849292847
 20
128.0
 30
0.0
 11
397.6002826478623
 21
128.0
 31
0.0
  0
LINE
  5
273
  8
0
  6
CONTINUOUS
 62
     7
 10
386.3700227451282
 20
124.8525318081171
 30
0.0
 11
386.485712707614
 21
125.0005317485583
 31
0.0
  0
LINE
  5
274
  8
0
  6
CONTINUOUS
 62
     7
 10
385.5638276123636
 20
115.0
 30
0.0
 11
386.4877162703792
 21
115.0
 31
0.0
  0
LINE
  5
275
  8
0
  6
CONTINUOUS
 62
     7
 10
386.4878069894281
 20
125.0
 30
0.0
 11
385.560225222305
 21
125.0
 31
0.0
  0
LINE
  5
276
  8
0
  6
CONTINUOUS
 62
     7
 10
366.4004013556719
 20
127.9982373507674
 30
0.0
 11
367.4898115031167
 21
127.9982373507674
 31
0.0
  0
LINE
  5
277
  8
0
  6
CONTINUOUS
 62
     7
 10
366.058098040959
 20
127.267646483614
 30
0.0
 11
366.0145942473948
 21
127.1452508225926
 31
0.0
  0
LINE
  5
278
  8
0
  6
CONTINUOUS
 62
     7
 10
364.8382689081208
 20
127.0000380769358
 30
0.0
 11
366.0074038684402
 21
127.0000380769358
 31
0.0
  0
LINE
  5
279
  8
0
  6
CONTINUOUS
 62
     7
 10
354.5090050149666
 20
125.0
 30
0.0
 11
356.9031356692174
 21
125.0
 31
0.0
  0
LINE
  5
27A
  8
0
  6
CONTINUOUS
 62
     7
 10
360.5018436799683
 20
127.9982373507674
 30
0.0
 11
364.4065799932189
 21
127.9982373507674
 31
0.0
  0
LINE
  5
27B
  8
0
  6
CONTINUOUS
 62
     7
 10
367.430607245687
 20
112.0
 30
0.0
 11
360.561191734131
 21
112.0
 31
0.0
  0
LINE
  5
27C
  8
0
  6
CONTINUOUS
 62
     7
 10
356.9029672898352
 20
115.0
 30
0.0
 11
354.5483390269143
 21
115.0
 31
0.0
  0
LINE
  5
27D
  8
0
  6
CONTINUOUS
 62
     7
 10
366.4004013556719
 20
127.9982373507674
 30
0.0
 11
366.058098040959
 21
127.2676464836141
 31
0.0
  0
LINE
  5
27E
  8
0
  6
CONTINUOUS
 62
     7
 10
367.4984933474811
 20
127.9989915717283
 30
0.0
 11
367.4804676089991
 21
128.0
 31
0.0
  0
LINE
  5
27F
  8
0
  6
CONTINUOUS
 62
     7
 10
366.0145946158661
 20
127.1452524435345
 30
0.0
 11
366.0087633144055
 21
127.1013722058462
 31
0.0
  0
LINE
  5
280
  8
0
  6
CONTINUOUS
 62
     7
 10
367.489811503117
 20
127.9982373507676
 30
0.0
 11
367.4987933887751
 21
127.9987388613775
 31
0.0
  0
LINE
  5
281
  8
0
  6
CONTINUOUS
 62
     7
 10
364.416429172014
 20
128.0
 30
0.0
 11
360.6248044257054
 21
128.0
 31
0.0
  0
LINE
  5
282
  8
0
  6
CONTINUOUS
 62
     7
 10
356.9029672898352
 20
115.0
 30
0.0
 11
356.8702166571712
 21
115.4912737967814
 31
0.0
  0
LINE
  5
283
  8
0
  6
CONTINUOUS
 62
     7
 10
356.9031356692173
 20
125.0
 30
0.0
 11
385.560225222305
 21
125.0
 31
0.0
  0
LINE
  5
284
  8
0
  6
CONTINUOUS
 62
     7
 10
420.6499686702568
 20
128.0
 30
0.0
 11
424.9691587763637
 21
128.0
 31
0.0
  0
LINE
  5
285
  8
0
  6
CONTINUOUS
 62
     7
 10
385.5638276123636
 20
115.0
 30
0.0
 11
356.9029672898352
 21
115.0
 31
0.0
  0
LINE
  5
286
  8
0
  6
CONTINUOUS
 62
     7
 10
424.9691587763637
 20
112.0
 30
0.0
 11
420.6499686702568
 21
112.0
 31
0.0
  0
LINE
  5
287
  8
0
  6
CONTINUOUS
 62
     7
 10
365.5432534877407
 20
114.0
 30
0.0
 11
366.2035539218651
 21
114.0
 31
0.0
  0
LINE
  5
288
  8
0
  6
CONTINUOUS
 62
     7
 10
356.8596676414833
 20
120.0
 30
0.0
 11
356.8702166571712
 21
115.4912737967814
 31
0.0
  0
LINE
  5
289
  8
0
  6
CONTINUOUS
 62
     7
 10
356.8650814035972
 20
124.5043632677492
 30
0.0
 11
356.9031356692173
 21
125.0
 31
0.0
  0
LINE
  5
28A
  8
0
  6
CONTINUOUS
 62
     7
 10
356.8650814035972
 20
124.5043632677492
 30
0.0
 11
356.8596676414832
 21
120.0
 31
0.0
  0
LINE
  5
28B
  8
0
  6
CONTINUOUS
 62
     7
 10
326.3578689372185
 20
157.4961415785147
 30
0.0
 11
328.0
 21
157.4818109178347
 31
0.0
  0
LINE
  5
28C
  8
0
  6
CONTINUOUS
 62
     7
 10
328.0
 20
165.3447041834605
 30
0.0
 11
328.0
 21
161.6214408024869
 31
0.0
  0
ARC
  5
28D
  8
0
  6
CONTINUOUS
 62
     7
 10
320.0001215405267
 20
157.5516258601608
 30
0.0
 40
1.595895024017787
 50
359.4999619213719
 51
90.00436354468043
  0
LINE
  5
28E
  8
0
  6
CONTINUOUS
 62
     7
 10
312.0
 20
161.4818109178347
 30
0.0
 11
312.0
 21
158.6127520130818
 31
0.0
  0
ARC
  5
28F
  8
0
  6
CONTINUOUS
 62
     7
 10
319.9924911230518
 20
157.582032058868
 30
0.0
 40
1.617701444413843
 50
270.2659504968678
 51
325.1008622389801
  0
LINE
  5
290
  8
0
  6
CONTINUOUS
 62
     7
 10
318.406542785869
 20
157.5655317505988
 30
0.0
 11
318.4040442115043
 21
157.5655535553269
 31
0.0
  0
LINE
  5
291
  8
0
  6
CONTINUOUS
 62
     7
 10
313.6421310627815
 20
158.6002126849869
 30
0.0
 11
313.6421310627815
 21
153.4961415785147
 31
0.0
  0
LINE
  5
292
  8
0
  6
CONTINUOUS
 62
     7
 10
319.999986323216
 20
163.5515876773076
 30
0.0
 11
313.6421244421961
 21
163.503024679388
 31
0.0
  0
LINE
  5
293
  8
0
  6
CONTINUOUS
 62
     7
 10
314.9360784105057
 20
164.5074336859465
 30
0.0
 11
319.9999999999997
 21
164.5516258601608
 31
0.0
  0
LINE
  5
294
  8
0
  6
CONTINUOUS
 62
     7
 10
382.1867070579108
 20
153.7616940981236
 30
0.0
 11
384.2738628006585
 21
153.5790916316202
 31
0.0
  0
LINE
  5
295
  8
0
  6
CONTINUOUS
 62
     7
 10
327.9982373507674
 20
214.8118747578208
 30
0.0
 11
328.0
 21
215.4251138075879
 31
0.0
  0
LINE
  5
296
  8
0
  6
CONTINUOUS
 62
     7
 10
384.8194521913974
 20
176.7448997613508
 30
0.0
 11
384.7332110679914
 21
176.3316753303606
 31
0.0
  0
LINE
  5
297
  8
0
  6
CONTINUOUS
 62
     7
 10
328.0
 20
215.981320138095
 30
0.0
 11
327.9982373507674
 21
215.2986185132515
 31
0.0
  0
LINE
  5
298
  8
0
  6
CONTINUOUS
 62
     7
 10
312.0
 20
240.0826816242501
 30
0.0
 11
312.0
 21
247.8042200857885
 31
0.0
  0
ARC
  5
299
  8
0
  6
CONTINUOUS
 62
     7
 10
382.2302849292847
 20
160.8434602731521
 30
0.0
 40
0.5000000000000063
 50
95.00000000000094
 51
180.0
  0
LINE
  5
29A
  8
0
  6
CONTINUOUS
 62
     7
 10
384.2738628006585
 20
161.5241600887014
 30
0.0
 11
382.1867070579108
 21
161.3415576221979
 31
0.0
  0
ARC
  5
29B
  8
0
  6
CONTINUOUS
 62
     7
 10
382.2302849292847
 20
154.2597914471695
 30
0.0
 40
0.5000000000000004
 50
180.0
 51
264.9999999999991
  0
CIRCLE
  5
29C
  8
0
  6
CONTINUOUS
 62
     7
 10
320.0
 20
157.5516258601608
 30
0.0
 40
2.149999999999985
  0
LINE
  5
29D
  8
0
  6
CONTINUOUS
 62
     7
 10
315.0
 20
183.485652791122
 30
0.0
 11
315.0
 21
207.1856715672984
 31
0.0
  0
ARC
  5
29E
  8
0
  6
CONTINUOUS
 62
     7
 10
319.9958629280809
 20
157.5515343067577
 30
0.0
 40
1.597654010957205
 50
325.9287371669559
 51
359.5045779208276
  0
LINE
  5
29F
  8
0
  6
CONTINUOUS
 62
     7
 10
312.0
 20
215.2944896592828
 30
0.0
 11
312.0
 21
240.0826816242501
 31
0.0
  0
LINE
  5
2A0
  8
0
  6
CONTINUOUS
 62
     7
 10
320.0
 20
155.9643480415069
 30
0.0
 11
320.0
 21
155.9557308453993
 31
0.0
  0
LINE
  5
2A1
  8
0
  6
CONTINUOUS
 62
     7
 10
321.593457214131
 20
157.5377199697228
 30
0.0
 11
321.5959557884957
 21
157.5376981649947
 31
0.0
  0
LINE
  5
2A2
  8
0
  6
CONTINUOUS
 62
     7
 10
320.0
 20
159.1475208749223
 30
0.0
 11
320.0
 21
159.1389032251962
 31
0.0
  0
ARC
  5
2A3
  8
0
  6
CONTINUOUS
 62
     7
 10
320.0044050282965
 20
157.5516496768743
 30
0.0
 40
1.597922544351345
 50
148.1480401227848
 51
179.5022322930556
  0
LINE
  5
2A4
  8
0
  6
CONTINUOUS
 62
     7
 10
384.7992537546032
 20
176.6970615606218
 30
0.0
 11
384.7901094400756
 21
176.672711194612
 31
0.0
  0
LINE
  5
2A5
  8
0
  6
CONTINUOUS
 62
     7
 10
325.0
 20
210.0677576668482
 30
0.0
 11
325.0
 21
207.1463375553508
 31
0.0
  0
ARC
  5
2A6
  8
0
  6
CONTINUOUS
 62
     7
 10
384.2302849292847
 20
153.0809942825743
 30
0.0
 40
0.5000000000000063
 50
0.0
 51
85.00000000000006
  0
ARC
  5
2A7
  8
0
  6
CONTINUOUS
 62
     7
 10
384.2302849292847
 20
162.0222574377473
 30
0.0
 40
0.5000000000000004
 50
275.0000000000001
 51
0.0
  0
LINE
  5
2A8
  8
0
  6
CONTINUOUS
 62
     7
 10
315.0
 20
207.1856715672984
 30
0.0
 11
315.0
 21
210.0284236549005
 31
0.0
  0
LINE
  5
2A9
  8
0
  6
CONTINUOUS
 62
     7
 10
325.0
 20
207.1463375553508
 30
0.0
 11
325.0
 21
183.4373286493764
 31
0.0
  0
LINE
  5
2AA
  8
0
  6
CONTINUOUS
 62
     7
 10
384.2743869979784
 20
161.5242059500244
 30
0.0
 11
384.2738628006585
 21
161.5241600887014
 31
0.0
  0
LINE
  5
2AB
  8
0
  6
CONTINUOUS
 62
     7
 10
328.0
 20
240.0826816242501
 30
0.0
 11
328.0
 21
215.981320138095
 31
0.0
  0
ARC
  5
2AC
  8
0
  6
CONTINUOUS
 62
     7
 10
320.0080984187972
 20
157.5221083611334
 30
0.0
 40
1.616815146158213
 50
90.28698837907058
 51
147.3278580176192
  0
LINE
  5
2AD
  8
0
  6
CONTINUOUS
 62
     7
 10
312.0
 20
151.1127710522757
 30
0.0
 11
319.9999932655257
 21
151.0516830291693
 31
0.0
  0
LINE
  5
2AE
  8
0
  6
CONTINUOUS
 62
     7
 10
312.0
 20
153.4818109178347
 30
0.0
 11
313.6421310627815
 21
153.4961415785147
 31
0.0
  0
LINE
  5
2AF
  8
0
  6
CONTINUOUS
 62
     7
 10
328.0
 20
247.8042200857885
 30
0.0
 11
328.0
 21
240.0826816242501
 31
0.0
  0
LINE
  5
2B0
  8
0
  6
CONTINUOUS
 62
     7
 10
384.7865873503114
 20
176.6627805718576
 30
0.0
 11
384.7315547134765
 21
176.3314895075443
 31
0.0
  0
LINE
  5
2B1
  8
0
  6
CONTINUOUS
 62
     7
 10
326.3578689372185
 20
153.6071101418069
 30
0.0
 11
328.0
 21
153.6214408024869
 31
0.0
  0
LINE
  5
2B2
  8
0
  6
CONTINUOUS
 62
     7
 10
326.3578689372185
 20
153.6071101418069
 30
0.0
 11
326.3578689372185
 21
151.1002317241797
 31
0.0
  0
LINE
  5
2B3
  8
0
  6
CONTINUOUS
 62
     7
 10
319.9999889786973
 20
151.051682893555
 30
0.0
 11
326.3578755877825
 21
151.1002461172411
 31
0.0
  0
LINE
  5
2B4
  8
0
  6
CONTINUOUS
 62
     7
 10
312.0
 20
161.4818109178347
 30
0.0
 11
313.6421310627815
 21
161.4961415785147
 31
0.0
  0
LINE
  5
2B5
  8
0
  6
CONTINUOUS
 62
     7
 10
313.6421310627815
 20
163.5030390353348
 30
0.0
 11
313.6421310627815
 21
161.4961415785147
 31
0.0
  0
LINE
  5
2B6
  8
0
  6
CONTINUOUS
 62
     7
 10
326.649365781767
 20
163.5008131627139
 30
0.0
 11
319.9999875413912
 21
163.5515878769409
 31
0.0
  0
LINE
  5
2B7
  8
0
  6
CONTINUOUS
 62
     7
 10
327.9982373507674
 20
215.2986185132515
 30
0.0
 11
327.9982373507674
 21
211.5570247342944
 31
0.0
  0
LINE
  5
2B8
  8
0
  6
CONTINUOUS
 62
     7
 10
312.0
 20
211.6163727884571
 30
0.0
 11
312.0
 21
215.2944896592828
 31
0.0
  0
CIRCLE
  5
2B9
  8
0
  6
CONTINUOUS
 62
     7
 10
320.0
 20
157.5516258601608
 30
0.0
 40
1.645636732250821
  0
ARC
  5
2BA
  8
0
  6
CONTINUOUS
 62
     7
 10
319.9998784594733
 20
157.5516258601608
 30
0.0
 40
1.595895024017787
 50
179.4999619213729
 51
270.0043635446807
  0
LINE
  5
2BB
  8
0
  6
CONTINUOUS
 62
     7
 10
328.0
 20
165.3447041834605
 30
0.0
 11
327.9997325666523
 21
165.2764956931643
 31
0.0
  0
LINE
  5
2BC
  8
0
  6
CONTINUOUS
 62
     7
 10
384.7901094400756
 20
176.672711194612
 30
0.0
 11
384.7865873503114
 21
176.6627805718576
 31
0.0
  0
LINE
  5
2BD
  8
0
  6
CONTINUOUS
 62
     7
 10
326.3578689372185
 20
161.6071101418069
 30
0.0
 11
328.0
 21
161.6214408024869
 31
0.0
  0
LINE
  5
2BE
  8
0
  6
CONTINUOUS
 62
     7
 10
326.3578689372185
 20
161.6071101418069
 30
0.0
 11
326.3578689372185
 21
157.4961415785147
 31
0.0
  0
LINE
  5
2BF
  8
0
  6
CONTINUOUS
 62
     7
 10
328.0
 20
215.4251138075879
 30
0.0
 11
328.0
 21
215.981320138095
 31
0.0
  0
LINE
  5
2C0
  8
0
  6
CONTINUOUS
 62
     7
 10
404.8802849292847
 20
192.0072085481989
 30
0.0
 11
393.7302468523488
 21
185.5697310630055
 31
0.0
  0
ARC
  5
2C1
  8
0
  6
CONTINUOUS
 62
     7
 10
392.7302849292847
 20
239.0516258601608
 30
0.0
 40
11.5
 50
89.99999999999994
 51
123.021983313398
  0
LINE
  5
2C2
  8
0
  6
CONTINUOUS
 62
     7
 10
392.7302849292847
 20
182.1056294478677
 30
0.0
 11
392.7302849292847
 21
183.837746206624
 31
0.0
  0
LINE
  5
2C3
  8
0
  6
CONTINUOUS
 62
     7
 10
387.8745958892683
 20
151.0997362779072
 30
0.0
 11
387.8858623285426
 21
149.5948529853723
 31
0.0
  0
LINE
  5
2C4
  8
0
  6
CONTINUOUS
 62
     7
 10
387.9304676985766
 20
164.5512603146173
 30
0.0
 11
387.9301021530331
 21
164.5516258601608
 31
0.0
  0
LINE
  5
2C5
  8
0
  6
CONTINUOUS
 62
     7
 10
400.6349037344988
 20
151.0612279893856
 30
0.0
 11
399.9575635822892
 21
150.0581900501967
 31
0.0
  0
ARC
  5
2C6
  8
0
  6
CONTINUOUS
 62
     7
 10
364.00006558121
 20
215.0552466355362
 30
0.0
 40
4.500000000000065
 50
183.989299345163
 51
230.8509954910658
  0
ARC
  5
2C7
  8
0
  6
CONTINUOUS
 62
     7
 10
392.7302849292847
 20
239.0516258601608
 30
0.0
 40
2.500000000000002
 50
4.999999999999943
 51
90.0
  0
ARC
  5
2C8
  8
0
  6
CONTINUOUS
 62
     7
 10
392.7302849292847
 20
213.0516258601608
 30
0.0
 40
24.29999999999999
 50
300.0
 51
80.94409920153554
  0
ARC
  5
2C9
  8
0
  6
CONTINUOUS
 62
     7
 10
392.7302849292847
 20
213.0516258601608
 30
0.0
 40
24.29999999999999
 50
99.05590079846444
 51
176.0107006548372
  0
LINE
  5
2CA
  8
0
  6
CONTINUOUS
 62
     7
 10
385.7280530431611
 20
164.5516842100282
 30
0.0
 11
384.7276143610881
 21
163.5515878769409
 31
0.0
  0
LINE
  5
2CB
  8
0
  6
CONTINUOUS
 62
     7
 10
399.6240346009155
 20
149.5625358350279
 30
0.0
 11
397.5768499219892
 21
149.5958558514444
 31
0.0
  0
LINE
  5
2CC
  8
0
  6
CONTINUOUS
 62
     7
 10
387.9301021530331
 20
153.5516258601608
 30
0.0
 11
387.9304676985766
 21
153.5512603146173
 31
0.0
  0
LINE
  5
2CD
  8
0
  6
CONTINUOUS
 62
     7
 10
385.7281111827829
 20
164.5516258601608
 30
0.0
 11
387.9301021530331
 21
164.5516258601608
 31
0.0
  0
LINE
  5
2CE
  8
0
  6
CONTINUOUS
 62
     7
 10
400.7143167562382
 20
149.5516258601608
 30
0.0
 11
397.5304677055362
 21
149.5516258601608
 31
0.0
  0
LINE
  5
2CF
  8
0
  6
CONTINUOUS
 62
     7
 10
388.8258134371886
 20
164.5272606978953
 30
0.0
 11
387.9304676985766
 21
164.5512603146173
 31
0.0
  0
LINE
  5
2D0
  8
0
  6
CONTINUOUS
 62
     7
 10
399.6939435959098
 20
149.5578630163989
 30
0.0
 11
399.9575635822892
 21
150.0581900501967
 31
0.0
  0
LINE
  5
2D1
  8
0
  6
CONTINUOUS
 62
     7
 10
387.9301021530331
 20
161.3487284752451
 30
0.0
 11
387.9301021530331
 21
160.0545232450765
 31
0.0
  0
LINE
  5
2D2
  8
0
  6
CONTINUOUS
 62
     7
 10
387.8837199365802
 20
149.5958558514444
 30
0.0
 11
385.7282291628628
 21
149.5516258601608
 31
0.0
  0
LINE
  5
2D3
  8
0
  6
CONTINUOUS
 62
     7
 10
397.5301021599927
 20
149.5519914057043
 30
0.0
 11
397.5304677055362
 21
149.5516258601608
 31
0.0
  0
LINE
  5
2D4
  8
0
  6
CONTINUOUS
 62
     7
 10
399.6952468385496
 20
149.5582090886551
 30
0.0
 11
399.6240345701194
 21
149.5625358365048
 31
0.0
  0
LINE
  5
2D5
  8
0
  6
CONTINUOUS
 62
     7
 10
384.7278527660079
 20
151.051682893555
 30
0.0
 11
385.7284294068812
 21
149.5513256048602
 31
0.0
  0
LINE
  5
2D6
  8
0
  6
CONTINUOUS
 62
     7
 10
387.9301021530331
 20
159.7612284752451
 30
0.0
 11
387.9301021530331
 21
159.1475208749223
 31
0.0
  0
ARC
  5
2D7
  8
0
  6
CONTINUOUS
 62
     7
 10
392.7302849292847
 20
213.0516258601608
 30
0.0
 40
33.30000000000001
 50
123.0219833133979
 51
176.010700654837
  0
ARC
  5
2D8
  8
0
  6
CONTINUOUS
 62
     7
 10
392.7302849292847
 20
213.0516258601608
 30
0.0
 40
33.3
 50
330.0
 51
56.97801668660196
  0
LINE
  5
2D9
  8
0
  6
CONTINUOUS
 62
     7
 10
400.6320252439243
 20
160.1596587228087
 30
0.0
 11
410.198772327623
 21
176.7297507349363
 31
0.0
  0
LINE
  5
2DA
  8
0
  6
CONTINUOUS
 62
     7
 10
397.5304677055362
 20
149.5516258601608
 30
0.0
 11
397.5746978607045
 21
149.5958560153291
 31
0.0
  0
LINE
  5
2DB
  8
0
  6
CONTINUOUS
 62
     7
 10
387.916174457867
 20
157.5376981649947
 30
0.0
 11
387.9301021530332
 21
159.1475208749223
 31
0.0
  0
LINE
  5
2DC
  8
0
  6
CONTINUOUS
 62
     7
 10
387.6486116077775
 20
171.0516258601608
 30
0.0
 11
390.240640489148
 21
174.140685591642
 31
0.0
  0
LINE
  5
2DD
  8
0
  6
CONTINUOUS
 62
     7
 10
397.5747075300268
 20
149.5948529853723
 30
0.0
 11
397.585973969301
 21
151.0997362779072
 31
0.0
  0
LINE
  5
2DE
  8
0
  6
CONTINUOUS
 62
     7
 10
387.9301021530331
 20
149.5516258601608
 30
0.0
 11
385.7288795069271
 21
149.5516258601608
 31
0.0
  0
LINE
  5
2DF
  8
0
  6
CONTINUOUS
 62
     7
 10
387.9304676985766
 20
160.0524141899605
 30
0.0
 11
387.9301021530331
 21
160.0545232450765
 31
0.0
  0
LINE
  5
2E0
  8
0
  6
CONTINUOUS
 62
     7
 10
395.2207716745141
 20
239.2695152170299
 30
0.0
 11
395.2969100033898
 21
238.3992501357354
 31
0.0
  0
LINE
  5
2E1
  8
0
  6
CONTINUOUS
 62
     7
 10
387.8858719978649
 20
149.5958560153291
 30
0.0
 11
387.9301021530331
 21
149.5516258601608
 31
0.0
  0
LINE
  5
2E2
  8
0
  6
CONTINUOUS
 62
     7
 10
374.5830910535879
 20
240.97239509093
 30
0.0
 11
386.4632359932332
 21
248.6939335524685
 31
0.0
  0
ARC
  5
2E3
  8
0
  6
CONTINUOUS
 62
     7
 10
364.00006558121
 20
215.0552466355362
 30
0.0
 40
4.500000000000055
 50
230.8509954910658
 51
259.1490045089342
  0
ARC
  5
2E4
  8
0
  6
CONTINUOUS
 62
     7
 10
392.7302849292847
 20
239.0516258601608
 30
0.0
 40
2.500000000000002
 50
90.00000000000001
 51
175.0
  0
LINE
  5
2E5
  8
0
  6
CONTINUOUS
 62
     7
 10
385.7285559978141
 20
171.0516258601551
 30
0.0
 11
384.7282624790303
 21
172.051663891379
 31
0.0
  0
LINE
  5
2E6
  8
0
  6
CONTINUOUS
 62
     7
 10
390.2397981840553
 20
239.2695152170299
 30
0.0
 11
390.1636598551795
 21
238.3992501357354
 31
0.0
  0
ARC
  5
2E7
  8
0
  6
CONTINUOUS
 62
     7
 10
364.00006558121
 20
215.0552466355362
 30
0.0
 40
4.50000000000006
 50
259.1490045089342
 51
270.0
  0
LINE
  5
2E8
  8
0
  6
CONTINUOUS
 62
     7
 10
392.2303039677526
 20
181.239637019677
 30
0.0
 11
390.0489382797435
 21
179.980224952504
 31
0.0
  0
LINE
  5
2E9
  8
0
  6
CONTINUOUS
 62
     7
 10
387.9301021530331
 20
149.5516258601608
 30
0.0
 11
387.9304676985766
 21
149.5519914057043
 31
0.0
  0
LINE
  5
2EA
  8
0
  6
CONTINUOUS
 62
     7
 10
397.5301021599927
 20
153.5512603146173
 30
0.0
 11
397.5304677055362
 21
153.5516258601608
 31
0.0
  0
ARC
  5
2EB
  8
0
  6
CONTINUOUS
 62
     7
 10
392.7302849292847
 20
239.0516258601608
 30
0.0
 40
11.50000000000001
 50
56.97801668660198
 51
90.00000000000001
  0
LINE
  5
2EC
  8
0
  6
CONTINUOUS
 62
     7
 10
387.7972722248809
 20
178.6802249496039
 30
0.0
 11
385.2303094072134
 21
177.1981882758238
 31
0.0
  0
LINE
  5
2ED
  8
0
  6
CONTINUOUS
 62
     7
 10
387.9301021530331
 20
161.5516258601608
 30
0.0
 11
387.9304676985767
 21
161.5512603146173
 31
0.0
  0
LINE
  5
2EE
  8
0
  6
CONTINUOUS
 62
     7
 10
410.8774788049815
 20
240.97239509093
 30
0.0
 11
398.9973338653362
 21
248.6939335524685
 31
0.0
  0
LINE
  5
2EF
  8
0
  6
CONTINUOUS
 62
     7
 10
410.198772327623
 20
176.7297507349363
 30
0.0
 11
412.4427993247295
 21
180.6078687950117
 31
0.0
  0
LINE
  5
2F0
  8
0
  6
CONTINUOUS
 62
     7
 10
412.4490809682554
 20
180.605582463746
 30
0.0
 11
421.5689308753064
 21
196.4016258601608
 31
0.0
  0
ARC
  5
2F1
  8
0
  6
CONTINUOUS
 62
     7
 10
364.00006558121
 20
215.0552466355362
 30
0.0
 40
4.500000000000067
 50
176.0107006548369
 51
183.989299345163
  0
LINE
  5
2F2
  8
0
  6
CONTINUOUS
 62
     7
 10
387.9301021530331
 20
159.1475208749223
 30
0.0
 11
388.9175870024345
 21
159.1389032251962
 31
0.0
  0
LINE
  5
2F3
  8
0
  6
CONTINUOUS
 62
     7
 10
388.2024936237215
 20
157.5655317505988
 30
0.0
 11
387.916174457867
 21
157.5655535553269
 31
0.0
  0
ARC
  5
2F4
  8
0
  6
CONTINUOUS
 62
     7
 10
399.2763958845812
 20
240.89239509093
 30
0.0
 40
0.999999999999992
 50
195.7060059595451
 51
256.768564161049
  0
LINE
  5
2F5
  8
0
  6
CONTINUOUS
 62
     7
 10
416.2131723843264
 20
229.2075534650321
 30
0.0
 11
416.561809627247
 21
229.4088392710818
 31
0.0
  0
ARC
  5
2F6
  8
0
  6
CONTINUOUS
 62
     7
 10
416.0618096272469
 20
230.2748646748663
 30
0.0
 40
0.9999999999999764
 50
300.0
 51
36.43459614864514
  0
ARC
  5
2F7
  8
0
  6
CONTINUOUS
 62
     7
 10
386.4802849292847
 20
181.9613138642995
 30
0.0
 40
1.199999999999979
 50
0.0
 51
90.0
  0
ARC
  5
2F8
  8
0
  6
CONTINUOUS
 62
     7
 10
392.7302849292847
 20
239.0516258601608
 30
0.0
 40
8.199999999999996
 50
56.97801668660196
 51
63.16717140792094
  0
ARC
  5
2F9
  8
0
  6
CONTINUOUS
 62
     7
 10
380.9388875872536
 20
239.9749251487913
 30
0.0
 40
0.9999999999999918
 50
123.0219833133982
 51
209.9999999999999
  0
LINE
  5
2FA
  8
0
  6
CONTINUOUS
 62
     7
 10
380.0728621834691
 20
239.4749251487912
 30
0.0
 11
380.4714716414433
 21
238.7845133152025
 31
0.0
  0
ARC
  5
2FB
  8
0
  6
CONTINUOUS
 62
     7
 10
392.7302849292847
 20
213.0516258601608
 30
0.0
 40
27.59999999999994
 50
36.52497884414385
 51
53.47502115585615
  0
ARC
  5
2FC
  8
0
  6
CONTINUOUS
 62
     7
 10
381.3374970452278
 20
239.2845133152025
 30
0.0
 40
1.000000000000016
 50
210.0
 51
293.4750211558561
  0
ARC
  5
2FD
  8
0
  6
CONTINUOUS
 62
     7
 10
389.4802849292847
 20
245.0246904002441
 30
0.0
 40
1.000000000000001
 50
298.5510231222939
 51
0.0
  0
ARC
  5
2FE
  8
0
  6
CONTINUOUS
 62
     7
 10
409.7522379379404
 20
236.0345133152025
 30
0.0
 40
1.000000000000019
 50
149.9999999999998
 51
233.4750211558562
  0
ARC
  5
2FF
  8
0
  6
CONTINUOUS
 62
     7
 10
355.9697150707153
 20
208.6070476110995
 30
0.0
 40
1.999999999999996
 50
343.5781784782019
 51
90.0
  0
ARC
  5
300
  8
0
  6
CONTINUOUS
 62
     7
 10
392.7302849292847
 20
239.0516258601608
 30
0.0
 40
5.800000000000001
 50
15.70600595954516
 51
61.44897687770607
  0
ARC
  5
301
  8
0
  6
CONTINUOUS
 62
     7
 10
395.9802849292847
 20
245.0246904002441
 30
0.0
 40
1.000000000000022
 50
180.0
 51
241.4489768777061
  0
LINE
  5
302
  8
0
  6
CONTINUOUS
 62
     7
 10
390.4802849292847
 20
245.0246904002441
 30
0.0
 11
390.4802849292847
 21
245.4763826648967
 31
0.0
  0
LINE
  5
303
  8
0
  6
CONTINUOUS
 62
     7
 10
376.5743573244134
 20
236.5345133152025
 30
0.0
 11
376.3730715183636
 21
236.883150558123
 31
0.0
  0
LINE
  5
304
  8
0
  6
CONTINUOUS
 62
     7
 10
381.7302849292847
 20
154.2597914471695
 30
0.0
 11
381.7302849292847
 21
160.8434602731521
 31
0.0
  0
ARC
  5
305
  8
0
  6
CONTINUOUS
 62
     7
 10
404.1230728133416
 20
239.2845133152025
 30
0.0
 40
1.000000000000004
 50
246.5249788441438
 51
330.0
  0
LINE
  5
306
  8
0
  6
CONTINUOUS
 62
     7
 10
387.6486116077775
 20
171.0516258601608
 30
0.0
 11
385.7285559958191
 21
171.0516258601608
 31
0.0
  0
ARC
  5
307
  8
0
  6
CONTINUOUS
 62
     7
 10
395.9802849292847
 20
245.4763826648967
 30
0.0
 40
1.000000000000001
 50
63.16717140792082
 51
180.0
  0
LINE
  5
308
  8
0
  6
CONTINUOUS
 62
     7
 10
394.9802849292847
 20
245.0246904002441
 30
0.0
 11
394.9802849292847
 21
245.4763826648967
 31
0.0
  0
LINE
  5
309
  8
0
  6
CONTINUOUS
 62
     7
 10
356.8596676414833
 20
206.815962905737
 30
0.0
 11
385.2356208054487
 21
183.0057110715499
 31
0.0
  0
ARC
  5
30A
  8
0
  6
CONTINUOUS
 62
     7
 10
386.1841739739882
 20
240.89239509093
 30
0.0
 40
1.00000000000001
 50
283.231435838951
 51
344.2939940404548
  0
ARC
  5
30B
  8
0
  6
CONTINUOUS
 62
     7
 10
392.7302849292847
 20
213.0516258601608
 30
0.0
 40
30.00000000000002
 50
36.43459614864503
 51
53.5654038513549
  0
ARC
  5
30C
  8
0
  6
CONTINUOUS
 62
     7
 10
386.4802849292847
 20
181.9613138642995
 30
0.0
 40
1.199999999999979
 50
90.0
 51
122.8958387261849
  0
ARC
  5
30D
  8
0
  6
CONTINUOUS
 62
     7
 10
355.9697150707153
 20
208.6070476110995
 30
0.0
 40
2.000000000000002
 50
270.0
 51
296.4218215217982
  0
ARC
  5
30E
  8
0
  6
CONTINUOUS
 62
     7
 10
355.9697150707153
 20
208.6070476110995
 30
0.0
 40
1.999999999999996
 50
196.421821521798
 51
243.5781784782003
  0
LINE
  5
30F
  8
0
  6
CONTINUOUS
 62
     7
 10
387.2926817392976
 20
180.5542013134501
 30
0.0
 11
387.9802944485186
 21
179.3632211651493
 31
0.0
  0
LINE
  5
310
  8
0
  6
CONTINUOUS
 62
     7
 10
397.1989633010779
 20
245.9270104755454
 30
0.0
 11
405.0666430483637
 21
240.8133866872528
 31
0.0
  0
ARC
  5
311
  8
0
  6
CONTINUOUS
 62
     7
 10
415.7131723843264
 20
230.0735788688166
 30
0.0
 40
1.000000000000004
 50
216.5249788441438
 51
299.9999999999998
  0
ARC
  5
312
  8
0
  6
CONTINUOUS
 62
     7
 10
355.9697150707153
 20
208.6070476110995
 30
0.0
 40
2.000000000000002
 50
90.0
 51
196.4218215217979
  0
ARC
  5
313
  8
0
  6
CONTINUOUS
 62
     7
 10
386.4802849292847
 20
181.9613138642995
 30
0.0
 40
1.200000000000007
 50
317.1041612738151
 51
0.0
  0
ARC
  5
314
  8
0
  6
CONTINUOUS
 62
     7
 10
409.9535237439902
 20
236.383150558123
 30
0.0
 40
1.000000000000018
 50
53.56540385135504
 51
149.9999999999998
  0
ARC
  5
315
  8
0
  6
CONTINUOUS
 62
     7
 10
386.4802849292847
 20
181.9613138642995
 30
0.0
 40
2.799999999999986
 50
90.00000000000006
 51
105.1500954209535
  0
ARC
  5
316
  8
0
  6
CONTINUOUS
 62
     7
 10
389.4802849292847
 20
245.4763826648967
 30
0.0
 40
0.9999999999999841
 50
0.0
 51
116.8328285920792
  0
ARC
  5
317
  8
0
  6
CONTINUOUS
 62
     7
 10
386.4802849292847
 20
181.9613138642995
 30
0.0
 40
2.799999999999997
 50
0.0
 51
90.0
  0
ARC
  5
318
  8
0
  6
CONTINUOUS
 62
     7
 10
404.5216822713158
 20
239.9749251487913
 30
0.0
 40
0.99999999999999
 50
330.0
 51
56.9780166866019
  0
LINE
  5
319
  8
0
  6
CONTINUOUS
 62
     7
 10
405.3877076751002
 20
239.4749251487912
 30
0.0
 11
404.989098217126
 21
238.7845133152025
 31
0.0
  0
LINE
  5
31A
  8
0
  6
CONTINUOUS
 62
     7
 10
409.0874983402057
 20
236.883150558123
 30
0.0
 11
408.886212534156
 21
236.5345133152025
 31
0.0
  0
ARC
  5
31B
  8
0
  6
CONTINUOUS
 62
     7
 10
392.7302849292847
 20
239.0516258601608
 30
0.0
 40
5.800000000000001
 50
118.5510231222939
 51
164.2939940404549
  0
ARC
  5
31C
  8
0
  6
CONTINUOUS
 62
     7
 10
392.7302849292847
 20
213.0516258601608
 30
0.0
 40
27.59999999999993
 50
103.2314358389511
 51
113.4750211558562
  0
ARC
  5
31D
  8
0
  6
CONTINUOUS
 62
     7
 10
392.7302849292847
 20
213.0516258601608
 30
0.0
 40
27.59999999999993
 50
66.52497884414382
 51
76.76856416104893
  0
LINE
  5
31E
  8
0
  6
CONTINUOUS
 62
     7
 10
388.124888181803
 20
158.3949154635426
 30
0.0
 11
388.2024936237214
 21
157.5655317505988
 31
0.0
  0
LINE
  5
31F
  8
0
  6
CONTINUOUS
 62
     7
 10
388.2616065574915
 20
245.9270104755454
 30
0.0
 11
380.3939268102056
 21
240.8133866872528
 31
0.0
  0
ARC
  5
320
  8
0
  6
CONTINUOUS
 62
     7
 10
392.7302849292847
 20
239.0516258601608
 30
0.0
 40
8.199999999999996
 50
116.8328285920791
 51
123.021983313398
  0
LINE
  5
321
  8
0
  6
CONTINUOUS
 62
     7
 10
368.8987602313224
 20
229.4088392710819
 30
0.0
 11
369.247397474243
 21
229.2075534650321
 31
0.0
  0
LINE
  5
322
  8
0
  6
CONTINUOUS
 62
     7
 10
389.3659350945737
 20
180.1632211651493
 30
0.0
 11
389.0148381046474
 21
180.7713389900862
 31
0.0
  0
LINE
  5
323
  8
0
  6
CONTINUOUS
 62
     7
 10
385.7485089873715
 20
184.6639984501949
 30
0.0
 11
357.8881278169818
 21
208.0416340147273
 31
0.0
  0
ARC
  5
324
  8
0
  6
CONTINUOUS
 62
     7
 10
355.9697150707153
 20
208.6070476110995
 30
0.0
 40
1.999999999999984
 50
243.5781784782002
 51
270.0
  0
ARC
  5
325
  8
0
  6
CONTINUOUS
 62
     7
 10
386.4802849292847
 20
181.9613138642995
 30
0.0
 40
2.800000000000022
 50
334.8499045790464
 51
0.0
  0
ARC
  5
326
  8
0
  6
CONTINUOUS
 62
     7
 10
369.3987602313225
 20
230.2748646748663
 30
0.0
 40
0.9999999999999868
 50
143.5654038513548
 51
239.9999999999993
  0
ARC
  5
327
  8
0
  6
CONTINUOUS
 62
     7
 10
646.0224834901601
 20
3646.631788695461
 30
0.0
 40
3496.16298131097
 50
265.7683270374337
 51
265.9220559691173
  0
POLYLINE
  5
328
  8
0
  6
CONTINUOUS
 62
     7
 66
     1
 10
0.0
 20
0.0
 30
0.0
  0
VERTEX
  5
359
  8
0
  6
CONTINUOUS
 62
     7
 10
388.0423692372293
 20
159.9999107164775
 30
0.0
  0
VERTEX
  5
35A
  8
0
  6
CONTINUOUS
 62
     7
 10
387.9364275327146
 20
160.0418313176299
 30
0.0
  0
VERTEX
  5
35B
  8
0
  6
CONTINUOUS
 62
     7
 10
387.9304676985766
 20
160.0524141899605
 30
0.0
  0
SEQEND
  5
366
  8
0
  6
CONTINUOUS
 62
     7
  0
ARC
  5
329
  8
0
  6
CONTINUOUS
 62
     7
 10
375.5070461145792
 20
236.383150558123
 30
0.0
 40
0.9999999999999984
 50
30.00000000000017
 51
126.4345961486451
  0
LINE
  5
32A
  8
0
  6
CONTINUOUS
 62
     7
 10
387.9304676985766
 20
153.5512603146173
 30
0.0
 11
397.5301021599927
 21
153.5512603146173
 31
0.0
  0
LINE
  5
32B
  8
0
  6
CONTINUOUS
 62
     7
 10
387.9304676985766
 20
149.5519914057043
 30
0.0
 11
397.5301021599927
 21
149.5519914057043
 31
0.0
  0
ARC
  5
32C
  8
0
  6
CONTINUOUS
 62
     7
 10
139.4380863706357
 20
-3326.02228694451
 30
0.0
 40
3496.16298128026
 50
85.76832703743298
 51
85.92205596911798
  0
POLYLINE
  5
32D
  8
0
  6
CONTINUOUS
 62
     7
 66
     1
 10
0.0
 20
0.0
 30
0.0
  0
VERTEX
  5
35C
  8
0
  6
CONTINUOUS
 62
     7
 10
397.4182006213401
 20
160.6095910038441
 30
0.0
  0
VERTEX
  5
35D
  8
0
  6
CONTINUOUS
 62
     7
 10
397.5241423258548
 20
160.5676704026917
 30
0.0
  0
VERTEX
  5
35E
  8
0
  6
CONTINUOUS
 62
     7
 10
397.5301021599927
 20
160.5570875303611
 30
0.0
  0
SEQEND
  5
367
  8
0
  6
CONTINUOUS
 62
     7
  0
LINE
  5
32E
  8
0
  6
CONTINUOUS
 62
     7
 10
365.5432534877407
 20
210.8839084904791
 30
0.0
 11
365.062506420687
 21
210.7319533031952
 31
0.0
  0
ARC
  5
32F
  8
0
  6
CONTINUOUS
 62
     7
 10
364.00006558121
 20
215.0552466355362
 30
0.0
 40
4.447638793255495
 50
290.3019702727287
 51
299.6980297272714
  0
ARC
  5
330
  8
0
  6
CONTINUOUS
 62
     7
 10
369.747397474243
 20
230.0735788688166
 30
0.0
 40
0.9999999999999916
 50
239.9999999999993
 51
323.4750211558563
  0
LINE
  5
331
  8
0
  6
CONTINUOUS
 62
     7
 10
366.6289766067823
 20
211.4624103472429
 30
0.0
 11
366.2035539218651
 21
211.1918116395943
 31
0.0
  0
LINE
  5
332
  8
0
  6
CONTINUOUS
 62
     7
 10
384.7302849292847
 20
163.551587767675
 30
0.0
 11
384.7302849292847
 21
162.0222574377473
 31
0.0
  0
LINE
  5
333
  8
0
  6
CONTINUOUS
 62
     7
 10
384.7302849292847
 20
153.0812372848835
 30
0.0
 11
384.7302849292847
 21
153.0809942825743
 31
0.0
  0
LINE
  5
334
  8
0
  6
CONTINUOUS
 62
     7
 10
388.2024936237215
 20
157.5655317505988
 30
0.0
 11
397.5301021599927
 21
157.5519914057043
 31
0.0
  0
ARC
  5
335
  8
0
  6
CONTINUOUS
 62
     7
 10
375.7083319206289
 20
236.0345133152025
 30
0.0
 40
0.9999999999999918
 50
306.5249788441437
 51
30.00000000000017
  0
ARC
  5
336
  8
0
  6
CONTINUOUS
 62
     7
 10
392.7302849292847
 20
213.0516258601608
 30
0.0
 40
27.59999999999994
 50
126.5249788441439
 51
143.4750211558562
  0
LINE
  5
337
  8
0
  6
CONTINUOUS
 62
     7
 10
387.9304676985766
 20
161.5512603146173
 30
0.0
 11
397.5301021599927
 21
161.5512603146173
 31
0.0
  0
LINE
  5
338
  8
0
  6
CONTINUOUS
 62
     7
 10
397.3981916992734
 20
157.7327797114774
 30
0.0
 11
388.1248881818031
 21
158.3949154635427
 31
0.0
  0
LINE
  5
339
  8
0
  6
CONTINUOUS
 62
     7
 10
384.7302849292847
 20
153.0809942825743
 30
0.0
 11
384.7302849292847
 21
151.0516829663768
 31
0.0
  0
LINE
  5
33A
  8
0
  6
CONTINUOUS
 62
     7
 10
384.7302849292847
 20
162.0222574377473
 30
0.0
 11
384.7302849292847
 21
162.0220485352128
 31
0.0
  0
LINE
  5
33B
  8
0
  6
CONTINUOUS
 62
     7
 10
384.7302849292847
 20
176.3321047705681
 30
0.0
 11
384.7302849292847
 21
172.0516639342382
 31
0.0
  0
LINE
  5
33C
  8
0
  6
CONTINUOUS
 62
     7
 10
410.0735244410578
 20
174.0787945466325
 30
0.0
 11
406.6229382835418
 21
154.5095480044874
 31
0.0
  0
LINE
  5
33D
  8
0
  6
CONTINUOUS
 62
     7
 10
388.9178976727013
 20
159.1372286404762
 30
0.0
 11
388.9175870024345
 21
159.1389032251962
 31
0.0
  0
ARC
  5
33E
  8
0
  6
CONTINUOUS
 62
     7
 10
392.7302849292847
 20
213.0516258601608
 30
0.0
 40
30.0
 50
126.4345961486451
 51
143.5654038513549
  0
ARC
  5
33F
  8
0
  6
CONTINUOUS
 62
     7
 10
139.4380865077001
 20
-3327.609785075472
 30
0.0
 40
3496.162979406203
 50
85.76832703741285
 51
85.92205596917991
  0
POLYLINE
  5
340
  8
0
  6
CONTINUOUS
 62
     7
 66
     1
 10
0.0
 20
0.0
 30
0.0
  0
VERTEX
  5
35F
  8
0
  6
CONTINUOUS
 62
     7
 10
397.4182006213401
 20
159.0220910038441
 30
0.0
  0
VERTEX
  5
360
  8
0
  6
CONTINUOUS
 62
     7
 10
397.5241423258548
 20
158.9801704026917
 30
0.0
  0
VERTEX
  5
361
  8
0
  6
CONTINUOUS
 62
     7
 10
397.5301021599927
 20
158.9695875303611
 30
0.0
  0
SEQEND
  5
368
  8
0
  6
CONTINUOUS
 62
     7
  0
ARC
  5
341
  8
0
  6
CONTINUOUS
 62
     7
 10
364.00006558121
 20
215.0552466355362
 30
0.0
 40
4.500000000000044
 50
270.0
 51
282.6775490777069
  0
ARC
  5
342
  8
0
  6
CONTINUOUS
 62
     7
 10
364.00006558121
 20
215.0552466355362
 30
0.0
 40
4.500000000000065
 50
307.3224509222932
 51
356.0107006548372
  0
ENDSEC
  0
EOF
