  0
SECTION
  2
HEADER
  9
$ACADVER
  1
AC1006
  9
$DWGCODEPAGE
  3
ansi_932
  9
$INSBASE
 10
0.0
 20
0.0
 30
0.0
  9
$EXTMIN
 10
-545.7
 20
136.1037878787879
  9
$EXTMAX
 10
-363.25
 20
217.5833333333333
  9
$LIMMIN
 10
0.0
 20
0.0
  9
$LIMMAX
 10
12.0
 20
9.0
  9
$ORTHOMODE
 70
     0
  9
$REGENMODE
 70
     1
  9
$FILLMODE
 70
     1
  9
$QTEXTMODE
 70
     0
  9
$MIRRTEXT
 70
     1
  9
$DRAGMODE
 70
     2
  9
$LTSCALE
 40
1.0
  9
$OSMODE
 70
    37
  9
$ATTMODE
 70
     1
  9
$TEXTSIZE
 40
0.2
  9
$TRACEWID
 40
0.05
  9
$TEXTSTYLE
  7
STANDARD
  9
$CLAYER
  8
0
  9
$CELTYPE
  6
BYLAYER
  9
$CECOLOR
 62
   256
  9
$DIMSCALE
 40
1.0
  9
$DIMASZ
 40
3.0
  9
$DIMEXO
 40
0.0625
  9
$DIMDLI
 40
0.38
  9
$DIMRND
 40
0.0
  9
$DIMDLE
 40
0.0
  9
$DIMEXE
 40
1.5
  9
$DIMTP
 40
0.0
  9
$DIMTM
 40
0.0
  9
$DIMTXT
 40
3.0
  9
$DIMCEN
 40
0.09
  9
$DIMTSZ
 40
0.0
  9
$DIMTOL
 70
     0
  9
$DIMLIM
 70
     0
  9
$DIMTIH
 70
     1
  9
$DIMTOH
 70
     1
  9
$DIMSE1
 70
     0
  9
$DIMSE2
 70
     0
  9
$DIMTAD
 70
     1
  9
$DIMZIN
 70
     0
  9
$DIMBLK
  1

  9
$DIMASO
 70
     1
  9
$DIMSHO
 70
     1
  9
$DIMPOST
  1

  9
$DIMAPOST
  1

  9
$DIMALT
 70
     0
  9
$DIMALTD
 70
     2
  9
$DIMALTF
 40
25.4
  9
$DIMLFAC
 40
1.0
  9
$DIMTOFL
 70
     0
  9
$DIMTVP
 40
0.0
  9
$DIMTIX
 70
     0
  9
$DIMSOXD
 70
     0
  9
$DIMSAH
 70
     0
  9
$DIMBLK1
  1

  9
$DIMBLK2
  1

  9
$LUNITS
 70
     2
  9
$LUPREC
 70
     4
  9
$SKETCHINC
 40
0.1
  9
$FILLETRAD
 40
0.5
  9
$AUNITS
 70
     0
  9
$AUPREC
 70
     0
  9
$MENU
  1
.
  9
$ELEVATION
 40
0.0
  9
$THICKNESS
 40
0.0
  9
$LIMCHECK
 70
     0
  9
$CHAMFERA
 40
0.0
  9
$CHAMFERB
 40
0.0
  9
$SKPOLY
 70
     0
  9
$TDCREATE
 40
2460669.388009849
  9
$TDUPDATE
 40
2460669.388010069
  9
$TDINDWG
 40
0.0000000116
  9
$TDUSRTIMER
 40
0.0000000116
  9
$USRTIMER
 70
     1
  9
$ANGBASE
 50
0.0
  9
$ANGDIR
 70
     0
  9
$PDMODE
 70
     0
  9
$PDSIZE
 40
0.0
  9
$PLINEWID
 40
0.0
  9
$COORDS
 70
     1
  9
$SPLFRAME
 70
     0
  9
$SPLINETYPE
 70
     6
  9
$SPLINESEGS
 70
     8
  9
$ATTDIA
 70
     0
  9
$ATTREQ
 70
     1
  9
$HANDLING
 70
     1
  9
$HANDSEED
  5
D3
  9
$SURFTAB1
 70
     6
  9
$SURFTAB2
 70
     6
  9
$SURFTYPE
 70
     6
  9
$SURFU
 70
     6
  9
$SURFV
 70
     6
  9
$UCSNAME
  2

  9
$UCSORG
 10
0.0
 20
0.0
 30
0.0
  9
$UCSXDIR
 10
1.0
 20
0.0
 30
0.0
  9
$UCSYDIR
 10
0.0
 20
1.0
 30
0.0
  9
$USERI1
 70
     0
  9
$USERI2
 70
     0
  9
$USERI3
 70
     0
  9
$USERI4
 70
     0
  9
$USERI5
 70
     0
  9
$USERR1
 40
0.0
  9
$USERR2
 40
0.0
  9
$USERR3
 40
0.0
  9
$USERR4
 40
0.0
  9
$USERR5
 40
0.0
  9
$WORLDVIEW
 70
     1
  0
ENDSEC
  0
SECTION
  2
TABLES
  0
TABLE
  2
VPORT
 70
     1
  0
VPORT
  2
*ACTIVE
 70
     0
 10
0.0
 20
0.0
 11
1.0
 21
1.0
 12
-454.475
 22
176.8435606060606
 13
0.0
 23
0.0
 14
0.5
 24
0.5
 15
0.5
 25
0.5
 16
0.0
 26
0.0
 36
1.0
 17
0.0
 27
0.0
 37
0.0
 40
81.47954545454544
 41
1.6
 42
50.0
 43
0.0
 44
0.0
 50
0.0
 51
0.0
 71
     0
 72
   100
 73
     1
 74
     3
 75
     0
 76
     0
 77
     0
 78
     0
  0
ENDTAB
  0
TABLE
  2
LTYPE
 70
     2
  0
LTYPE
  2
CONTINUOUS
 70
     0
  3
Solid line
 72
    65
 73
     0
 40
0.0
  0
LTYPE
  2
CENTER
 70
     0
  3

 72
    65
 73
     0
 40
0.0
  0
ENDTAB
  0
TABLE
  2
LAYER
 70
     2
  0
LAYER
  2
0
 70
     0
 62
     7
  6
CONTINUOUS
  0
LAYER
  2
1
 70
     0
 62
     7
  6
CONTINUOUS
  0
ENDTAB
  0
TABLE
  2
STYLE
 70
     2
  0
STYLE
  2
STANDARD
 70
     0
 40
0.0
 41
1.0
 50
0.0
 71
     0
 42
0.2
  3
txt
  4

  0
STYLE
  2
ＭＳ_ゴシック
 70
     0
 40
0.0
 41
1.0
 50
0.0
 71
     0
 42
0.2
  3
ＭＳ ゴシック.shx
  4

  0
ENDTAB
  0
TABLE
  2
VIEW
 70
     0
  0
ENDTAB
  0
TABLE
  2
UCS
 70
     0
  0
ENDTAB
  0
ENDSEC
  0
SECTION
  2
BLOCKS
  0
BLOCK
  8
0
  2
D_FRAME_VIEW_1573
 70
     0
 10
0.0
 20
0.0
 30
0.0
  0
CIRCLE
  5
71
  8
1
  6
CONTINUOUS
 62
     7
 10
-397.5
 20
183.3333333333333
 30
0.0
 40
32.25
  0
CIRCLE
  5
72
  8
1
  6
CONTINUOUS
 62
     7
 10
-397.5
 20
183.3333333333333
 30
0.0
 40
31.39999999999998
  0
CIRCLE
  5
73
  8
1
  6
CONTINUOUS
 62
     7
 10
-397.5
 20
183.3333333333333
 30
0.0
 40
30.29999999999999
  0
CIRCLE
  5
74
  8
1
  6
CONTINUOUS
 62
     7
 10
-397.5
 20
183.3333333333333
 30
0.0
 40
31.39999999999998
  0
CIRCLE
  5
75
  8
1
  6
CONTINUOUS
 62
     9
 10
-397.5
 20
183.3333333333333
 30
0.0
 40
30.29600853432282
  0
CIRCLE
  5
76
  8
1
  6
CONTINUOUS
 62
     9
 10
-397.5
 20
183.3333333333333
 30
0.0
 40
30.12045564090618
  0
CIRCLE
  5
77
  8
1
  6
CONTINUOUS
 62
     9
 10
-397.5
 20
183.3333333333333
 30
0.0
 40
27.11719598489229
  0
CIRCLE
  5
78
  8
1
  6
CONTINUOUS
 62
     7
 10
-397.5
 20
183.3333333333333
 30
0.0
 40
25.80000000000002
  0
ENDBLK
  8
0
  0
BLOCK
  8
0
  2
D_FRAME_VIEW_1492
 70
     0
 10
0.0
 20
0.0
 30
0.0
  0
LINE
  5
83
  8
1
  6
CONTINUOUS
 62
     7
 10
-542.6999999999999
 20
215.5833333333333
 30
0.0
 11
-542.6999999999999
 21
183.3333333333333
 31
0.0
  0
LINE
  5
84
  8
1
  6
CONTINUOUS
 62
     7
 10
-540.34375
 20
152.2264310910222
 30
0.0
 11
-540.34375
 21
183.3333333333333
 31
0.0
  0
LINE
  5
85
  8
1
  6
CONTINUOUS
 62
     7
 10
-542.6999999999999
 20
183.3333333333333
 30
0.0
 11
-542.6999999999999
 21
151.0833333333334
 31
0.0
  0
LINE
  5
86
  8
1
  6
CONTINUOUS
 62
     7
 10
-540.34375
 20
183.3333333333333
 30
0.0
 11
-540.34375
 21
214.4402355756445
 31
0.0
  0
LINE
  5
87
  8
1
  6
CONTINUOUS
 62
     7
 10
-521.49375
 20
152.2264310910222
 30
0.0
 11
-521.49375
 21
183.3333333333333
 31
0.0
  0
LINE
  5
88
  8
1
  6
CONTINUOUS
 62
     7
 10
-516.78125
 20
152.2264310910222
 30
0.0
 11
-516.78125
 21
183.3333333333333
 31
0.0
  0
LINE
  5
89
  8
1
  6
CONTINUOUS
 62
     7
 10
-521.49375
 20
183.3333333333333
 30
0.0
 11
-521.49375
 21
214.4402355756445
 31
0.0
  0
LINE
  5
8A
  8
1
  6
CONTINUOUS
 62
     7
 10
-516.78125
 20
183.3333333333333
 30
0.0
 11
-516.78125
 21
214.4402355756445
 31
0.0
  0
LINE
  5
8B
  8
1
  6
CONTINUOUS
 62
     7
 10
-467.3
 20
151.0833333333333
 30
0.0
 11
-467.3
 21
215.5833333333333
 31
0.0
  0
LINE
  5
8C
  8
1
  6
CONTINUOUS
 62
     7
 10
-469.65625
 20
152.2264310910222
 30
0.0
 11
-469.65625
 21
183.3333333333333
 31
0.0
  0
LINE
  5
8D
  8
1
  6
CONTINUOUS
 62
     7
 10
-469.65625
 20
183.3333333333333
 30
0.0
 11
-469.65625
 21
214.4402355756445
 31
0.0
  0
LINE
  5
8E
  8
1
  6
CONTINUOUS
 62
     7
 10
-512.0687499999999
 20
152.2264310910222
 30
0.0
 11
-512.0687499999999
 21
183.3333333333333
 31
0.0
  0
LINE
  5
8F
  8
1
  6
CONTINUOUS
 62
     7
 10
-507.3562499999999
 20
152.2264310910222
 30
0.0
 11
-507.3562499999999
 21
183.3333333333333
 31
0.0
  0
LINE
  5
90
  8
1
  6
CONTINUOUS
 62
     7
 10
-512.0687499999999
 20
183.3333333333333
 30
0.0
 11
-512.0687499999999
 21
214.4402355756445
 31
0.0
  0
LINE
  5
91
  8
1
  6
CONTINUOUS
 62
     7
 10
-507.3562499999999
 20
183.3333333333333
 30
0.0
 11
-507.3562499999999
 21
214.4402355756445
 31
0.0
  0
LINE
  5
92
  8
1
  6
CONTINUOUS
 62
     7
 10
-479.08125
 20
152.2264310910222
 30
0.0
 11
-479.08125
 21
183.3333333333333
 31
0.0
  0
LINE
  5
93
  8
1
  6
CONTINUOUS
 62
     7
 10
-474.36875
 20
152.2264310910222
 30
0.0
 11
-474.36875
 21
183.3333333333333
 31
0.0
  0
LINE
  5
94
  8
1
  6
CONTINUOUS
 62
     7
 10
-479.08125
 20
183.3333333333333
 30
0.0
 11
-479.08125
 21
214.4402355756445
 31
0.0
  0
LINE
  5
95
  8
1
  6
CONTINUOUS
 62
     7
 10
-474.36875
 20
183.3333333333333
 30
0.0
 11
-474.36875
 21
214.4402355756445
 31
0.0
  0
LINE
  5
96
  8
1
  6
CONTINUOUS
 62
     7
 10
-526.20625
 20
152.2264310910222
 30
0.0
 11
-526.20625
 21
183.3333333333333
 31
0.0
  0
LINE
  5
97
  8
1
  6
CONTINUOUS
 62
     7
 10
-526.20625
 20
183.3333333333333
 30
0.0
 11
-526.20625
 21
214.4402355756445
 31
0.0
  0
LINE
  5
98
  8
1
  6
CONTINUOUS
 62
     7
 10
-535.63125
 20
152.2264310910222
 30
0.0
 11
-535.63125
 21
183.3333333333333
 31
0.0
  0
LINE
  5
99
  8
1
  6
CONTINUOUS
 62
     7
 10
-535.63125
 20
183.3333333333333
 30
0.0
 11
-535.63125
 21
214.4402355756445
 31
0.0
  0
LINE
  5
9A
  8
1
  6
CONTINUOUS
 62
     7
 10
-502.6437500000001
 20
152.2264310910222
 30
0.0
 11
-502.6437500000001
 21
183.3333333333333
 31
0.0
  0
LINE
  5
9B
  8
1
  6
CONTINUOUS
 62
     7
 10
-502.6437500000001
 20
183.3333333333333
 30
0.0
 11
-502.6437500000001
 21
214.4402355756445
 31
0.0
  0
LINE
  5
9C
  8
1
  6
CONTINUOUS
 62
     7
 10
-530.9187499999999
 20
152.2264310910222
 30
0.0
 11
-530.9187499999999
 21
183.3333333333333
 31
0.0
  0
LINE
  5
9D
  8
1
  6
CONTINUOUS
 62
     7
 10
-530.9187499999999
 20
183.3333333333333
 30
0.0
 11
-530.9187499999999
 21
214.4402355756445
 31
0.0
  0
LINE
  5
9E
  8
1
  6
CONTINUOUS
 62
     7
 10
-497.93125
 20
152.2264310910222
 30
0.0
 11
-497.93125
 21
183.3333333333333
 31
0.0
  0
LINE
  5
9F
  8
1
  6
CONTINUOUS
 62
     7
 10
-497.93125
 20
183.3333333333333
 30
0.0
 11
-497.93125
 21
214.4402355756445
 31
0.0
  0
LINE
  5
A0
  8
1
  6
CONTINUOUS
 62
     7
 10
-493.21875
 20
152.2264310910222
 30
0.0
 11
-493.21875
 21
183.3333333333333
 31
0.0
  0
LINE
  5
A1
  8
1
  6
CONTINUOUS
 62
     7
 10
-493.21875
 20
183.3333333333333
 30
0.0
 11
-493.21875
 21
214.4402355756445
 31
0.0
  0
LINE
  5
A2
  8
1
  6
CONTINUOUS
 62
     7
 10
-483.79375
 20
152.2264310910222
 30
0.0
 11
-483.79375
 21
183.3333333333333
 31
0.0
  0
LINE
  5
A3
  8
1
  6
CONTINUOUS
 62
     7
 10
-483.79375
 20
183.3333333333333
 30
0.0
 11
-483.79375
 21
214.4402355756445
 31
0.0
  0
LINE
  5
A4
  8
1
  6
CONTINUOUS
 62
     7
 10
-488.50625
 20
152.2264310910222
 30
0.0
 11
-488.50625
 21
183.3333333333333
 31
0.0
  0
LINE
  5
A5
  8
1
  6
CONTINUOUS
 62
     7
 10
-488.50625
 20
183.3333333333333
 30
0.0
 11
-488.50625
 21
214.4402355756445
 31
0.0
  0
ARC
  5
A6
  8
1
  6
CONTINUOUS
 62
     7
 10
-542.6999999999999
 20
154.0833333333333
 30
0.0
 40
2.999999999999999
 50
269.9999999999999
 51
321.7592312703657
  0
ARC
  5
A7
  8
1
  6
CONTINUOUS
 62
     7
 10
-542.6999999999999
 20
212.5833333333333
 30
0.0
 40
2.999999999999999
 50
38.24076872963434
 51
90.00000000000009
  0
ARC
  5
A8
  8
1
  6
CONTINUOUS
 62
     7
 10
-519.1375
 20
154.0833333333333
 30
0.0
 40
2.999999999999999
 50
218.2407687296343
 51
321.7592312703656
  0
ARC
  5
A9
  8
1
  6
CONTINUOUS
 62
     7
 10
-519.1375
 20
212.5833333333333
 30
0.0
 40
3.000000000000001
 50
38.24076872963439
 51
141.7592312703657
  0
ARC
  5
AA
  8
1
  6
CONTINUOUS
 62
     7
 10
-467.3
 20
154.0833333333333
 30
0.0
 40
3.000000000000001
 50
218.2407687296343
 51
269.9999999999999
  0
ARC
  5
AB
  8
1
  6
CONTINUOUS
 62
     7
 10
-467.3
 20
212.5833333333333
 30
0.0
 40
2.999999999999999
 50
90.0
 51
141.7592312703656
  0
ARC
  5
AC
  8
1
  6
CONTINUOUS
 62
     7
 10
-509.7125
 20
154.0833333333333
 30
0.0
 40
3.000000000000001
 50
218.2407687296343
 51
321.7592312703656
  0
ARC
  5
AD
  8
1
  6
CONTINUOUS
 62
     7
 10
-509.7125
 20
212.5833333333333
 30
0.0
 40
2.999999999999999
 50
38.24076872963434
 51
141.7592312703656
  0
ARC
  5
AE
  8
1
  6
CONTINUOUS
 62
     7
 10
-476.725
 20
154.0833333333333
 30
0.0
 40
2.999999999999999
 50
218.2407687296343
 51
321.7592312703657
  0
ARC
  5
AF
  8
1
  6
CONTINUOUS
 62
     7
 10
-476.725
 20
212.5833333333333
 30
0.0
 40
2.999999999999999
 50
38.24076872963434
 51
141.7592312703657
  0
ARC
  5
B0
  8
1
  6
CONTINUOUS
 62
     7
 10
-523.85
 20
154.0833333333333
 30
0.0
 40
2.999999999999999
 50
218.2407687296343
 51
321.7592312703657
  0
ARC
  5
B1
  8
1
  6
CONTINUOUS
 62
     7
 10
-523.85
 20
212.5833333333333
 30
0.0
 40
2.999999999999999
 50
38.24076872963434
 51
141.7592312703657
  0
ARC
  5
B2
  8
1
  6
CONTINUOUS
 62
     7
 10
-472.0125
 20
154.0833333333333
 30
0.0
 40
2.999999999999999
 50
218.2407687296343
 51
321.7592312703657
  0
ARC
  5
B3
  8
1
  6
CONTINUOUS
 62
     7
 10
-472.0125
 20
212.5833333333333
 30
0.0
 40
2.999999999999999
 50
38.24076872963434
 51
141.7592312703657
  0
ARC
  5
B4
  8
1
  6
CONTINUOUS
 62
     7
 10
-537.9875000000001
 20
154.0833333333333
 30
0.0
 40
2.999999999999999
 50
218.2407687296343
 51
321.7592312703657
  0
ARC
  5
B5
  8
1
  6
CONTINUOUS
 62
     7
 10
-537.9875000000001
 20
212.5833333333333
 30
0.0
 40
2.999999999999999
 50
38.24076872963434
 51
141.7592312703657
  0
ARC
  5
B6
  8
1
  6
CONTINUOUS
 62
     7
 10
-514.425
 20
154.0833333333333
 30
0.0
 40
2.999999999999999
 50
218.2407687296343
 51
321.7592312703657
  0
ARC
  5
B7
  8
1
  6
CONTINUOUS
 62
     7
 10
-514.425
 20
212.5833333333333
 30
0.0
 40
2.999999999999999
 50
38.24076872963434
 51
141.7592312703657
  0
ARC
  5
B8
  8
1
  6
CONTINUOUS
 62
     7
 10
-505.0
 20
154.0833333333333
 30
0.0
 40
3.000000000000001
 50
218.2407687296343
 51
321.7592312703656
  0
ARC
  5
B9
  8
1
  6
CONTINUOUS
 62
     7
 10
-505.0
 20
212.5833333333333
 30
0.0
 40
2.999999999999999
 50
38.24076872963434
 51
141.7592312703656
  0
ARC
  5
BA
  8
1
  6
CONTINUOUS
 62
     7
 10
-528.5625
 20
154.0833333333333
 30
0.0
 40
3.000000000000002
 50
218.2407687296343
 51
321.7592312703657
  0
ARC
  5
BB
  8
1
  6
CONTINUOUS
 62
     7
 10
-528.5625
 20
212.5833333333333
 30
0.0
 40
2.999999999999999
 50
38.24076872963434
 51
141.7592312703657
  0
ARC
  5
BC
  8
1
  6
CONTINUOUS
 62
     7
 10
-500.2875
 20
154.0833333333333
 30
0.0
 40
3.000000000000001
 50
218.2407687296343
 51
321.7592312703656
  0
ARC
  5
BD
  8
1
  6
CONTINUOUS
 62
     7
 10
-500.2875
 20
212.5833333333333
 30
0.0
 40
2.999999999999999
 50
38.24076872963434
 51
141.7592312703656
  0
ARC
  5
BE
  8
1
  6
CONTINUOUS
 62
     7
 10
-495.575
 20
154.0833333333333
 30
0.0
 40
3.000000000000001
 50
218.2407687296343
 51
321.7592312703656
  0
ARC
  5
BF
  8
1
  6
CONTINUOUS
 62
     7
 10
-495.575
 20
212.5833333333333
 30
0.0
 40
2.999999999999999
 50
38.24076872963434
 51
141.7592312703656
  0
ARC
  5
C0
  8
1
  6
CONTINUOUS
 62
     7
 10
-481.4375
 20
154.0833333333333
 30
0.0
 40
3.000000000000001
 50
218.2407687296343
 51
321.7592312703654
  0
ARC
  5
C1
  8
1
  6
CONTINUOUS
 62
     7
 10
-481.4375
 20
212.5833333333333
 30
0.0
 40
2.999999999999998
 50
38.24076872963455
 51
141.7592312703657
  0
ARC
  5
C2
  8
1
  6
CONTINUOUS
 62
     7
 10
-533.2750000000001
 20
154.0833333333333
 30
0.0
 40
2.999999999999999
 50
218.2407687296343
 51
321.7592312703657
  0
ARC
  5
C3
  8
1
  6
CONTINUOUS
 62
     7
 10
-533.2750000000001
 20
212.5833333333333
 30
0.0
 40
2.999999999999999
 50
38.24076872963434
 51
141.7592312703657
  0
ARC
  5
C4
  8
1
  6
CONTINUOUS
 62
     7
 10
-486.15
 20
154.0833333333333
 30
0.0
 40
3.000000000000001
 50
218.2407687296343
 51
321.7592312703656
  0
ARC
  5
C5
  8
1
  6
CONTINUOUS
 62
     7
 10
-486.15
 20
212.5833333333333
 30
0.0
 40
2.999999999999999
 50
38.24076872963434
 51
141.7592312703656
  0
ARC
  5
C6
  8
1
  6
CONTINUOUS
 62
     7
 10
-490.8625
 20
154.0833333333333
 30
0.0
 40
3.000000000000001
 50
218.2407687296343
 51
321.7592312703656
  0
ARC
  5
C7
  8
1
  6
CONTINUOUS
 62
     7
 10
-490.8625
 20
212.5833333333333
 30
0.0
 40
3.000000000000001
 50
38.24076872963439
 51
141.7592312703656
  0
ENDBLK
  8
0
  0
ENDSEC
  0
SECTION
  2
ENTITIES
  0
INSERT
  5
79
  8
1
  6
CONTINUOUS
 62
     7
  2
D_FRAME_VIEW_1573
 10
0.0
 20
0.0
 30
0.0
  0
LINE
  5
7A
  8
1
  6
CENTER
 62
     1
 10
-431.75
 20
183.3333333333333
 30
0.0
 11
-363.25
 21
183.3333333333333
 31
0.0
  0
LINE
  5
7C
  8
1
  6
CENTER
 62
     1
 10
-397.5
 20
149.0833333333333
 30
0.0
 11
-397.5
 21
217.5833333333333
 31
0.0
  0
POINT
  5
7D
  8
1
 62
     1
 10
-505.0
 20
183.3333333333333
 30
0.0
  0
TEXT
  5
7E
  8
1
  6
CONTINUOUS
 62
     7
 10
-453.8870698386896
 20
136.6617533658456
 30
0.0
 40
3.0
  1
MF-54
 41
0.9
  0
LINE
  5
7F
  8
1
  6
CONTINUOUS
 62
     2
 10
-453.8106818181818
 20
136.1037878787879
 30
0.0
 11
-446.1893181818182
 21
136.1037878787879
 31
0.0
  0
INSERT
  5
C8
  8
1
  6
CONTINUOUS
 62
     7
  2
D_FRAME_VIEW_1492
 10
0.0
 20
0.0
 30
0.0
  0
LINE
  5
C9
  8
1
  6
CENTER
 62
     1
 10
-545.7
 20
183.3333333333333
 30
0.0
 11
-464.3
 21
183.3333333333333
 31
0.0
  0
ENDSEC
  0
EOF
