  0
SECTION
  2
HEADER
  9
$ACADVER
  1
AC1004
  9
$INSBASE
 10
0.0
 20
0.0
  9
$EXTMIN
 10
205.5
 20
377.7840909090909
  9
$EXTMAX
 10
430.798
 20
513.298
  9
$LIMMIN
 10
0.0
 20
0.0
  9
$LIMMAX
 10
12.0
 20
9.0
  9
$ORTHOMODE
 70
     0
  9
$REGENMODE
 70
     1
  9
$FILLMODE
 70
     1
  9
$QTEXTMODE
 70
     0
  9
$DRAGMODE
 70
     2
  9
$LTSCALE
 40
1.0
  9
$OSMODE
 70
    37
  9
$ATTMODE
 70
     1
  9
$TEXTSIZE
 40
0.2
  9
$TRACEWID
 40
0.05
  9
$TEXTSTYLE
  7
STANDARD
  9
$CLAYER
  8
0
  9
$CELTYPE
  6
BYLAYER
  9
$CECOLOR
 62
   256
  9
$DIMSCALE
 40
1.0
  9
$DIMASZ
 40
3.0
  9
$DIMEXO
 40
0.0625
  9
$DIMDLI
 40
0.38
  9
$DIMRND
 40
0.0
  9
$DIMDLE
 40
0.0
  9
$DIMEXE
 40
1.5
  9
$DIMTP
 40
0.0
  9
$DIMTM
 40
0.0
  9
$DIMTXT
 40
3.0
  9
$DIMCEN
 40
0.09
  9
$DIMTSZ
 40
0.0
  9
$DIMTOL
 70
     0
  9
$DIMLIM
 70
     0
  9
$DIMTIH
 70
     1
  9
$DIMTOH
 70
     1
  9
$DIMSE1
 70
     0
  9
$DIMSE2
 70
     0
  9
$DIMTAD
 70
     1
  9
$DIMZIN
 70
     0
  9
$DIMBLK
  1

  9
$DIMASO
 70
     1
  9
$DIMSHO
 70
     1
  9
$DIMPOST
  1

  9
$DIMAPOST
  1

  9
$DIMALT
 70
     0
  9
$DIMALTD
 70
     2
  9
$DIMALTF
 40
25.4
  9
$DIMLFAC
 40
1.0
  9
$DIMTOFL
 70
     0
  9
$DIMTVP
 40
0.0
  9
$DIMTIX
 70
     0
  9
$DIMSOXD
 70
     0
  9
$DIMSAH
 70
     0
  9
$DIMBLK1
  1

  9
$DIMBLK2
  1

  9
$LUNITS
 70
     2
  9
$LUPREC
 70
     4
  9
$SKETCHINC
 40
0.1
  9
$FILLETRAD
 40
0.5
  9
$AUNITS
 70
     0
  9
$AUPREC
 70
     0
  9
$MENU
  1
.
  9
$ELEVATION
 40
0.0
  9
$THICKNESS
 40
0.0
  9
$LIMCHECK
 70
     0
  9
$CHAMFERA
 40
0.0
  9
$CHAMFERB
 40
0.0
  9
$SKPOLY
 70
     0
  9
$TDCREATE
 40
2459352.369028148
  9
$TDUPDATE
 40
2459352.369028148
  9
$TDINDWG
 40
0.0000000116
  9
$TDUSRTIMER
 40
0.0000000116
  9
$USRTIMER
 70
     1
  9
$ANGBASE
 50
0.0
  9
$ANGDIR
 70
     0
  9
$PDMODE
 70
     0
  9
$PDSIZE
 40
0.0
  9
$PLINEWID
 40
0.0
  9
$COORDS
 70
     1
  9
$SPLFRAME
 70
     0
  9
$SPLINETYPE
 70
     6
  9
$SPLINESEGS
 70
     8
  9
$ATTDIA
 70
     0
  9
$ATTREQ
 70
     1
  9
$SURFTAB1
 70
     6
  9
$SURFTAB2
 70
     6
  9
$SURFTYPE
 70
     6
  9
$SURFU
 70
     6
  9
$SURFV
 70
     6
  9
$UCSNAME
  2

  9
$UCSORG
 10
0.0
 20
0.0
 30
0.0
  9
$UCSXDIR
 10
1.0
 20
0.0
 30
0.0
  9
$UCSYDIR
 10
0.0
 20
1.0
 30
0.0
  9
$USERI1
 70
     0
  9
$USERI2
 70
     0
  9
$USERI3
 70
     0
  9
$USERI4
 70
     0
  9
$USERI5
 70
     0
  9
$USERR1
 40
0.0
  9
$USERR2
 40
0.0
  9
$USERR3
 40
0.0
  9
$USERR4
 40
0.0
  9
$USERR5
 40
0.0
  9
$WORLDVIEW
 70
     1
  0
ENDSEC
  0
SECTION
  2
TABLES
  0
TABLE
  2
LTYPE
 70
     2
  0
LTYPE
  2
CONTINUOUS
 70
     0
  3
Solid line
 72
    65
 73
     0
 40
0.0
  0
LTYPE
  2
CENTER
 70
     0
  3

 72
    65
 73
     0
 40
0.0
  0
ENDTAB
  0
TABLE
  2
LAYER
 70
     2
  0
LAYER
  2
0
 70
     0
 62
     7
  6
CONTINUOUS
  0
LAYER
  2
1
 70
     0
 62
     7
  6
CONTINUOUS
  0
ENDTAB
  0
TABLE
  2
STYLE
 70
     2
  0
STYLE
  2
STANDARD
 70
     0
 40
0.0
 41
1.0
 50
0.0
 71
     0
 42
0.2
  3
txt
  4

  0
STYLE
  2
ＭＳ_ゴシック
 70
     0
 40
0.0
 41
1.0
 50
0.0
 71
     0
 42
0.2
  3
ＭＳ ゴシック.shx
  4

  0
ENDTAB
  0
TABLE
  2
VIEW
 70
     0
  0
ENDTAB
  0
ENDSEC
  0
SECTION
  2
BLOCKS
  0
BLOCK
  8
0
  2
D_FRAME_VIEW_1441
 70
     0
 10
0.0
 20
0.0
  0
CIRCLE
  8
1
  6
CONTINUOUS
 62
     7
 10
372.5
 20
455.0
 40
54.819
  0
CIRCLE
  8
1
  6
CONTINUOUS
 62
     7
 10
372.5
 20
455.0
 40
50.00000000000001
  0
CIRCLE
  8
1
  6
CONTINUOUS
 62
     7
 10
372.5
 20
455.0
 40
56.298
  0
ENDBLK
  8
0
  0
BLOCK
  8
0
  2
D_FRAME_VIEW_1475
 70
     0
 10
0.0
 20
0.0
  0
LINE
  8
1
  6
CONTINUOUS
 62
     7
 10
207.0
 20
400.181
 11
207.0
 21
455.0
  0
LINE
  8
1
  6
CONTINUOUS
 62
     7
 10
208.479
 20
398.702
 11
208.479
 21
455.0
  0
LINE
  8
1
  6
CONTINUOUS
 62
     7
 10
207.0
 20
455.0
 11
207.0
 21
509.819
  0
LINE
  8
1
  6
CONTINUOUS
 62
     7
 10
208.479
 20
455.0
 11
208.479
 21
511.298
  0
LINE
  8
1
  6
CONTINUOUS
 62
     7
 10
276.521
 20
398.702
 11
276.521
 21
455.0
  0
LINE
  8
1
  6
CONTINUOUS
 62
     7
 10
276.521
 20
455.0
 11
276.521
 21
511.298
  0
LINE
  8
1
  6
CONTINUOUS
 62
     7
 10
278.0
 20
400.181
 11
278.0
 21
455.0
  0
LINE
  8
1
  6
CONTINUOUS
 62
     7
 10
278.0
 20
455.0
 11
278.0
 21
509.819
  0
LINE
  8
1
  6
CONTINUOUS
 62
     7
 10
205.5
 20
400.181
 11
205.5
 21
455.0
  0
LINE
  8
1
  6
CONTINUOUS
 62
     7
 10
205.5
 20
455.0
 11
205.5
 21
509.819
  0
LINE
  8
1
  6
CONTINUOUS
 62
     7
 10
279.4999999999999
 20
400.181
 11
279.4999999999999
 21
455.0
  0
LINE
  8
1
  6
CONTINUOUS
 62
     7
 10
279.4999999999999
 20
455.0
 11
279.4999999999999
 21
509.819
  0
LINE
  8
1
  6
CONTINUOUS
 62
     7
 10
208.479
 20
511.298
 11
207.217
 21
510.0360000000001
  0
LINE
  8
1
  6
CONTINUOUS
 62
     7
 10
207.217
 20
510.0360000000001
 11
207.0
 21
509.819
  0
LINE
  8
1
  6
CONTINUOUS
 62
     7
 10
207.0
 20
400.181
 11
207.217
 21
399.964
  0
LINE
  8
1
  6
CONTINUOUS
 62
     7
 10
207.217
 20
399.964
 11
208.479
 21
398.702
  0
LINE
  8
1
  6
CONTINUOUS
 62
     7
 10
208.479
 20
398.702
 11
276.521
 21
398.702
  0
LINE
  8
1
  6
CONTINUOUS
 62
     7
 10
276.521
 20
511.298
 11
208.479
 21
511.298
  0
LINE
  8
1
  6
CONTINUOUS
 62
     7
 10
276.521
 20
398.702
 11
277.783
 21
399.964
  0
LINE
  8
1
  6
CONTINUOUS
 62
     7
 10
277.783
 20
399.964
 11
278.0
 21
400.181
  0
LINE
  8
1
  6
CONTINUOUS
 62
     7
 10
278.0
 20
509.819
 11
277.783
 21
510.0360000000001
  0
LINE
  8
1
  6
CONTINUOUS
 62
     7
 10
277.783
 20
510.0360000000001
 11
276.521
 21
511.298
  0
LINE
  8
1
  6
CONTINUOUS
 62
     7
 10
278.0
 20
400.181
 11
279.4999999999999
 21
400.181
  0
LINE
  8
1
  6
CONTINUOUS
 62
     7
 10
279.4999999999999
 20
509.819
 11
278.0
 21
509.819
  0
ENDBLK
  8
0
  0
ENDSEC
  0
SECTION
  2
ENTITIES
  0
LINE
  8
1
  6
CONTINUOUS
 62
     7
 10
278.0
 20
509.819
 11
205.5
 21
509.819
  0
LINE
  8
1
  6
CONTINUOUS
 62
     7
 10
205.5
 20
400.181
 11
278.0
 21
400.181
  0
INSERT
  8
1
  6
CONTINUOUS
 62
     7
  2
D_FRAME_VIEW_1441
 10
0.0
 20
0.0
 30
0.0
  0
INSERT
  8
1
  6
CONTINUOUS
 62
     7
  2
D_FRAME_VIEW_1475
 10
0.0
 20
0.0
 30
0.0
  0
TEXT
  8
1
  6
CONTINUOUS
 62
     7
 10
400.9494497936727
 20
377.2140333875203
 40
5.0
  1
MFAJ-100
  0
LINE
  8
1
  6
CENTER
 62
     1
 10
314.202
 20
455.0
 11
430.798
 21
455.0
  0
LINE
  8
1
  6
CENTER
 62
     1
 10
372.5
 20
396.702
 11
372.5
 21
513.298
  0
LINE
  8
1
  6
CENTER
 62
     1
 10
278.521
 20
455.0
 11
206.479
 21
455.0
  0
ENDSEC
  0
EOF
