  0
SECTION
  2
HEADER
  9
$ACADVER
  1
AC1014
  9
$ACADMAINTVER
 70
     9
  9
$DWGCODEPAGE
  3
ANSI_932
  9
$INSBASE
 10
0.0
 20
0.0
 30
0.0
  9
$EXTMIN
 10
379.5000000000001
 20
79.7125109416031
 30
0.0
  9
$EXTMAX
 10
558.9999999999991
 20
165.5
 30
0.0
  9
$LIMMIN
 10
0.0
 20
0.0
  9
$LIMMAX
 10
12.0
 20
9.0
  9
$ORTHOMODE
 70
     0
  9
$REGENMODE
 70
     1
  9
$FILLMODE
 70
     1
  9
$QTEXTMODE
 70
     0
  9
$MIRRTEXT
 70
     1
  9
$DRAGMODE
 70
     2
  9
$LTSCALE
 40
1.0
  9
$OSMODE
 70
    37
  9
$ATTMODE
 70
     1
  9
$TEXTSIZE
 40
0.2
  9
$TRACEWID
 40
0.05
  9
$TEXTSTYLE
  7
STANDARD
  9
$CLAYER
  8
0
  9
$CELTYPE
  6
BYLAYER
  9
$CECOLOR
 62
   256
  9
$CELTSCALE
 40
1.0
  9
$DELOBJ
 70
     1
  9
$DISPSILH
 70
     0
  9
$DIMSCALE
 40
1.0
  9
$DIMASZ
 40
3.0
  9
$DIMEXO
 40
0.0625
  9
$DIMDLI
 40
0.38
  9
$DIMRND
 40
0.0
  9
$DIMDLE
 40
0.0
  9
$DIMEXE
 40
1.5
  9
$DIMTP
 40
0.0
  9
$DIMTM
 40
0.0
  9
$DIMTXT
 40
3.0
  9
$DIMCEN
 40
0.09
  9
$DIMTSZ
 40
0.0
  9
$DIMTOL
 70
     0
  9
$DIMLIM
 70
     0
  9
$DIMTIH
 70
     1
  9
$DIMTOH
 70
     1
  9
$DIMSE1
 70
     0
  9
$DIMSE2
 70
     0
  9
$DIMTAD
 70
     1
  9
$DIMZIN
 70
     0
  9
$DIMBLK
  1

  9
$DIMASO
 70
     1
  9
$DIMSHO
 70
     1
  9
$DIMPOST
  1

  9
$DIMAPOST
  1

  9
$DIMALT
 70
     0
  9
$DIMALTD
 70
     2
  9
$DIMALTF
 40
25.4
  9
$DIMLFAC
 40
1.0
  9
$DIMTOFL
 70
     0
  9
$DIMTVP
 40
0.0
  9
$DIMTIX
 70
     0
  9
$DIMSOXD
 70
     0
  9
$DIMSAH
 70
     0
  9
$DIMBLK1
  1

  9
$DIMBLK2
  1

  9
$DIMSTYLE
  2
STANDARD
  9
$DIMCLRD
 70
     0
  9
$DIMCLRE
 70
     0
  9
$DIMCLRT
 70
     0
  9
$DIMTFAC
 40
1.0
  9
$DIMGAP
 40
1.5
  9
$DIMJUST
 70
     0
  9
$DIMSD1
 70
     0
  9
$DIMSD2
 70
     0
  9
$DIMTOLJ
 70
     1
  9
$DIMTZIN
 70
     0
  9
$DIMALTZ
 70
     0
  9
$DIMALTTZ
 70
     0
  9
$DIMFIT
 70
     3
  9
$DIMUPT
 70
     0
  9
$DIMUNIT
 70
     2
  9
$DIMDEC
 70
     2
  9
$DIMTDEC
 70
     4
  9
$DIMALTU
 70
     2
  9
$DIMALTTD
 70
     2
  9
$DIMTXSTY
  7
ＭＳ_ゴシック
  9
$DIMAUNIT
 70
     0
  9
$LUNITS
 70
     2
  9
$LUPREC
 70
     4
  9
$SKETCHINC
 40
0.1
  9
$FILLETRAD
 40
0.5
  9
$AUNITS
 70
     0
  9
$AUPREC
 70
     0
  9
$MENU
  1
.
  9
$ELEVATION
 40
0.0
  9
$PELEVATION
 40
0.0
  9
$THICKNESS
 40
0.0
  9
$LIMCHECK
 70
     0
  9
$CHAMFERA
 40
0.0
  9
$CHAMFERB
 40
0.0
  9
$CHAMFERC
 40
0.0
  9
$CHAMFERD
 40
0.0
  9
$SKPOLY
 70
     0
  9
$TDCREATE
 40
2459466.728377269
  9
$TDUPDATE
 40
2459466.728377627
  9
$TDINDWG
 40
0.0000000116
  9
$TDUSRTIMER
 40
0.0000000116
  9
$USRTIMER
 70
     1
  9
$ANGBASE
 50
0.0
  9
$ANGDIR
 70
     0
  9
$PDMODE
 70
     0
  9
$PDSIZE
 40
0.0
  9
$PLINEWID
 40
0.0
  9
$COORDS
 70
     1
  9
$SPLFRAME
 70
     0
  9
$SPLINETYPE
 70
     6
  9
$SPLINESEGS
 70
     8
  9
$ATTDIA
 70
     0
  9
$ATTREQ
 70
     1
  9
$HANDLING
 70
     1
  9
$HANDSEED
  5
3B3
  9
$SURFTAB1
 70
     6
  9
$SURFTAB2
 70
     6
  9
$SURFTYPE
 70
     6
  9
$SURFU
 70
     6
  9
$SURFV
 70
     6
  9
$UCSNAME
  2

  9
$UCSORG
 10
0.0
 20
0.0
 30
0.0
  9
$UCSXDIR
 10
1.0
 20
0.0
 30
0.0
  9
$UCSYDIR
 10
0.0
 20
1.0
 30
0.0
  9
$PUCSNAME
  2

  9
$PUCSORG
 10
0.0
 20
0.0
 30
0.0
  9
$PUCSXDIR
 10
1.0
 20
0.0
 30
0.0
  9
$PUCSYDIR
 10
0.0
 20
1.0
 30
0.0
  9
$USERI1
 70
     0
  9
$USERI2
 70
     0
  9
$USERI3
 70
     0
  9
$USERI4
 70
     0
  9
$USERI5
 70
     0
  9
$USERR1
 40
0.0
  9
$USERR2
 40
0.0
  9
$USERR3
 40
0.0
  9
$USERR4
 40
0.0
  9
$USERR5
 40
0.0
  9
$WORLDVIEW
 70
     1
  9
$SHADEDGE
 70
     3
  9
$SHADEDIF
 70
    70
  9
$TILEMODE
 70
     1
  9
$MAXACTVP
 70
    64
  9
$PINSBASE
 10
0.0
 20
0.0
 30
0.0
  9
$PLIMCHECK
 70
     0
  9
$PEXTMIN
 10
1.000000000000000E+20
 20
1.000000000000000E+20
 30
1.000000000000000E+20
  9
$PEXTMAX
 10
-1.000000000000000E+20
 20
-1.000000000000000E+20
 30
-1.000000000000000E+20
  9
$PLIMMIN
 10
0.0
 20
0.0
  9
$PLIMMAX
 10
12.0
 20
9.0
  9
$UNITMODE
 70
     0
  9
$VISRETAIN
 70
     1
  9
$PLINEGEN
 70
     0
  9
$PSLTSCALE
 70
     1
  9
$TREEDEPTH
 70
  3020
  9
$PICKSTYLE
 70
     1
  9
$CMLSTYLE
  2
STANDARD
  9
$CMLJUST
 70
     0
  9
$CMLSCALE
 40
1.0
  9
$PROXYGRAPHICS
 70
     1
  9
$MEASUREMENT
 70
     1
  0
ENDSEC
  0
SECTION
  2
CLASSES
  0
CLASS
  1
ACDBDICTIONARYWDFLT
  2
AcDbDictionaryWithDefault
  3
ObjectDBX Classes
 90
        0
280
     0
281
     0
  0
CLASS
  1
VISUALSTYLE
  2
AcDbVisualStyle
  3
ObjectDBX Classes
 90
     4095
280
     0
281
     0
  0
CLASS
  1
MATERIAL
  2
AcDbMaterial
  3
ObjectDBX Classes
 90
     1153
280
     0
281
     0
  0
CLASS
  1
SCALE
  2
AcDbScale
  3
ObjectDBX Classes
 90
     1153
280
     0
281
     0
  0
CLASS
  1
TABLESTYLE
  2
AcDbTableStyle
  3
ObjectDBX Classes
 90
     4095
280
     0
281
     0
  0
CLASS
  1
MLEADERSTYLE
  2
AcDbMLeaderStyle
  3
ACDB_MLEADERSTYLE_CLASS
 90
     4095
280
     0
281
     0
  0
CLASS
  1
SUN
  2
AcDbSun
  3
SCENEOE
 90
     1153
280
     0
281
     0
  0
CLASS
  1
DICTIONARYVAR
  2
AcDbDictionaryVar
  3
ObjectDBX Classes
 90
        0
280
     0
281
     0
  0
CLASS
  1
XRECORD
  2
AcDbXrecord
  3
ObjectDBX Classes
 90
        0
280
     0
281
     0
  0
CLASS
  1
LWPOLYLINE
  2
AcDbPolyline
  3
ObjectDBX Classes
 90
        0
280
     0
281
     1
  0
CLASS
  1
HATCH
  2
AcDbHatch
  3
ObjectDBX Classes
 90
        0
280
     0
281
     1
  0
CLASS
  1
ACDBPLACEHOLDER
  2
AcDbPlaceHolder
  3
ObjectDBX Classes
 90
        0
280
     0
281
     0
  0
CLASS
  1
LAYOUT
  2
AcDbLayout
  3
ObjectDBX Classes
 90
        0
280
     0
281
     0
  0
ENDSEC
  0
SECTION
  2
TABLES
  0
TABLE
  2
VPORT
  5
8
102
{ACAD_XDICTIONARY
360
3A8
102
}
330
0
100
AcDbSymbolTable
 70
     1
  0
VPORT
  5
29
330
8
100
AcDbSymbolTableRecord
100
AcDbViewportTableRecord
  2
*ACTIVE
 70
     0
 10
0.0
 20
0.0
 11
1.0
 21
1.0
 12
469.2499999999996
 22
122.6062554708016
 13
0.0
 23
0.0
 14
0.5
 24
0.5
 15
0.5
 25
0.5
 16
0.0
 26
0.0
 36
1.0
 17
0.0
 27
0.0
 37
0.0
 40
85.7874890583969
 41
1.6
 42
50.0
 43
0.0
 44
0.0
 50
0.0
 51
0.0
 71
     0
 72
   100
 73
     1
 74
     3
 75
     0
 76
     0
 77
     0
 78
     0
  0
ENDTAB
  0
TABLE
  2
LTYPE
  5
5
330
0
100
AcDbSymbolTable
 70
     2
  0
LTYPE
  5
14
330
5
100
AcDbSymbolTableRecord
100
AcDbLinetypeTableRecord
  2
BYBLOCK
 70
     0
  3

 72
    65
 73
     0
 40
0.0
  0
LTYPE
  5
15
330
5
100
AcDbSymbolTableRecord
100
AcDbLinetypeTableRecord
  2
BYLAYER
 70
     0
  3

 72
    65
 73
     0
 40
0.0
  0
LTYPE
  5
16
330
5
100
AcDbSymbolTableRecord
100
AcDbLinetypeTableRecord
  2
CONTINUOUS
 70
     0
  3
Solid line
 72
    65
 73
     0
 40
0.0
  0
LTYPE
  5
70
330
5
100
AcDbSymbolTableRecord
100
AcDbLinetypeTableRecord
  2
CENTER
 70
     0
  3

 72
    65
 73
     0
 40
0.0
  0
ENDTAB
  0
TABLE
  2
LAYER
  5
2
330
0
100
AcDbSymbolTable
 70
     1
  0
LAYER
  5
10
330
2
100
AcDbSymbolTableRecord
100
AcDbLayerTableRecord
  2
0
 70
     0
 62
     7
  6
CONTINUOUS
  0
ENDTAB
  0
TABLE
  2
STYLE
  5
3
330
0
100
AcDbSymbolTable
 70
     2
  0
STYLE
  5
11
330
3
100
AcDbSymbolTableRecord
100
AcDbTextStyleTableRecord
  2
STANDARD
 70
     0
 40
0.0
 41
1.0
 50
0.0
 71
     0
 42
0.2
  3
txt
  4

  0
STYLE
  5
6E
330
3
100
AcDbSymbolTableRecord
100
AcDbTextStyleTableRecord
  2
ＭＳ_ゴシック
 70
     0
 40
0.0
 41
1.0
 50
0.0
 71
     0
 42
0.2
  3
ＭＳ ゴシック.shx
  4

  0
ENDTAB
  0
TABLE
  2
VIEW
  5
6
330
0
100
AcDbSymbolTable
 70
     0
  0
ENDTAB
  0
TABLE
  2
UCS
  5
7
330
0
100
AcDbSymbolTable
 70
     0
  0
ENDTAB
  0
TABLE
  2
APPID
  5
9
330
0
100
AcDbSymbolTable
 70
     2
  0
APPID
  5
12
330
9
100
AcDbSymbolTableRecord
100
AcDbRegAppTableRecord
  2
ACAD
 70
     0
  0
APPID
  5
3B2
330
9
100
AcDbSymbolTableRecord
100
AcDbRegAppTableRecord
  2
ACAD_MLEADERVER
 70
     0
  0
ENDTAB
  0
TABLE
  2
DIMSTYLE
  5
A
330
0
100
AcDbSymbolTable
 70
     1
  0
DIMSTYLE
105
27
330
A
100
AcDbSymbolTableRecord
100
AcDbDimStyleTableRecord
  2
STANDARD
 70
     0
  3

  4

  5

  6

  7

 40
1.0
 41
0.18
 42
0.0625
 43
0.38
 44
0.18
 45
0.0
 46
0.0
 47
0.0
 48
0.0
140
0.18
141
0.09
142
0.0
143
25.4
144
1.0
145
0.0
146
1.0
147
0.09
 71
     0
 72
     0
 73
     1
 74
     1
 75
     0
 76
     0
 77
     0
 78
     0
170
     0
171
     2
172
     0
173
     0
174
     0
175
     0
176
     0
177
     0
178
     0
270
     2
271
     4
272
     4
273
     2
274
     2
340
11
275
     0
280
     0
281
     0
282
     0
283
     1
284
     0
285
     0
286
     0
287
     3
288
     0
  0
ENDTAB
  0
TABLE
  2
BLOCK_RECORD
  5
1
330
0
100
AcDbSymbolTable
 70
     0
  0
BLOCK_RECORD
  5
1F
330
1
100
AcDbSymbolTableRecord
100
AcDbBlockTableRecord
  2
*MODEL_SPACE
  0
BLOCK_RECORD
  5
1B
330
1
100
AcDbSymbolTableRecord
100
AcDbBlockTableRecord
  2
*PAPER_SPACE
  0
ENDTAB
  0
ENDSEC
  0
SECTION
  2
BLOCKS
  0
BLOCK
  5
20
330
1F
100
AcDbEntity
  8
0
100
AcDbBlockBegin
  2
*MODEL_SPACE
 70
     0
 10
0.0
 20
0.0
 30
0.0
  3
*MODEL_SPACE
  1

  0
ENDBLK
  5
21
330
1F
100
AcDbEntity
  8
0
100
AcDbBlockEnd
  0
BLOCK
  5
1C
330
1B
100
AcDbEntity
 67
     1
  8
0
100
AcDbBlockBegin
  2
*PAPER_SPACE
 70
     0
 10
0.0
 20
0.0
 30
0.0
  3
*PAPER_SPACE
  1

  0
ENDBLK
  5
1D
330
1B
100
AcDbEntity
 67
     1
  8
0
100
AcDbBlockEnd
  0
ENDSEC
  0
SECTION
  2
ENTITIES
  0
LINE
  5
6F
330
1F
100
AcDbEntity
  8
0
  6
CENTER
 62
     1
100
AcDbLine
 10
461.0000000000013
 20
135.0
 30
0.0
 11
558.9999999999991
 21
135.0
 31
0.0
  0
LINE
  5
71
330
1F
100
AcDbEntity
  8
0
  6
CENTER
 62
     1
100
AcDbLine
 10
410.0
 20
104.5
 30
0.0
 11
410.0
 21
165.5
 31
0.0
  0
LINE
  5
72
330
1F
100
AcDbEntity
  8
0
  6
CENTER
 62
     1
100
AcDbLine
 10
379.5000000000001
 20
135.0
 30
0.0
 11
440.5
 21
135.0
 31
0.0
  0
POINT
  5
73
330
1F
100
AcDbEntity
  8
0
 62
     1
100
AcDbPoint
 10
510.0
 20
135.0
 30
0.0
  0
MTEXT
  5
74
330
1F
100
AcDbEntity
  8
0
 62
     4
100
AcDbMText
 10
505.2560335125671
 20
82.37160185069402
 30
0.0
 40
3.0
 41
0.0
 71
     1
 72
     1
  1
{\fＭＳ ゴシック;MFFE-22BU}
  0
LINE
  5
75
330
1F
100
AcDbEntity
  8
0
  6
CONTINUOUS
 62
   253
100
AcDbLine
 10
542.7026179606503
 20
111.5846734641749
 30
0.0
 11
542.7026179606503
 21
111.727753321404
 31
0.0
  0
LINE
  5
76
330
1F
100
AcDbEntity
  8
0
  6
CONTINUOUS
 62
     7
100
AcDbLine
 10
533.0000000000026
 20
111.5000000000083
 30
0.0
 11
533.000000000003
 21
134.9999999999998
 31
0.0
  0
LINE
  5
77
330
1F
100
AcDbEntity
  8
0
  6
CONTINUOUS
 62
   253
100
AcDbLine
 10
542.7026179606509
 20
158.2722466785953
 30
0.0
 11
542.7026179606509
 21
158.4153265358243
 31
0.0
  0
ARC
  5
78
330
1F
100
AcDbEntity
  8
0
  6
CONTINUOUS
 62
   253
100
AcDbCircle
 10
544.4282033962385
 20
164.4324359241127
 30
0.0
 40
6.450990374611229
100
AcDbArc
 50
256.0448637263158
 51
270.1029875773435
  0
LWPOLYLINE
  5
79
330
1F
100
AcDbEntity
  8
0
  6
CONTINUOUS
 62
   253
100
AcDbPolyline
 90
        3
 70
     0
 43
0.0
 10
-542.8724692632479
 20
158.171847443724
 10
-542.7557915767619
 20
158.2187205851905
 10
-542.7026179606509
 20
158.2722466786036
210
0.0
220
0.0
230
-1.0
  0
LINE
  5
7A
330
1F
100
AcDbEntity
  8
0
  6
CONTINUOUS
 62
     7
100
AcDbLine
 10
550.2237354233685
 20
157.8897623673114
 30
0.0
 11
544.4397988665861
 21
157.9814559707727
 31
0.0
  0
LINE
  5
7B
330
1F
100
AcDbEntity
  8
0
  6
CONTINUOUS
 62
   253
100
AcDbLine
 10
550.2237354233685
 20
154.4463984243776
 30
0.0
 11
550.2237354233685
 21
157.8897623673025
 31
0.0
  0
LINE
  5
7C
330
1F
100
AcDbEntity
  8
0
  6
CONTINUOUS
 62
   253
100
AcDbLine
 10
544.4397988665861
 20
154.3664682305905
 30
0.0
 11
550.2237354233685
 21
154.4463984243835
 31
0.0
  0
LWPOLYLINE
  5
7D
330
1F
100
AcDbEntity
  8
0
  6
CONTINUOUS
 62
   253
100
AcDbPolyline
 90
        7
 70
     0
 43
0.0
 10
-542.7026179606509
 20
153.2835371470042
 10
-542.7111921177359
 20
153.3939730064173
 10
-542.7366369727284
 20
153.5026261181011
 10
-542.7785361012342
 20
153.6080853673467
 10
-542.8364789240856
 20
153.7090051265406
 10
-542.9103163226134
 20
153.8053162963923
 10
-542.9991487329405
 20
153.8962138517225
210
0.0
220
0.0
230
-1.0
  0
ARC
  5
7E
330
1F
100
AcDbEntity
  8
0
  6
CONTINUOUS
 62
   253
100
AcDbCircle
 10
544.3733077786294
 20
152.1282847138495
 30
0.0
 40
2.239170944655349
100
AcDbArc
 50
88.29837966747374
 51
127.8568671356985
  0
LINE
  5
7F
330
1F
100
AcDbEntity
  8
0
  6
CONTINUOUS
 62
   253
100
AcDbLine
 10
542.7026179606507
 20
149.6283897327652
 30
0.0
 11
542.7026179606507
 21
153.2835371469982
 31
0.0
  0
ARC
  5
80
330
1F
100
AcDbEntity
  8
0
  6
CONTINUOUS
 62
   253
100
AcDbCircle
 10
544.4532799485244
 20
149.9906588079159
 30
0.0
 40
1.856489269315313
100
AcDbArc
 50
209.4945057388254
 51
269.5839373275342
  0
LWPOLYLINE
  5
81
330
1F
100
AcDbEntity
  8
0
  6
CONTINUOUS
 62
   253
100
AcDbPolyline
 90
        5
 70
     0
 43
0.0
 10
-542.8373862826296
 20
149.0766347012295
 10
-542.7789455170889
 20
149.2112419868541
 10
-542.7368178277936
 20
149.3483333548959
 10
-542.7112125472536
 20
149.4881833887482
 10
-542.7026179606507
 20
149.6283897327689
210
0.0
220
0.0
230
-1.0
  0
LINE
  5
82
330
1F
100
AcDbEntity
  8
0
  6
CONTINUOUS
 62
   253
100
AcDbLine
 10
550.2237354233683
 20
147.9246139549653
 30
0.0
 11
544.439798866586
 21
148.1342184863562
 31
0.0
  0
LINE
  5
83
330
1F
100
AcDbEntity
  8
0
  6
CONTINUOUS
 62
   253
100
AcDbLine
 10
550.2237354233682
 20
139.6115980237614
 30
0.0
 11
550.2237354233683
 21
147.9246139549606
 31
0.0
  0
LINE
  5
84
330
1F
100
AcDbEntity
  8
0
  6
CONTINUOUS
 62
   253
100
AcDbLine
 10
544.4397988665859
 20
139.4068660561958
 30
0.0
 11
550.2237354233682
 21
139.6115980237623
 31
0.0
  0
ARC
  5
85
330
1F
100
AcDbEntity
  8
0
  6
CONTINUOUS
 62
   253
100
AcDbCircle
 10
544.5156054027692
 20
137.5954316513539
 30
0.0
 40
1.813019921008312
100
AcDbArc
 50
92.39636702234145
 51
180.3429553466053
  0
LINE
  5
86
330
1F
100
AcDbEntity
  8
0
  6
CONTINUOUS
 62
   253
100
AcDbLine
 10
542.7026179606505
 20
132.4154204771578
 30
0.0
 11
542.7026179606506
 21
137.5845795228405
 31
0.0
  0
ARC
  5
87
330
1F
100
AcDbEntity
  8
0
  6
CONTINUOUS
 62
   253
100
AcDbCircle
 10
544.5156106211457
 20
132.4045733233098
 30
0.0
 40
1.813025109521591
100
AcDbArc
 50
179.6572028485721
 51
267.603474782478
  0
LINE
  5
88
330
1F
100
AcDbEntity
  8
0
  6
CONTINUOUS
 62
   253
100
AcDbLine
 10
550.2237354233681
 20
130.3884019762368
 30
0.0
 11
544.4397988665858
 21
130.5931339438034
 31
0.0
  0
LINE
  5
89
330
1F
100
AcDbEntity
  8
0
  6
CONTINUOUS
 62
   253
100
AcDbLine
 10
550.223735423368
 20
122.0753860450369
 30
0.0
 11
550.2237354233681
 21
130.3884019762363
 31
0.0
  0
LINE
  5
8A
330
1F
100
AcDbEntity
  8
0
  6
CONTINUOUS
 62
   253
100
AcDbLine
 10
544.4397988665856
 20
121.865781513643
 30
0.0
 11
550.223735423368
 21
122.0753860450338
 31
0.0
  0
LWPOLYLINE
  5
8B
330
1F
100
AcDbEntity
  8
0
  6
CONTINUOUS
 62
   253
100
AcDbPolyline
 90
        5
 70
     0
 43
0.0
 10
-542.7026179606504
 20
120.3716102672304
 10
-542.7111921177354
 20
120.5108691673285
 10
-542.736636972728
 20
120.6502538363453
 10
-542.7785361012337
 20
120.7878451258691
 10
-542.8364789240851
 20
120.921799925471
210
0.0
220
0.0
230
-1.0
  0
ARC
  5
8C
330
1F
100
AcDbEntity
  8
0
  6
CONTINUOUS
 62
   253
100
AcDbCircle
 10
544.4539753546629
 20
120.0081208278468
 30
0.0
 40
1.857714777991271
100
AcDbArc
 50
90.43723655992801
 51
150.5390936884024
  0
LINE
  5
8D
330
1F
100
AcDbEntity
  8
0
  6
CONTINUOUS
 62
   253
100
AcDbLine
 10
542.7026179606503
 20
116.7164628530003
 30
0.0
 11
542.7026179606503
 21
120.3716102672335
 31
0.0
  0
ARC
  5
8E
330
1F
100
AcDbEntity
  8
0
  6
CONTINUOUS
 62
   253
100
AcDbCircle
 10
544.3714991573545
 20
117.8665691019445
 30
0.0
 40
2.234081596267178
100
AcDbArc
 50
232.1046166783339
 51
271.7519032978984
  0
LWPOLYLINE
  5
8F
330
1F
100
AcDbEntity
  8
0
  6
CONTINUOUS
 62
   253
100
AcDbPolyline
 90
        7
 70
     0
 43
0.0
 10
-542.999277947504
 20
116.103580295963
 10
-542.9113247460342
 20
116.1933543641422
 10
-542.8373862826292
 20
116.2898489346986
 10
-542.7789455170885
 20
116.3912335990065
 10
-542.7368178277932
 20
116.4962471418457
 10
-542.7112125472531
 20
116.6052615763876
 10
-542.7026179606503
 20
116.716462852995
210
0.0
220
0.0
230
-1.0
  0
LINE
  5
90
330
1F
100
AcDbEntity
  8
0
  6
CONTINUOUS
 62
   253
100
AcDbLine
 10
550.2237354233679
 20
115.5536015756155
 30
0.0
 11
544.4397988665855
 21
115.6335317694087
 31
0.0
  0
LINE
  5
91
330
1F
100
AcDbEntity
  8
0
  6
CONTINUOUS
 62
   253
100
AcDbLine
 10
550.2237354233679
 20
112.1102376326957
 30
0.0
 11
550.2237354233679
 21
115.5536015756211
 31
0.0
  0
LINE
  5
92
330
1F
100
AcDbEntity
  8
0
  6
CONTINUOUS
 62
     7
100
AcDbLine
 10
544.4397988665854
 20
112.0185440292265
 30
0.0
 11
550.2237354233678
 21
112.1102376326877
 31
0.0
  0
LINE
  5
93
330
1F
100
AcDbEntity
  8
0
  6
CONTINUOUS
 62
   253
100
AcDbLine
 10
542.7026179606503
 20
111.7277533213957
 30
0.0
 11
542.8055258854309
 21
111.8042050553377
 31
0.0
  0
ARC
  5
94
330
1F
100
AcDbEntity
  8
0
  6
CONTINUOUS
 62
   253
100
AcDbCircle
 10
544.3881998968709
 20
106.0743712959407
 30
0.0
 40
5.94439668400532
100
AcDbArc
 50
89.50265090364088
 51
105.4410251870831
  0
LINE
  5
95
330
1F
100
AcDbEntity
  8
0
  6
CONTINUOUS
 62
     7
100
AcDbLine
 10
533.0000000000028
 20
134.9999999999997
 30
0.0
 11
533.0000000000032
 21
158.499999999987
 31
0.0
  0
LWPOLYLINE
  5
96
330
1F
100
AcDbEntity
  8
0
  6
CONTINUOUS
 62
   253
100
AcDbPolyline
 90
        9
 70
     0
 43
0.0
 10
543.0000000000011
 20
137.551466837789
 10
542.9942992522109
 20
137.5578916166843
 10
542.9774136656758
 20
137.5640722219523
 10
542.9499849768636
 20
137.5697737597809
 10
542.9130556126881
 20
137.5747795433089
 10
542.8680290730913
 20
137.5788993278071
 10
542.8166165910469
 20
137.5819765409262
 10
542.7607720971778
 20
137.583894233227
 10
542.7026179606507
 20
137.5845795228419
  0
LINE
  5
97
330
1F
100
AcDbEntity
  8
0
  6
CONTINUOUS
 62
     7
100
AcDbLine
 10
543.000000000001
 20
137.5514668377885
 30
0.0
 11
543.0000000000009
 21
132.4485331622116
 31
0.0
  0
LWPOLYLINE
  5
98
330
1F
100
AcDbEntity
  8
0
  6
CONTINUOUS
 62
   253
100
AcDbPolyline
 90
        9
 70
     0
 43
0.0
 10
542.7026179606506
 20
132.4154204771573
 10
542.7607720971777
 20
132.4161057667723
 10
542.8166165910468
 20
132.4180234590731
 10
542.8680290730912
 20
132.4211006721922
 10
542.913055612688
 20
132.4252204566903
 10
542.9499849768634
 20
132.4302262402183
 10
542.9774136656757
 20
132.4359277780469
 10
542.9942992522108
 20
132.4421083833149
 10
543.000000000001
 20
132.4485331622103
  0
ARC
  5
99
330
1F
100
AcDbEntity
  8
0
  6
CONTINUOUS
 62
     7
100
AcDbCircle
 10
544.5000250989391
 20
137.5514426000263
 30
0.0
 40
1.500025099133849
100
AcDbArc
 50
92.00092579885677
 51
179.9990742011514
  0
LINE
  5
9A
330
1F
100
AcDbEntity
  8
0
  6
CONTINUOUS
 62
   253
100
AcDbLine
 10
544.4476507549471
 20
139.0505530783176
 30
0.0
 11
544.4478807313535
 21
139.0509724994521
 31
0.0
  0
LWPOLYLINE
  5
9B
330
1F
100
AcDbEntity
  8
0
  6
CONTINUOUS
 62
   253
100
AcDbPolyline
 90
       10
 70
     0
 43
0.0
 10
544.4478807313535
 20
139.0509724994521
 10
544.4484645841327
 20
139.0593342245927
 10
544.4486435220814
 20
139.0781397812363
 10
544.4484111240107
 20
139.1067143319188
 10
544.4477757295264
 20
139.1440324787919
 10
544.4467601397615
 20
139.1887550600283
 10
544.4454007991583
 20
139.2392772056483
 10
544.4437464876588
 20
139.2937859282848
 10
544.441856570237
 20
139.3503251822407
 10
544.4397988665859
 20
139.4068660561958
  0
ARC
  5
9C
330
1F
100
AcDbEntity
  8
0
  6
CONTINUOUS
 62
     7
100
AcDbCircle
 10
544.5000235553505
 20
132.4485559093469
 30
0.0
 40
1.500023555522022
100
AcDbArc
 50
180.0008688629719
 51
267.9991311370164
  0
LWPOLYLINE
  5
9D
330
1F
100
AcDbEntity
  8
0
  6
CONTINUOUS
 62
   253
100
AcDbPolyline
 90
       10
 70
     0
 43
0.0
 10
544.4397988665856
 20
130.5931339438034
 10
544.4419173830069
 20
130.6514190734376
 10
544.4438553805493
 20
130.7096360046088
 10
544.4455389973241
 20
130.7655659458015
 10
544.4469040665238
 20
130.8170772683561
 10
544.4478985619783
 20
130.8622067481188
 10
544.4484845810015
 20
130.8992343887798
 10
544.4486397889561
 20
130.9267489751945
 10
544.4483582704825
 20
130.9437018582905
 10
544.447650754947
 20
130.9494469216816
  0
LINE
  5
9E
330
1F
100
AcDbEntity
  8
0
  6
CONTINUOUS
 62
     7
100
AcDbLine
 10
551.6034243374532
 20
157.9999999999912
 30
0.0
 11
551.6034243374532
 21
157.5251895342367
 31
0.0
  0
LINE
  5
9F
330
1F
100
AcDbEntity
  8
0
  6
CONTINUOUS
 62
   253
100
AcDbLine
 10
553.09533329574
 20
156.1262621042042
 30
0.0
 11
553.0953332957395
 21
113.8737378957949
 31
0.0
  0
LINE
  5
A0
330
1F
100
AcDbEntity
  8
0
  6
CONTINUOUS
 62
     7
100
AcDbLine
 10
551.6034243374526
 20
112.4748104657623
 30
0.0
 11
551.6034243374526
 21
112.000000000008
 31
0.0
  0
ARC
  5
A1
330
1F
100
AcDbEntity
  8
0
  6
CONTINUOUS
 62
   253
100
AcDbCircle
 10
550.1762401688227
 20
115.0829114114229
 30
0.0
 40
2.973053177120151
100
AcDbArc
 50
270.91535308397
 51
298.6880083908597
  0
ARC
  5
A2
330
1F
100
AcDbEntity
  8
0
  6
CONTINUOUS
 62
   253
100
AcDbCircle
 10
550.2846557738885
 20
119.4231904502751
 30
0.0
 40
3.870068390609704
100
AcDbArc
 50
269.0980461358155
 51
289.9232480471762
  0
LINE
  5
A3
330
1F
100
AcDbEntity
  8
0
  6
CONTINUOUS
 62
     7
100
AcDbLine
 10
551.6034243374527
 20
122.3598255764117
 30
0.0
 11
551.6034243374526
 21
115.7847458892437
 31
0.0
  0
ARC
  5
A4
330
1F
100
AcDbEntity
  8
0
  6
CONTINUOUS
 62
   253
100
AcDbCircle
 10
550.1022420031932
 20
126.1530428765979
 30
0.0
 40
4.079466372841785
100
AcDbArc
 50
271.7066177306493
 51
291.591399081273
  0
LINE
  5
A5
330
1F
100
AcDbEntity
  8
0
  6
CONTINUOUS
 62
   253
100
AcDbLine
 10
551.6034243374528
 20
130.350716566358
 30
0.0
 11
550.2237354233681
 21
130.3884019762367
 31
0.0
  0
LINE
  5
A6
330
1F
100
AcDbEntity
  8
0
  6
CONTINUOUS
 62
     7
100
AcDbLine
 10
551.6034243374529
 20
139.6492834336401
 30
0.0
 11
551.6034243374528
 21
130.3507165663606
 31
0.0
  0
LINE
  5
A7
330
1F
100
AcDbEntity
  8
0
  6
CONTINUOUS
 62
   253
100
AcDbLine
 10
550.2237354233682
 20
139.6115980237623
 30
0.0
 11
551.6034243374529
 21
139.649283433641
 31
0.0
  0
ARC
  5
A8
330
1F
100
AcDbEntity
  8
0
  6
CONTINUOUS
 62
   253
100
AcDbCircle
 10
550.0998362213425
 20
143.8352877519414
 30
0.0
 40
4.091202733549156
100
AcDbArc
 50
68.4374109789872
 51
88.26457220908746
  0
LINE
  5
A9
330
1F
100
AcDbEntity
  8
0
  6
CONTINUOUS
 62
     7
100
AcDbLine
 10
551.6034243374531
 20
154.2152541107567
 30
0.0
 11
551.603424337453
 21
147.6401744235882
 31
0.0
  0
ARC
  5
AA
330
1F
100
AcDbEntity
  8
0
  6
CONTINUOUS
 62
   253
100
AcDbCircle
 10
550.2869409244013
 20
150.590449499501
 30
0.0
 40
3.856466912429469
100
AcDbArc
 50
70.0396155355172
 51
90.93909028148742
  0
ARC
  5
AB
330
1F
100
AcDbEntity
  8
0
  6
CONTINUOUS
 62
   253
100
AcDbCircle
 10
550.1761863867597
 20
154.916885055811
 30
0.0
 40
2.973257543522971
100
AcDbArc
 50
61.31296521991945
 51
89.08367330524766
  0
LINE
  5
AC
330
1F
100
AcDbEntity
  8
0
  6
CONTINUOUS
 62
     7
100
AcDbLine
 10
550.231707151984
 20
139.2526369316595
 30
0.0
 11
549.4021975110682
 21
139.2235696635242
 31
0.0
  0
LWPOLYLINE
  5
AD
330
1F
100
AcDbEntity
  8
0
  6
CONTINUOUS
 62
     7
100
AcDbPolyline
 90
        5
 70
     0
 43
0.0
 10
-551.6034243374529
 20
139.649283433641
 10
-551.5629006500997
 20
139.5415402864535
 10
-551.4807943566288
 20
139.4646343591343
 10
-551.3737821873052
 20
139.4045303423268
 10
-551.2643435028566
 20
139.3626858934327
210
0.0
220
0.0
230
-1.0
  0
ARC
  5
AE
330
1F
100
AcDbEntity
  8
0
  6
CONTINUOUS
 62
     7
100
AcDbCircle
 10
550.3607954582363
 20
142.941204452119
 30
0.0
 40
3.690825672366486
100
AcDbArc
 50
267.9956452665383
 51
284.1705577564894
  0
ARC
  5
AF
330
1F
100
AcDbEntity
  8
0
  6
CONTINUOUS
 62
     7
100
AcDbCircle
 10
550.2886256197238
 20
126.066043226481
 30
0.0
 40
4.681665854559472
100
AcDbArc
 50
79.20113446180926
 51
90.69660424818845
  0
LWPOLYLINE
  5
B0
330
1F
100
AcDbEntity
  8
0
  6
CONTINUOUS
 62
     7
100
AcDbPolyline
 90
        6
 70
     0
 43
0.0
 10
-551.1657912663334
 20
130.6648012764502
 10
-551.3268063993359
 20
130.6150996132748
 10
-551.4417139902442
 20
130.5605427483212
 10
-551.5324108147012
 20
130.4928099654266
 10
-551.5928607311718
 20
130.4055577520816
 10
-551.6034243374528
 20
130.350716566358
210
0.0
220
0.0
230
-1.0
  0
LINE
  5
B1
330
1F
100
AcDbEntity
  8
0
  6
CONTINUOUS
 62
     7
100
AcDbLine
 10
549.402197511068
 20
130.7764303364749
 30
0.0
 11
550.2317071519839
 21
130.7473630683395
 31
0.0
  0
LWPOLYLINE
  5
B2
330
1F
100
AcDbEntity
  8
0
  6
CONTINUOUS
 62
   253
100
AcDbPolyline
 90
       10
 70
     0
 43
0.0
 10
550.2237354233681
 20
130.3884019762368
 10
550.225843461123
 20
130.4460850766314
 10
550.2277747282726
 20
130.50382671713
 10
550.2294569879618
 20
130.5594671372209
 10
550.2308273171769
 20
130.6109251701565
 10
550.2318344603091
 20
130.6562760866329
 10
550.2324407463129
 20
130.6938235871039
 10
550.2326234977486
 20
130.7221632499402
 10
550.2323758790063
 20
130.7402350622263
 10
550.231707151984
 20
130.7473630683395
  0
LINE
  5
B3
330
1F
100
AcDbEntity
  8
0
  6
CONTINUOUS
 62
     7
100
AcDbLine
 10
549.4021975109547
 20
139.2235696635202
 30
0.0
 11
544.4476507548435
 21
139.050553078314
 31
0.0
  0
LWPOLYLINE
  5
B4
330
1F
100
AcDbEntity
  8
0
  6
CONTINUOUS
 62
   253
100
AcDbPolyline
 90
       10
 70
     0
 43
0.0
 10
550.2317071519839
 20
139.2526369316595
 10
550.2323758790063
 20
139.2597649377727
 10
550.2326234977486
 20
139.2778367500588
 10
550.2324407463129
 20
139.3061764128951
 10
550.2318344603091
 20
139.3437239133661
 10
550.2308273171769
 20
139.3890748298424
 10
550.2294569879618
 20
139.4405328627781
 10
550.2277747282726
 20
139.496173282869
 10
550.225843461123
 20
139.5539149233676
 10
550.2237354233681
 20
139.6115980237623
  0
LINE
  5
B5
330
1F
100
AcDbEntity
  8
0
  6
CONTINUOUS
 62
     7
100
AcDbLine
 10
544.4476507548433
 20
130.9494469216852
 30
0.0
 11
549.4021975109545
 21
130.7764303364789
 31
0.0
  0
LINE
  5
B6
330
1F
100
AcDbEntity
  8
0
  6
CONTINUOUS
 62
   253
100
AcDbLine
 10
553.6028023233787
 20
115.7676380902115
 30
0.0
 11
553.6028023233789
 21
134.9999999999995
 31
0.0
  0
LINE
  5
B7
330
1F
100
AcDbEntity
  8
0
  6
CONTINUOUS
 62
   253
100
AcDbLine
 10
553.6028023233789
 20
134.9999999999995
 30
0.0
 11
553.6028023233791
 21
154.232361909784
 31
0.0
  0
LINE
  5
B8
330
1F
100
AcDbEntity
  8
0
  6
CONTINUOUS
 62
     7
100
AcDbLine
 10
551.3268063993218
 20
147.8645669033803
 30
0.0
 11
551.6034243374722
 21
147.6401744235933
 31
0.0
  0
LWPOLYLINE
  5
B9
330
1F
100
AcDbEntity
  8
0
  6
CONTINUOUS
 62
   253
100
AcDbPolyline
 90
        6
 70
     0
 43
0.0
 10
550.2319018258054
 20
148.0583691172306
 10
550.2309075971018
 20
148.0526376493555
 10
550.229534698327
 20
148.0355317474526
 10
550.2278362314769
 20
148.0077130462697
 10
550.2258778911108
 20
147.9702575381424
 10
550.2237354233683
 20
147.9246139549653
  0
LWPOLYLINE
  5
BA
330
1F
100
AcDbEntity
  8
0
  6
CONTINUOUS
 62
   253
100
AcDbPolyline
 90
        6
 70
     0
 43
0.0
 10
550.2237354233681
 20
122.0753860450339
 10
550.2258778889374
 20
122.0297425058956
 10
550.2278362276008
 20
121.9922870229144
 10
550.2295346934437
 20
121.9644683239708
 10
550.2309075920837
 20
121.947362399055
 10
550.2319018216414
 20
121.9416308824157
  0
LINE
  5
BB
330
1F
100
AcDbEntity
  8
0
  6
CONTINUOUS
 62
     7
100
AcDbLine
 10
551.6034243374527
 20
122.3598255764058
 30
0.0
 11
551.337401034521
 21
122.1389531912804
 31
0.0
  0
LINE
  5
BC
330
1F
100
AcDbEntity
  8
0
  6
CONTINUOUS
 62
     7
100
AcDbLine
 10
542.9942472498735
 20
120.5224965255411
 30
0.0
 11
543.0000000000008
 21
120.5590238320951
 31
0.0
  0
LWPOLYLINE
  5
BD
330
1F
100
AcDbEntity
  8
0
  6
CONTINUOUS
 62
   253
100
AcDbPolyline
 90
        6
 70
     0
 43
0.0
 10
544.4397988665856
 20
121.8657815136429
 10
544.4419133695135
 20
121.8208751881148
 10
544.44384821279
 20
121.7840658952749
 10
544.4455299434954
 20
121.7567510351466
 10
544.4468947176831
 20
121.7399675683244
 10
544.4478907241026
 20
121.7343526495896
  0
LWPOLYLINE
  5
BE
330
1F
100
AcDbEntity
  8
0
  6
CONTINUOUS
 62
   253
100
AcDbPolyline
 90
        8
 70
     0
 43
0.0
 10
542.7026179606504
 20
120.3716102672304
 10
542.7607346855262
 20
120.375484085535
 10
542.8165461897926
 20
120.3863242625653
 10
542.8679341150718
 20
120.4037193530443
 10
542.912948002521
 20
120.4270091161108
 10
542.949879323642
 20
120.4553095751482
 10
542.9773263284816
 20
120.4875465696359
 10
542.9942472498735
 20
120.5224965255411
  0
LINE
  5
BF
330
1F
100
AcDbEntity
  8
0
  6
CONTINUOUS
 62
     7
100
AcDbLine
 10
543.0000000000013
 20
149.4409761679041
 30
0.0
 11
542.9942442630085
 21
149.4775128640132
 31
0.0
  0
LWPOLYLINE
  5
C0
330
1F
100
AcDbEntity
  8
0
  6
CONTINUOUS
 62
   253
100
AcDbPolyline
 90
        8
 70
     0
 43
0.0
 10
542.9942442630085
 20
149.4775128640132
 10
542.9773213190745
 20
149.5124610157059
 10
542.9498732665452
 20
149.5446961203507
 10
542.9129418346846
 20
149.5729947668585
 10
542.8679286731465
 20
149.596282943579
 10
542.8165421555065
 20
149.6136768000034
 10
542.7607325417744
 20
149.6245161913278
 10
542.7026179606509
 20
149.6283897327689
  0
LWPOLYLINE
  5
C1
330
1F
100
AcDbEntity
  8
0
  6
CONTINUOUS
 62
   253
100
AcDbPolyline
 90
        6
 70
     0
 43
0.0
 10
544.4478930100487
 20
148.265647084332
 10
544.446897441807
 20
148.2600582571041
 10
544.4455325805071
 20
148.2432871269101
 10
544.4438502999658
 20
148.2159711083639
 10
544.4419145380449
 20
148.1791483920475
 10
544.4397988665861
 20
148.1342184863563
  0
ARC
  5
C2
330
1F
100
AcDbEntity
  8
0
  6
CONTINUOUS
 62
     7
100
AcDbCircle
 10
544.4049275652038
 20
118.0042579231173
 30
0.0
 40
1.87818070210081
100
AcDbArc
 50
231.9400580104132
 51
271.303426025917
  0
LWPOLYLINE
  5
C3
330
1F
100
AcDbEntity
  8
0
  6
CONTINUOUS
 62
     7
100
AcDbPolyline
 90
        6
 70
     0
 43
0.0
 10
-543.2470563145678
 20
116.5254418707651
 10
-543.1738762207186
 20
116.6001865265379
 10
-543.1124286956866
 20
116.6801802824121
 10
-543.0444978681298
 20
116.8071133475949
 10
-543.0072068499635
 20
116.9409558111341
 10
-543.0000000000008
 20
117.0327650320094
210
0.0
220
0.0
230
-1.0
  0
ARC
  5
C4
330
1F
100
AcDbEntity
  8
0
  6
CONTINUOUS
 62
     7
100
AcDbCircle
 10
550.4452522231144
 20
111.5165989901228
 30
0.0
 40
4.498365009459313
100
AcDbArc
 50
77.20188403213467
 51
92.72095115225535
  0
LWPOLYLINE
  5
C5
330
1F
100
AcDbEntity
  8
0
  6
CONTINUOUS
 62
     7
100
AcDbPolyline
 90
        3
 70
     0
 43
0.0
 10
-551.4417139902423
 20
115.9032094931172
 10
-551.5440505704864
 20
115.8580628431069
 10
-551.6034243374526
 20
115.7847458892365
210
0.0
220
0.0
230
-1.0
  0
LINE
  5
C6
330
1F
100
AcDbEntity
  8
0
  6
CONTINUOUS
 62
     7
100
AcDbLine
 10
549.402197510822
 20
116.0265928176015
 30
0.0
 11
550.2317071519835
 21
116.0098924660627
 31
0.0
  0
LINE
  5
C7
330
1F
100
AcDbEntity
  8
0
  6
CONTINUOUS
 62
     7
100
AcDbLine
 10
544.4476507549464
 20
116.1265631985156
 30
0.0
 11
549.4021975108226
 21
116.0265928176028
 31
0.0
  0
LWPOLYLINE
  5
C8
330
1F
100
AcDbEntity
  8
0
  6
CONTINUOUS
 62
     7
100
AcDbPolyline
 90
        6
 70
     0
 43
0.0
 10
-543.0000000000013
 20
152.9672349679899
 10
-543.0160193930069
 20
153.1031966276755
 10
-543.0632663671371
 20
153.2350091232622
 10
-543.1407966866108
 20
153.3593286611952
 10
-543.208797492545
 20
153.4374516010417
 10
-543.2887820378373
 20
153.5107179775209
210
0.0
220
0.0
230
-1.0
  0
ARC
  5
C9
330
1F
100
AcDbEntity
  8
0
  6
CONTINUOUS
 62
     7
100
AcDbCircle
 10
544.4227073925982
 20
151.9205060594031
 30
0.0
 40
1.953090027288432
100
AcDbArc
 50
89.26824251702249
 51
125.4913595877452
  0
LINE
  5
CA
330
1F
100
AcDbEntity
  8
0
  6
CONTINUOUS
 62
     7
100
AcDbLine
 10
549.4021975110685
 20
153.9734071824012
 30
0.0
 11
544.4476507549473
 21
153.8734368014836
 31
0.0
  0
LINE
  5
CB
330
1F
100
AcDbEntity
  8
0
  6
CONTINUOUS
 62
     7
100
AcDbLine
 10
550.2317071519841
 20
153.9901075339364
 30
0.0
 11
549.4021975110683
 21
153.9734071824025
 31
0.0
  0
LWPOLYLINE
  5
CC
330
1F
100
AcDbEntity
  8
0
  6
CONTINUOUS
 62
     7
100
AcDbPolyline
 90
        3
 70
     0
 43
0.0
 10
-551.6034243374531
 20
154.2152541107626
 10
-551.5299405772117
 20
154.1338348965519
 10
-551.428832030258
 20
154.0925976464337
210
0.0
220
0.0
230
-1.0
  0
ARC
  5
CD
330
1F
100
AcDbEntity
  8
0
  6
CONTINUOUS
 62
     7
100
AcDbCircle
 10
550.4799889696666
 20
158.132768201924
 30
0.0
 40
4.150094127978669
100
AcDbArc
 50
266.5701983399726
 51
283.2165273756086
  0
LINE
  5
CE
330
1F
100
AcDbEntity
  8
0
  6
CONTINUOUS
 62
   253
100
AcDbLine
 10
555.5069307951901
 20
117.2498078470873
 30
0.0
 11
555.5069307951906
 21
152.7501921529117
 31
0.0
  0
LWPOLYLINE
  5
CF
330
1F
100
AcDbEntity
  8
0
  6
CONTINUOUS
 62
   253
100
AcDbPolyline
 90
        9
 70
     0
 43
0.0
 10
543.0000000000014
 20
153.049295173851
 10
542.9942992522111
 20
153.0947446106184
 10
542.9774136656761
 20
153.1384667422109
 10
542.9499849768638
 20
153.1787999096615
 10
542.9130556126884
 20
153.2142112515354
 10
542.8680290730915
 20
153.2433549603064
 10
542.8166165910471
 20
153.265123429752
 10
542.760772097178
 20
153.2786893495114
 10
542.702617960651
 20
153.2835371470042
  0
LINE
  5
D0
330
1F
100
AcDbEntity
  8
0
  6
CONTINUOUS
 62
     7
100
AcDbLine
 10
543.0000000000013
 20
153.0492951738458
 30
0.0
 11
543.0000000000013
 21
149.440976167901
 31
0.0
  0
LINE
  5
D1
330
1F
100
AcDbEntity
  8
0
  6
CONTINUOUS
 62
     7
100
AcDbLine
 10
543.0000000000008
 20
120.5590238320988
 30
0.0
 11
543.0000000000008
 21
116.9507048261542
 31
0.0
  0
LWPOLYLINE
  5
D2
330
1F
100
AcDbEntity
  8
0
  6
CONTINUOUS
 62
   253
100
AcDbPolyline
 90
        9
 70
     0
 43
0.0
 10
542.7026179606504
 20
116.716462852995
 10
542.7607720971774
 20
116.7213106504879
 10
542.8166165910466
 20
116.7348765702473
 10
542.868029073091
 20
116.7566450396929
 10
542.9130556126878
 20
116.7857887484639
 10
542.9499849768632
 20
116.8212000903378
 10
542.9774136656755
 20
116.8615332577884
 10
542.9942992522106
 20
116.9052553893809
 10
543.0000000000008
 20
116.9507048261482
  0
LINE
  5
D3
330
1F
100
AcDbEntity
  8
0
  6
CONTINUOUS
 62
     7
100
AcDbLine
 10
555.999999999999
 20
152.2502401911415
 30
0.0
 11
555.9999999999985
 21
117.7497598088574
 31
0.0
  0
ARC
  5
D4
330
1F
100
AcDbEntity
  8
0
  6
CONTINUOUS
 62
   253
100
AcDbCircle
 10
544.382292692009
 20
151.9800704856545
 30
0.0
 40
1.927226664136445
100
AcDbArc
 50
88.0565548387639
 51
126.0841675514128
  0
LWPOLYLINE
  5
D5
330
1F
100
AcDbEntity
  8
0
  6
CONTINUOUS
 62
   253
100
AcDbPolyline
 90
        6
 70
     0
 43
0.0
 10
543.2472080979455
 20
153.5375638497747
 10
543.1731815814447
 20
153.4655976695756
 10
543.085756603985
 20
153.3494138832193
 10
543.0283847159138
 20
153.2247199647614
 10
543.0017979547151
 20
153.0937081092671
 10
543.0000000000013
 20
153.049295173851
  0
LWPOLYLINE
  5
D6
330
1F
100
AcDbEntity
  8
0
  6
CONTINUOUS
 62
   253
100
AcDbPolyline
 90
       10
 70
     0
 43
0.0
 10
544.4476507549473
 20
153.9061885865422
 10
544.4483582704828
 20
153.9514614966988
 10
544.4486397889565
 20
154.0030888964862
 10
544.4484845810018
 20
154.0591031377598
 10
544.4478985619787
 20
154.1173693789746
 10
544.4469040665241
 20
154.1756669492876
 10
544.4455389973244
 20
154.2317739838257
 10
544.4438553805496
 20
154.283552104463
 10
544.4419173830072
 20
154.3290279187097
 10
544.439798866586
 20
154.3664682305905
  0
LWPOLYLINE
  5
D7
330
1F
100
AcDbEntity
  8
0
  6
CONTINUOUS
 62
   253
100
AcDbPolyline
 90
        5
 70
     0
 43
0.0
 10
543.0000000000008
 20
116.9507048261482
 10
543.0160786177922
 20
116.817700576898
 10
543.0636548639138
 20
116.690629120102
 10
543.1416182948702
 20
116.5710935416205
 10
543.2472717276406
 20
116.4623091606259
  0
ARC
  5
D8
330
1F
100
AcDbEntity
  8
0
  6
CONTINUOUS
 62
   253
100
AcDbCircle
 10
544.3806502150721
 20
118.0149199195131
 30
0.0
 40
1.922276505704835
100
AcDbArc
 50
233.8712146816702
 51
271.9974368143842
  0
LWPOLYLINE
  5
D9
330
1F
100
AcDbEntity
  8
0
  6
CONTINUOUS
 62
   253
100
AcDbPolyline
 90
       10
 70
     0
 43
0.0
 10
544.4397988665855
 20
115.6335317694087
 10
544.4419173830067
 20
115.6709720812895
 10
544.4438553805492
 20
115.7164478955362
 10
544.445538997324
 20
115.7682260161735
 10
544.4469040665236
 20
115.8243330507116
 10
544.4478985619783
 20
115.8826306210246
 10
544.4484845810014
 20
115.9408968622395
 10
544.448639788956
 20
115.996911103513
 10
544.4483582704823
 20
116.0485385033004
 10
544.4476507549468
 20
116.093811413457
  0
LINE
  5
DA
330
1F
100
AcDbEntity
  8
0
  6
CONTINUOUS
 62
   253
100
AcDbLine
 10
544.4476507549474
 20
153.8734368014849
 30
0.0
 11
544.4476507549473
 21
153.9061885865422
 31
0.0
  0
LINE
  5
DB
330
1F
100
AcDbEntity
  8
0
  6
CONTINUOUS
 62
   253
100
AcDbLine
 10
544.4476507549467
 20
116.0938114134569
 30
0.0
 11
544.4476507549468
 21
116.1265631985143
 31
0.0
  0
LWPOLYLINE
  5
DC
330
1F
100
AcDbEntity
  8
0
  6
CONTINUOUS
 62
   253
100
AcDbPolyline
 90
       10
 70
     0
 43
0.0
 10
550.2237354233679
 20
115.5536015756155
 10
550.2258434611227
 20
115.5902325286027
 10
550.2277747282724
 20
115.6348383410164
 10
550.2294569879616
 20
115.6857505830821
 10
550.2308273171767
 20
115.7410649401836
 10
550.2318344603088
 20
115.7987124415893
 10
550.2324407463126
 20
115.8565368479536
 10
550.2326234977485
 20
115.9123753030017
 10
550.2323758790061
 20
115.9641392327133
 10
550.2317071519836
 20
116.0098924660627
  0
LINE
  5
DD
330
1F
100
AcDbEntity
  8
0
  6
CONTINUOUS
 62
   253
100
AcDbLine
 10
544.4476507549322
 20
116.0938114134595
 30
0.0
 11
549.4021975108234
 21
116.0265928176028
 31
0.0
  0
LINE
  5
DE
330
1F
100
AcDbEntity
  8
0
  6
CONTINUOUS
 62
   253
100
AcDbLine
 10
549.4021975110704
 20
153.9734071824012
 30
0.0
 11
544.447650754958
 21
153.9061885865416
 31
0.0
  0
LWPOLYLINE
  5
DF
330
1F
100
AcDbEntity
  8
0
  6
CONTINUOUS
 62
   253
100
AcDbPolyline
 90
       10
 70
     0
 43
0.0
 10
550.2317071519841
 20
153.9901075339364
 10
550.2323758790066
 20
154.0358607672858
 10
550.2326234977489
 20
154.0876246969974
 10
550.232440746313
 20
154.1434631520455
 10
550.2318344603093
 20
154.2012875584097
 10
550.2308273171772
 20
154.2589350598155
 10
550.2294569879621
 20
154.314249416917
 10
550.2277747282728
 20
154.3651616589827
 10
550.2258434611232
 20
154.4097674713963
 10
550.2237354233683
 20
154.4463984243835
  0
LINE
  5
E0
330
1F
100
AcDbEntity
  8
0
  6
CONTINUOUS
 62
     7
100
AcDbLine
 10
551.5868717490953
 20
157.5392767079726
 30
0.0
 11
551.6034243374723
 21
157.5251895342448
 31
0.0
  0
LWPOLYLINE
  5
E1
330
1F
100
AcDbEntity
  8
0
  6
CONTINUOUS
 62
     7
100
AcDbPolyline
 90
        3
 70
     0
 43
0.0
 10
550.2269803236268
 20
157.8939384548503
 10
550.2254076901311
 20
157.8953298084138
 10
550.2237354233685
 20
157.8897623673114
  0
LWPOLYLINE
  5
E2
330
1F
100
AcDbEntity
  8
0
  6
CONTINUOUS
 62
     7
100
AcDbPolyline
 90
        3
 70
     0
 43
0.0
 10
550.2237354233678
 20
112.1102376326877
 10
550.2254076852385
 20
112.1046701978812
 10
550.226980314553
 20
112.1060615158737
  0
LINE
  5
E3
330
1F
100
AcDbEntity
  8
0
  6
CONTINUOUS
 62
     7
100
AcDbLine
 10
551.6034243374526
 20
112.4748104657542
 30
0.0
 11
551.588020091639
 21
112.4612204166909
 31
0.0
  0
LWPOLYLINE
  5
E4
330
1F
100
AcDbEntity
  8
0
  6
CONTINUOUS
 62
     7
100
AcDbPolyline
 90
        3
 70
     0
 43
0.0
 10
544.4397988665855
 20
112.0185440292265
 10
544.4414472143791
 20
112.0134187120787
 10
544.4429985563248
 20
112.0151089171741
  0
LWPOLYLINE
  5
E5
330
1F
100
AcDbEntity
  8
0
  6
CONTINUOUS
 62
   253
100
AcDbPolyline
 90
        5
 70
     0
 43
0.0
 10
542.7026179606504
 20
111.7277533213958
 10
542.7644255768982
 20
111.7346986092558
 10
542.8234635995841
 20
111.7541627435212
 10
542.8771940409176
 20
111.7853089797879
 10
542.9233070809241
 20
111.8267983713269
  0
LWPOLYLINE
  5
E6
330
1F
100
AcDbEntity
  8
0
  6
CONTINUOUS
 62
   253
100
AcDbPolyline
 90
        5
 70
     0
 43
0.0
 10
542.9233818333795
 20
158.1731187823658
 10
542.8772617947507
 20
158.2146417151653
 10
542.8235146191499
 20
158.2458143532535
 10
542.7644529147213
 20
158.2652954150484
 10
542.702617960651
 20
158.2722466786035
  0
LWPOLYLINE
  5
E7
330
1F
100
AcDbEntity
  8
0
  6
CONTINUOUS
 62
     7
100
AcDbPolyline
 90
        3
 70
     0
 43
0.0
 10
544.4429987767052
 20
157.9848903291427
 10
544.4414473330755
 20
157.9865814153312
 10
544.4397988665862
 20
157.9814559707727
  0
LINE
  5
E8
330
1F
100
AcDbEntity
  8
0
  6
CONTINUOUS
 62
   253
100
AcDbLine
 10
482.7895301509905
 20
163.0212198427791
 30
0.0
 11
482.7895301509905
 21
162.7903138282809
 31
0.0
  0
LINE
  5
E9
330
1F
100
AcDbEntity
  8
0
  6
CONTINUOUS
 62
     7
100
AcDbLine
 10
496.5000000000013
 20
106.5
 30
0.0
 11
496.5000000000013
 21
163.5
 31
0.0
  0
LINE
  5
EA
330
1F
100
AcDbEntity
  8
0
  6
CONTINUOUS
 62
   253
100
AcDbLine
 10
481.052349245055
 20
111.7779995357898
 30
0.0
 11
470.8372824593725
 21
111.8324504270991
 31
0.0
  0
LWPOLYLINE
  5
EB
330
1F
100
AcDbEntity
  8
0
  6
CONTINUOUS
 62
   253
100
AcDbPolyline
 90
        7
 70
     0
 43
0.0
 10
-482.7895301509906
 20
112.8108540805242
 10
-482.7812450011043
 20
112.7041984988421
 10
-482.7565668840382
 20
112.5998016005985
 10
-482.7148178875983
 20
112.4970277095776
 10
-482.6566171172645
 20
112.398034243488
 10
-482.5827976300174
 20
112.3040681059288
 10
-482.4948679830392
 20
112.2169333148072
210
0.0
220
0.0
230
-1.0
  0
ARC
  5
EC
330
1F
100
AcDbEntity
  8
0
  6
CONTINUOUS
 62
   253
100
AcDbCircle
 10
481.166414338128
 20
113.9929590542117
 30
0.0
 40
2.217894612849124
100
AcDbArc
 50
267.052009211822
 51
306.7962071093086
  0
LINE
  5
ED
330
1F
100
AcDbEntity
  8
0
  6
CONTINUOUS
 62
   253
100
AcDbLine
 10
482.7895301509905
 20
117.8877072009163
 30
0.0
 11
482.7895301509905
 21
112.8108540805242
 31
0.0
  0
ARC
  5
EE
330
1F
100
AcDbEntity
  8
0
  6
CONTINUOUS
 62
   253
100
AcDbCircle
 10
480.9952616063146
 20
117.5312173757778
 30
0.0
 40
1.896222669321708
100
AcDbArc
 50
28.91944696148153
 51
88.27479381961312
  0
LWPOLYLINE
  5
EF
330
1F
100
AcDbEntity
  8
0
  6
CONTINUOUS
 62
   253
100
AcDbPolyline
 90
        5
 70
     0
 43
0.0
 10
-482.6550261507079
 20
118.4481917859028
 10
-482.7132257336331
 20
118.3115604470307
 10
-482.7553255649553
 20
118.1713509366856
 10
-482.7809061265683
 20
118.0294147897925
 10
-482.7895301509906
 20
117.8877072009163
210
0.0
220
0.0
230
-1.0
  0
LINE
  5
F0
330
1F
100
AcDbEntity
  8
0
  6
CONTINUOUS
 62
   253
100
AcDbLine
 10
470.8372824593725
 20
119.9921178128751
 30
0.0
 11
481.0523492450551
 21
119.4265805106816
 31
0.0
  0
LINE
  5
F1
330
1F
100
AcDbEntity
  8
0
  6
CONTINUOUS
 62
   253
100
AcDbLine
 10
470.8372824593725
 20
129.2302438592911
 30
0.0
 11
470.8372824593725
 21
119.9921178128751
 31
0.0
  0
LINE
  5
F2
330
1F
100
AcDbEntity
  8
0
  6
CONTINUOUS
 62
   253
100
AcDbLine
 10
481.052349245055
 20
129.5916365261996
 30
0.0
 11
470.8372824593725
 21
129.2302438592911
 31
0.0
  0
ARC
  5
F3
330
1F
100
AcDbEntity
  8
0
  6
CONTINUOUS
 62
   253
100
AcDbCircle
 10
480.9785199848385
 20
131.4011633518436
 30
0.0
 40
1.811032327814609
100
AcDbArc
 50
272.3363898562089
 51
0.2834497907043101
  0
LINE
  5
F4
330
1F
100
AcDbEntity
  8
0
  6
CONTINUOUS
 62
   253
100
AcDbLine
 10
482.7895301509905
 20
138.5898772685173
 30
0.0
 11
482.7895301509905
 21
131.4101227314826
 31
0.0
  0
ARC
  5
F5
330
1F
100
AcDbEntity
  8
0
  6
CONTINUOUS
 62
   253
100
AcDbCircle
 10
480.978564464977
 20
138.5988791395687
 30
0.0
 40
1.810988058933873
100
AcDbArc
 50
359.7151989267043
 51
87.66496142638243
  0
LINE
  5
F6
330
1F
100
AcDbEntity
  8
0
  6
CONTINUOUS
 62
   253
100
AcDbLine
 10
470.8372824593725
 20
140.7697561407089
 30
0.0
 11
481.0523492450551
 21
140.4083634738004
 31
0.0
  0
LINE
  5
F7
330
1F
100
AcDbEntity
  8
0
  6
CONTINUOUS
 62
   253
100
AcDbLine
 10
470.8372824593725
 20
150.0078821871249
 30
0.0
 11
470.8372824593725
 21
140.7697561407089
 31
0.0
  0
LINE
  5
F8
330
1F
100
AcDbEntity
  8
0
  6
CONTINUOUS
 62
   253
100
AcDbLine
 10
481.052349245055
 20
150.5734194893184
 30
0.0
 11
470.8372824593725
 21
150.0078821871249
 31
0.0
  0
LWPOLYLINE
  5
F9
330
1F
100
AcDbEntity
  8
0
  6
CONTINUOUS
 62
   253
100
AcDbPolyline
 90
        5
 70
     0
 43
0.0
 10
-482.7895301509906
 20
152.1122927990837
 10
-482.7812450011042
 20
151.9726146481067
 10
-482.7565668840382
 20
151.8331626223115
 10
-482.7148178875982
 20
151.6930536904677
 10
-482.6566171172645
 20
151.5553239152883
210
0.0
220
0.0
230
-1.0
  0
ARC
  5
FA
330
1F
100
AcDbEntity
  8
0
  6
CONTINUOUS
 62
   253
100
AcDbCircle
 10
480.9967089693911
 20
152.4658315319512
 30
0.0
 40
1.893229827405479
100
AcDbArc
 50
271.6841125224642
 51
331.2539580966966
  0
LINE
  5
FB
330
1F
100
AcDbEntity
  8
0
  6
CONTINUOUS
 62
   253
100
AcDbLine
 10
482.7895301509906
 20
157.1891459194757
 30
0.0
 11
482.7895301509906
 21
152.1122927990836
 31
0.0
  0
ARC
  5
FC
330
1F
100
AcDbEntity
  8
0
  6
CONTINUOUS
 62
   253
100
AcDbCircle
 10
481.163267175902
 20
155.9952826368169
 30
0.0
 40
2.229478654352723
100
AcDbArc
 50
53.42596487373793
 51
92.8516773835986
  0
LWPOLYLINE
  5
FD
330
1F
100
AcDbEntity
  8
0
  6
CONTINUOUS
 62
   253
100
AcDbPolyline
 90
        7
 70
     0
 43
0.0
 10
-482.4917265539653
 20
157.7857492662322
 10
-482.580885139024
 20
157.6978967500675
 10
-482.6550261507079
 20
157.604490192857
 10
-482.7132257336331
 20
157.5063350308242
 10
-482.7553255649553
 20
157.4035076934917
 10
-482.7809061265683
 20
157.2973150033135
 10
-482.7895301509906
 20
157.1891459194758
210
0.0
220
0.0
230
-1.0
  0
LINE
  5
FE
330
1F
100
AcDbEntity
  8
0
  6
CONTINUOUS
 62
   253
100
AcDbLine
 10
470.8372824593725
 20
158.1675495729009
 30
0.0
 11
481.052349245055
 21
158.2220004642101
 31
0.0
  0
LINE
  5
FF
330
1F
100
AcDbEntity
  8
0
  6
CONTINUOUS
 62
   253
100
AcDbLine
 10
470.8372824593725
 20
161.9941066722385
 30
0.0
 11
470.8372824593725
 21
158.1675495729009
 31
0.0
  0
LINE
  5
100
330
1F
100
AcDbEntity
  8
0
  6
CONTINUOUS
 62
     7
100
AcDbLine
 10
481.052349245055
 20
162.4325045281199
 30
0.0
 11
470.8372824593725
 21
161.9941066722386
 31
0.0
  0
LWPOLYLINE
  5
101
330
1F
100
AcDbEntity
  8
0
  6
CONTINUOUS
 62
   253
100
AcDbPolyline
 90
        3
 70
     0
 43
0.0
 10
-482.7895301509906
 20
162.7903138282809
 10
-482.7148178875982
 20
162.7157757666514
 10
-482.6216076471939
 20
162.6744673119619
210
0.0
220
0.0
230
-1.0
  0
ARC
  5
102
330
1F
100
AcDbEntity
  8
0
  6
CONTINUOUS
 62
   253
100
AcDbCircle
 10
480.9594376961889
 20
168.2448082514725
 30
0.0
 40
5.813046286450111
100
AcDbArc
 50
270.9158135065083
 51
286.6149164748502
  0
LINE
  5
103
330
1F
100
AcDbEntity
  8
0
  6
CONTINUOUS
 62
   253
100
AcDbLine
 10
482.7895301509906
 20
107.2096861717191
 30
0.0
 11
482.7895301509906
 21
106.9787801572209
 31
0.0
  0
ARC
  5
104
330
1F
100
AcDbEntity
  8
0
  6
CONTINUOUS
 62
   253
100
AcDbCircle
 10
481.0118747218734
 20
102.3039638636499
 30
0.0
 40
5.263687222647788
100
AcDbArc
 50
71.14197757442048
 51
89.55942628973317
  0
LINE
  5
105
330
1F
100
AcDbEntity
  8
0
  6
CONTINUOUS
 62
   253
100
AcDbLine
 10
482.7132257336331
 20
107.2851091047214
 30
0.0
 11
482.7895301509906
 21
107.2096861717191
 31
0.0
  0
LINE
  5
106
330
1F
100
AcDbEntity
  8
0
  6
CONTINUOUS
 62
     7
100
AcDbLine
 10
470.8372824593725
 20
108.0058933277614
 30
0.0
 11
481.0523492450551
 21
107.5674954718801
 31
0.0
  0
LINE
  5
107
330
1F
100
AcDbEntity
  8
0
  6
CONTINUOUS
 62
   253
100
AcDbLine
 10
470.8372824593725
 20
111.8324504270991
 30
0.0
 11
470.8372824593725
 21
108.0058933277614
 31
0.0
  0
LWPOLYLINE
  5
108
330
1F
100
AcDbEntity
  8
0
  6
CONTINUOUS
 62
   253
100
AcDbPolyline
 90
        9
 70
     0
 43
0.0
 10
482.5000000000013
 20
131.4485331622106
 10
482.505511844967
 20
131.4411996391273
 10
482.5218448436313
 20
131.4341355909926
 10
482.5483988296177
 20
131.4276005907275
 10
482.5841980598997
 20
131.421834771054
 10
482.627927069096
 20
131.4170500006664
 10
482.6779790070786
 20
131.413422098982
 10
482.7325146836981
 20
131.4110843755448
 10
482.7895301509906
 20
131.4101227314827
  0
LINE
  5
109
330
1F
100
AcDbEntity
  8
0
  6
CONTINUOUS
 62
     7
100
AcDbLine
 10
482.5000000000013
 20
131.4485331622106
 30
0.0
 11
482.5000000000013
 21
138.5514668377894
 31
0.0
  0
LWPOLYLINE
  5
10A
330
1F
100
AcDbEntity
  8
0
  6
CONTINUOUS
 62
   253
100
AcDbPolyline
 90
        9
 70
     0
 43
0.0
 10
482.7895301509906
 20
138.5898772685173
 10
482.7325146836982
 20
138.5889156244552
 10
482.6779790070786
 20
138.586577901018
 10
482.627927069096
 20
138.5829499993336
 10
482.5841980598997
 20
138.578165228946
 10
482.5483988296177
 20
138.5723994092725
 10
482.5218448436313
 20
138.5658644090074
 10
482.505511844967
 20
138.5588003608727
 10
482.5000000000013
 20
138.5514668377894
  0
ARC
  5
10B
330
1F
100
AcDbEntity
  8
0
  6
CONTINUOUS
 62
     7
100
AcDbCircle
 10
480.9999778788955
 20
138.5514454756859
 30
0.0
 40
1.500022121257889
100
AcDbArc
 50
0.0008159602160466
 51
87.99918403978381
  0
LWPOLYLINE
  5
10C
330
1F
100
AcDbEntity
  8
0
  6
CONTINUOUS
 62
   253
100
AcDbPolyline
 90
       10
 70
     0
 43
0.0
 10
481.0523492450551
 20
140.4083634738004
 10
481.0500732698634
 20
140.3499680773416
 10
481.0482853563448
 20
140.2915880837596
 10
481.0470539670833
 20
140.2354589732308
 10
481.0464262542988
 20
140.1837300353697
 10
481.0464262542988
 20
140.1383820688719
 10
481.0470539670833
 20
140.101151532992
 10
481.0482853563448
 20
140.0734640552406
 10
481.0500732698635
 20
140.0563798414151
 10
481.0523492450551
 20
140.050553078318
  0
ARC
  5
10D
330
1F
100
AcDbEntity
  8
0
  6
CONTINUOUS
 62
     7
100
AcDbCircle
 10
480.9999791350687
 20
131.4485533112418
 30
0.0
 40
1.500020865067947
100
AcDbArc
 50
272.0007696255948
 51
359.9992303744053
  0
LINE
  5
10E
330
1F
100
AcDbEntity
  8
0
  6
CONTINUOUS
 62
   253
100
AcDbLine
 10
481.0523492450551
 20
129.949446921682
 30
0.0
 11
481.0516980727982
 21
129.9490127920643
 31
0.0
  0
LWPOLYLINE
  5
10F
330
1F
100
AcDbEntity
  8
0
  6
CONTINUOUS
 62
   253
100
AcDbPolyline
 90
       10
 70
     0
 43
0.0
 10
481.0516980727982
 20
129.9490127920643
 10
481.0496016311483
 20
129.9405650297736
 10
481.0479817999351
 20
129.9216263867412
 10
481.0468969888904
 20
129.8928797742778
 10
481.0463863153747
 20
129.8553617707047
 10
481.0464681938396
 20
129.8104252432234
 10
481.0471396718173
 20
129.7596905646784
 10
481.0483765363849
 20
129.7049871842955
 10
481.0501341872612
 20
129.6482876593026
 10
481.052349245055
 20
129.5916365261996
  0
LINE
  5
110
330
1F
100
AcDbEntity
  8
0
  6
CONTINUOUS
 62
     7
100
AcDbLine
 10
470.8372824593725
 20
129.5927289291163
 30
0.0
 11
481.052349245055
 21
129.949446921682
 31
0.0
  0
LWPOLYLINE
  5
111
330
1F
100
AcDbEntity
  8
0
  6
CONTINUOUS
 62
   253
100
AcDbPolyline
 90
       10
 70
     0
 43
0.0
 10
470.8372824593725
 20
129.5927289291164
 10
470.8349472222462
 20
129.586796403826
 10
470.8331111626133
 20
129.5694074433559
 10
470.8318458551306
 20
129.5412399172347
 10
470.8312006249656
 20
129.5033918731391
 10
470.8312006249656
 20
129.4573387319748
 10
470.8318458551307
 20
129.404875771909
 10
470.8331111626133
 20
129.3480481434878
 10
470.8349472222462
 20
129.2890711440399
 10
470.8372824593725
 20
129.2302438592911
  0
LINE
  5
112
330
1F
100
AcDbEntity
  8
0
  6
CONTINUOUS
 62
     7
100
AcDbLine
 10
481.052349245055
 20
140.050553078318
 30
0.0
 11
470.8372824593725
 21
140.4072710708837
 31
0.0
  0
LWPOLYLINE
  5
113
330
1F
100
AcDbEntity
  8
0
  6
CONTINUOUS
 62
   253
100
AcDbPolyline
 90
       10
 70
     0
 43
0.0
 10
470.8372824593725
 20
140.7697561407089
 10
470.8349472222462
 20
140.7109288559601
 10
470.8331111626133
 20
140.6519518565122
 10
470.8318458551307
 20
140.595124228091
 10
470.8312006249656
 20
140.5426612680252
 10
470.8312006249656
 20
140.4966081268609
 10
470.8318458551306
 20
140.4587600827654
 10
470.8331111626133
 20
140.4305925566441
 10
470.8349472222462
 20
140.4132035961741
 10
470.8372824593725
 20
140.4072710708837
  0
LWPOLYLINE
  5
114
330
1F
100
AcDbEntity
  8
0
  6
CONTINUOUS
 62
     7
100
AcDbPolyline
 90
       33
 70
     0
 43
0.0
 10
-469.0050989498959
 20
129.1858053244212
 10
-469.0053824310646
 20
129.19592201862
 10
-469.0062179215941
 20
129.2060379207764
 10
-469.0075829918909
 20
129.2161219655639
 10
-469.0094552123847
 20
129.2261430876617
 10
-469.0118121535053
 20
129.2360702217488
 10
-469.0146313856824
 20
129.2458723025044
 10
-469.0178904793459
 20
129.2555182646077
 10
-469.0215670049255
 20
129.2649770427379
 10
-469.027036339261
 20
129.2772067352726
 10
-469.0331630924874
 20
129.2891633665988
 10
-469.0398949083106
 20
129.3008261322535
 10
-469.0471794304363
 20
129.3121742277737
 10
-469.0549643025704
 20
129.3231868486966
 10
-469.0631971684186
 20
129.3338431905591
 10
-469.0757874333736
 20
129.3486004116814
 10
-469.0891915379322
 20
129.3627112210384
 10
-469.1033248730336
 20
129.376179112696
 10
-469.1181028296174
 20
129.3890075807199
 10
-469.1334407986229
 20
129.4012001191757
 10
-469.1492541709893
 20
129.4127602221293
 10
-469.165458337656
 20
129.4236913836464
 10
-469.1971095688157
 20
129.442810242027
 10
-469.2299764737768
 20
129.4600469770637
 10
-469.2638544998043
 20
129.4754899347822
 10
-469.2985390941629
 20
129.4892274612082
 10
-469.3338257041173
 20
129.5013479023674
 10
-469.3695097769323
 20
129.5119396042854
 10
-469.4221152646801
 20
129.5248712217298
 10
-469.4754508866465
 20
129.5350609565873
 10
-469.5293036147465
 20
129.5426748098547
 10
-469.5834604208956
 20
129.5478787825286
 10
-469.6377082770085
 20
129.5508388756058
210
0.0
220
0.0
230
-1.0
  0
LINE
  5
115
330
1F
100
AcDbEntity
  8
0
  6
CONTINUOUS
 62
     7
100
AcDbLine
 10
469.0050989498959
 20
129.1858053244212
 30
0.0
 11
469.0050989498959
 21
140.8141946755789
 31
0.0
  0
LWPOLYLINE
  5
116
330
1F
100
AcDbEntity
  8
0
  6
CONTINUOUS
 62
     7
100
AcDbPolyline
 90
       31
 70
     0
 43
0.0
 10
-469.6377082770087
 20
140.4491611243942
 10
-469.5842491890021
 20
140.4520486923097
 10
-469.5307489034219
 20
140.4571060738113
 10
-469.4774654416362
 20
140.4645146147194
 10
-469.4246568250136
 20
140.4744556608542
 10
-469.3725810749223
 20
140.487110558036
 10
-469.3214962127306
 20
140.502660652085
 10
-469.2716602598068
 20
140.5212872888216
 10
-469.2417111839449
 20
140.5343960923727
 10
-469.2123975123657
 20
140.5488929732611
 10
-469.1839040341713
 20
140.5648407797016
 10
-469.1564155384647
 20
140.5823023599089
 10
-469.1385932365152
 20
140.5949298212223
 10
-469.1213103507945
 20
140.6083575998291
 10
-469.1046909206266
 20
140.6225880005077
 10
-469.0888589853352
 20
140.6376233280367
 10
-469.073938584244
 20
140.6534658871945
 10
-469.0600537566771
 20
140.6701179827597
 10
-469.0518698156784
 20
140.6810681536501
 10
-469.044163417569
 20
140.6923872140771
 10
-469.0369906650724
 20
140.7040507961767
 10
-469.0304076609124
 20
140.7160345320849
 10
-469.0244705078125
 20
140.7283140539373
 10
-469.0192353084964
 20
140.7408649938699
 10
-469.0156396203763
 20
140.7509498441972
 10
-469.0125263421436
 20
140.7612278004636
 10
-469.0099212695281
 20
140.771661162803
 10
-469.00785019826
 20
140.7822122313492
 10
-469.0063389240692
 20
140.792843306236
 10
-469.0054132426856
 20
140.8035166875972
 10
-469.0050989498959
 20
140.814194675579
210
0.0
220
0.0
230
-1.0
  0
LINE
  5
117
330
1F
100
AcDbEntity
  8
0
  6
CONTINUOUS
 62
   253
100
AcDbLine
 10
468.2230575883703
 20
109.1264795396033
 30
0.0
 11
468.2230575883703
 21
160.8735204603967
 31
0.0
  0
LINE
  5
118
330
1F
100
AcDbEntity
  8
0
  6
CONTINUOUS
 62
     7
100
AcDbLine
 10
469.0050989498959
 20
108.103376420482
 30
0.0
 11
469.0050989498959
 21
108.7393164549597
 31
0.0
  0
LINE
  5
119
330
1F
100
AcDbEntity
  8
0
  6
CONTINUOUS
 62
     7
100
AcDbLine
 10
469.0050989498959
 20
161.2606835450404
 30
0.0
 11
469.0050989498959
 21
161.896623579518
 31
0.0
  0
ARC
  5
11A
330
1F
100
AcDbEntity
  8
0
  6
CONTINUOUS
 62
   253
100
AcDbCircle
 10
470.9685625244376
 20
159.0109281533838
 30
0.0
 40
2.98606572781645
100
AcDbArc
 50
92.51977670461801
 51
131.1126786347149
  0
ARC
  5
11B
330
1F
100
AcDbEntity
  8
0
  6
CONTINUOUS
 62
   253
100
AcDbCircle
 10
470.8201233017129
 20
154.5432960189929
 30
0.0
 40
3.624294174002177
100
AcDbArc
 50
89.72873311611568
 51
120.0525367771572
  0
LINE
  5
11C
330
1F
100
AcDbEntity
  8
0
  6
CONTINUOUS
 62
     7
100
AcDbLine
 10
469.0050989498959
 20
149.4578509310516
 30
0.0
 11
469.0050989498959
 21
157.6803638955326
 31
0.0
  0
ARC
  5
11D
330
1F
100
AcDbEntity
  8
0
  6
CONTINUOUS
 62
   253
100
AcDbCircle
 10
471.0069716613488
 20
146.1160721645335
 30
0.0
 40
3.895507627666814
100
AcDbArc
 50
92.49660721588876
 51
120.9234664051745
  0
LINE
  5
11E
330
1F
100
AcDbEntity
  8
0
  6
CONTINUOUS
 62
   253
100
AcDbLine
 10
469.0050989498959
 20
140.814194675579
 30
0.0
 11
470.8372824593725
 21
140.7697561407089
 31
0.0
  0
LINE
  5
11F
330
1F
100
AcDbEntity
  8
0
  6
CONTINUOUS
 62
   253
100
AcDbLine
 10
470.8372824593725
 20
129.2302438592911
 30
0.0
 11
469.0050989498959
 21
129.1858053244212
 31
0.0
  0
ARC
  5
120
330
1F
100
AcDbEntity
  8
0
  6
CONTINUOUS
 62
   253
100
AcDbCircle
 10
470.9980857555566
 20
123.8543284083799
 30
0.0
 40
3.865556671954721
100
AcDbArc
 50
238.9640615255303
 51
267.6158648534004
  0
LINE
  5
121
330
1F
100
AcDbEntity
  8
0
  6
CONTINUOUS
 62
     7
100
AcDbLine
 10
469.0050989498959
 20
112.3196361044675
 30
0.0
 11
469.0050989498959
 21
120.5421490689486
 31
0.0
  0
ARC
  5
122
330
1F
100
AcDbEntity
  8
0
  6
CONTINUOUS
 62
   253
100
AcDbCircle
 10
470.8283678056784
 20
115.4877094988431
 30
0.0
 40
3.655269942510019
100
AcDbArc
 50
240.0789941783574
 51
270.1397359283654
  0
ARC
  5
123
330
1F
100
AcDbEntity
  8
0
  6
CONTINUOUS
 62
   253
100
AcDbCircle
 10
470.9687896851703
 20
110.989639322788
 30
0.0
 40
2.986642649075006
100
AcDbArc
 50
228.8911963901233
 51
267.4763482705426
  0
LINE
  5
124
330
1F
100
AcDbEntity
  8
0
  6
CONTINUOUS
 62
     7
100
AcDbLine
 10
470.8372824593725
 20
140.4072710708837
 30
0.0
 11
469.6377082770087
 21
140.4491611243942
 31
0.0
  0
LINE
  5
125
330
1F
100
AcDbEntity
  8
0
  6
CONTINUOUS
 62
     7
100
AcDbLine
 10
469.6377082770085
 20
129.5508388756058
 30
0.0
 11
470.8372824593725
 21
129.5927289291163
 31
0.0
  0
LINE
  5
126
330
1F
100
AcDbEntity
  8
0
  6
CONTINUOUS
 62
   253
100
AcDbLine
 10
467.8524722063961
 20
160.0787975441133
 30
0.0
 11
467.8524722063961
 21
109.9212024558867
 31
0.0
  0
LINE
  5
127
330
1F
100
AcDbEntity
  8
0
  6
CONTINUOUS
 62
   253
100
AcDbLine
 10
466.7534827923415
 20
110.764486692794
 30
0.0
 11
466.7534827923415
 21
159.235513307206
 31
0.0
  0
LINE
  5
128
330
1F
100
AcDbEntity
  8
0
  6
CONTINUOUS
 62
     7
100
AcDbLine
 10
464.0000000000014
 20
111.25
 30
0.0
 11
464.0000000000014
 21
158.75
 31
0.0
  0
LINE
  5
129
330
1F
100
AcDbEntity
  8
0
  6
CONTINUOUS
 62
     7
100
AcDbLine
 10
469.2418504410307
 20
120.2970684166836
 30
0.0
 11
469.0050989498392
 21
120.5421490689494
 31
0.0
  0
LWPOLYLINE
  5
12A
330
1F
100
AcDbEntity
  8
0
  6
CONTINUOUS
 62
   253
100
AcDbPolyline
 90
        6
 70
     0
 43
0.0
 10
470.8372824593725
 20
119.9921178128751
 10
470.8349325521246
 20
119.9456229699373
 10
470.8330893859127
 20
119.9074093482274
 10
470.8318258176566
 20
119.8789874608832
 10
470.8311917938511
 20
119.86148077206
 10
470.8312123762738
 20
119.8555812884895
  0
LWPOLYLINE
  5
12B
330
1F
100
AcDbEntity
  8
0
  6
CONTINUOUS
 62
   253
100
AcDbPolyline
 90
        6
 70
     0
 43
0.0
 10
470.831212376141
 20
150.1444187115185
 10
470.8311917939449
 20
150.1385192243634
 10
470.8318258178741
 20
150.1210125338532
 10
470.83308938615
 20
150.0925906466815
 10
470.8349325522848
 20
150.0543770268268
 10
470.8372824593725
 20
150.0078821871251
  0
LINE
  5
12C
330
1F
100
AcDbEntity
  8
0
  6
CONTINUOUS
 62
     7
100
AcDbLine
 10
469.0050989498392
 20
149.4578509310507
 30
0.0
 11
469.1599224880322
 21
149.6623190287163
 31
0.0
  0
LINE
  5
12D
330
1F
100
AcDbEntity
  8
0
  6
CONTINUOUS
 62
     7
100
AcDbLine
 10
482.5000000000013
 20
118.0708027465274
 30
0.0
 11
482.5055624838407
 21
118.0356864545205
 31
0.0
  0
LWPOLYLINE
  5
12E
330
1F
100
AcDbEntity
  8
0
  6
CONTINUOUS
 62
   253
100
AcDbPolyline
 90
        8
 70
     0
 43
0.0
 10
482.5055624838407
 20
118.0356864545205
 10
482.5219299447682
 20
118.0020436485721
 10
482.5485018900155
 20
117.9709241317149
 10
482.5843031948129
 20
117.9434699133663
 10
482.6280200396872
 20
117.9206884955403
 10
482.6780481243923
 20
117.9034159000112
 10
482.7325515417664
 20
117.8922859883796
 10
482.7895301509906
 20
117.8877072009163
  0
LWPOLYLINE
  5
12F
330
1F
100
AcDbEntity
  8
0
  6
CONTINUOUS
 62
   253
100
AcDbPolyline
 90
        6
 70
     0
 43
0.0
 10
481.0523492450551
 20
119.4265805106817
 10
481.0500722963754
 20
119.381327715735
 10
481.0482839099919
 20
119.3442098769048
 10
481.0470526316037
 20
119.3166496555535
 10
481.046425653942
 20
119.2997033864059
 10
481.0464270079559
 20
119.2940205901001
  0
LWPOLYLINE
  5
130
330
1F
100
AcDbEntity
  8
0
  6
CONTINUOUS
 62
   253
100
AcDbPolyline
 90
        8
 70
     0
 43
0.0
 10
482.7895301509906
 20
152.1122927990837
 10
482.7325461964393
 20
152.1077132583902
 10
482.6780381003245
 20
152.096581376191
 10
482.628006555305
 20
152.0793057427064
 10
482.5842879444503
 20
152.0565204515033
 10
482.548486937709
 20
152.0290618254053
 10
482.5219175932943
 20
151.9979377196775
 10
482.5055551258277
 20
151.9642905291985
  0
LWPOLYLINE
  5
131
330
1F
100
AcDbEntity
  8
0
  6
CONTINUOUS
 62
   253
100
AcDbPolyline
 90
        6
 70
     0
 43
0.0
 10
481.0464262059286
 20
150.7059795203939
 10
481.0464262930055
 20
150.7002735219985
 10
481.0470540530541
 20
150.6833163042167
 10
481.0482854494244
 20
150.6557571512823
 10
481.0500733325042
 20
150.6186512907522
 10
481.052349245055
 20
150.5734194893185
  0
LINE
  5
132
330
1F
100
AcDbEntity
  8
0
  6
CONTINUOUS
 62
     7
100
AcDbLine
 10
482.5055551258277
 20
151.9642905291985
 30
0.0
 11
482.5000000000013
 21
151.9291972534726
 31
0.0
  0
ARC
  5
133
330
1F
100
AcDbEntity
  8
0
  6
CONTINUOUS
 62
     7
100
AcDbCircle
 10
481.1340333886361
 20
114.3864060088324
 30
0.0
 40
1.867010428619632
100
AcDbArc
 50
267.4924344267196
 51
306.8600256294654
  0
LWPOLYLINE
  5
134
330
1F
100
AcDbEntity
  8
0
  6
CONTINUOUS
 62
     7
100
AcDbPolyline
 90
        6
 70
     0
 43
0.0
 10
482.2539822816743
 20
112.8926046774777
 10
482.3272097113191
 20
112.9649752398313
 10
482.4146000902091
 20
113.08319993571
 10
482.4721215738102
 20
113.2092605921156
 10
482.4982432733657
 20
113.340063793509
 10
482.5000000000013
 20
113.3844202853594
  0
LINE
  5
135
330
1F
100
AcDbEntity
  8
0
  6
CONTINUOUS
 62
     7
100
AcDbLine
 10
469.6377082769895
 20
112.5105205460193
 30
0.0
 11
481.0523492450506
 21
112.5211833300988
 31
0.0
  0
LWPOLYLINE
  5
136
330
1F
100
AcDbEntity
  8
0
  6
CONTINUOUS
 62
     7
100
AcDbPolyline
 90
        3
 70
     0
 43
0.0
 10
-469.0050989498959
 20
112.3196361044675
 10
-469.0757874333736
 20
112.4082980946813
 10
-469.1971095688157
 20
112.4584272041651
210
0.0
220
0.0
230
-1.0
  0
ARC
  5
137
330
1F
100
AcDbEntity
  8
0
  6
CONTINUOUS
 62
     7
100
AcDbCircle
 10
469.6101685693088
 20
110.8541378634063
 30
0.0
 40
1.656611610112808
100
AcDbArc
 50
89.04746429491189
 51
104.4384410061024
  0
ARC
  5
138
330
1F
100
AcDbEntity
  8
0
  6
CONTINUOUS
 62
     7
100
AcDbCircle
 10
469.6110246176389
 20
159.1696958810737
 30
0.0
 40
1.680428296462078
100
AcDbArc
 50
256.2776233402211
 51
270.9098426416304
  0
LWPOLYLINE
  5
139
330
1F
100
AcDbEntity
  8
0
  6
CONTINUOUS
 62
     7
100
AcDbPolyline
 90
        4
 70
     0
 43
0.0
 10
-469.2123975123656
 20
157.5372328063023
 10
-469.1046909206266
 20
157.5762428551652
 10
-469.0192353084964
 20
157.6401841803442
 10
-469.0050989498959
 20
157.6803638955326
210
0.0
220
0.0
230
-1.0
  0
LINE
  5
13A
330
1F
100
AcDbEntity
  8
0
  6
CONTINUOUS
 62
     7
100
AcDbLine
 10
481.0523492450633
 20
157.4788166699012
 30
0.0
 11
469.6377082770018
 21
157.4894794539807
 31
0.0
  0
LWPOLYLINE
  5
13B
330
1F
100
AcDbEntity
  8
0
  6
CONTINUOUS
 62
     7
100
AcDbPolyline
 90
        6
 70
     0
 43
0.0
 10
482.5000000000013
 20
156.6155797146406
 10
482.483882761511
 20
156.7487059355014
 10
482.4363727961693
 20
156.8772825273891
 10
482.3584625173688
 20
156.9980251544984
 10
482.2901569403649
 20
157.0735863616655
 10
482.20983006894
 20
157.1441805108109
  0
ARC
  5
13C
330
1F
100
AcDbEntity
  8
0
  6
CONTINUOUS
 62
     7
100
AcDbCircle
 10
481.1161791743201
 20
155.5304626995045
 30
0.0
 40
1.94939925459883
100
AcDbArc
 50
55.87367124925072
 51
91.8763931279158
  0
LWPOLYLINE
  5
13D
330
1F
100
AcDbEntity
  8
0
  6
CONTINUOUS
 62
   253
100
AcDbPolyline
 90
        9
 70
     0
 43
0.0
 10
482.5000000000013
 20
113.0482701782073
 10
482.505511844967
 20
113.0029414380785
 10
482.5218448436313
 20
112.9592783312034
 10
482.5483988296177
 20
112.9188852860878
 10
482.5841980598997
 20
112.8832465707472
 10
482.627927069096
 20
112.8536717523399
 10
482.6779790070786
 20
112.8312475762924
 10
482.7325146836982
 20
112.8167980331502
 10
482.7895301509906
 20
112.8108540805242
  0
LINE
  5
13E
330
1F
100
AcDbEntity
  8
0
  6
CONTINUOUS
 62
     7
100
AcDbLine
 10
482.5000000000013
 20
113.0482701782074
 30
0.0
 11
482.5000000000013
 21
118.0708027465274
 31
0.0
  0
LINE
  5
13F
330
1F
100
AcDbEntity
  8
0
  6
CONTINUOUS
 62
     7
100
AcDbLine
 10
482.5000000000013
 20
151.9291972534726
 30
0.0
 11
482.5000000000013
 21
156.9517298217926
 31
0.0
  0
LWPOLYLINE
  5
140
330
1F
100
AcDbEntity
  8
0
  6
CONTINUOUS
 62
   253
100
AcDbPolyline
 90
        9
 70
     0
 43
0.0
 10
482.7895301509906
 20
157.1891459194758
 10
482.7325146836982
 20
157.1832019668498
 10
482.6779790070786
 20
157.1687524237076
 10
482.627927069096
 20
157.1463282476601
 10
482.5841980598997
 20
157.1167534292528
 10
482.5483988296177
 20
157.0811147139122
 10
482.5218448436313
 20
157.0407216687965
 10
482.505511844967
 20
156.9970585619215
 10
482.5000000000013
 20
156.9517298217926
  0
LWPOLYLINE
  5
141
330
1F
100
AcDbEntity
  8
0
  6
CONTINUOUS
 62
   253
100
AcDbPolyline
 90
        5
 70
     0
 43
0.0
 10
482.5000000000013
 20
156.9517298217926
 10
482.4838714520391
 20
157.0808235810751
 10
482.4363861603225
 20
157.2044591263689
 10
482.3585774966977
 20
157.3196130567306
 10
482.2517461350768
 20
157.4250845265402
  0
ARC
  5
142
330
1F
100
AcDbEntity
  8
0
  6
CONTINUOUS
 62
   253
100
AcDbCircle
 10
481.1630920619225
 20
155.8471610411443
 30
0.0
 40
1.917031616004143
100
AcDbArc
 50
55.39710749218348
 51
93.31169832517142
  0
LWPOLYLINE
  5
143
330
1F
100
AcDbEntity
  8
0
  6
CONTINUOUS
 62
   253
100
AcDbPolyline
 90
       10
 70
     0
 43
0.0
 10
481.0523492450551
 20
158.2220004642101
 10
481.0500732698634
 20
158.1846499731726
 10
481.0482853563448
 20
158.1391947793523
 10
481.0470539670834
 20
158.0873754479406
 10
481.0464262542988
 20
158.0311762389728
 10
481.0464262542988
 20
157.972749126265
 10
481.0470539670833
 20
157.9143313942739
 10
481.0482853563448
 20
157.8581599682507
 10
481.0500732698634
 20
157.8063857581502
 10
481.0523492450551
 20
157.7609912962275
  0
ARC
  5
144
330
1F
100
AcDbEntity
  8
0
  6
CONTINUOUS
 62
   253
100
AcDbCircle
 10
481.1658567985896
 20
114.1416020552238
 30
0.0
 40
1.905976239541309
100
AcDbArc
 50
266.5858157013776
 51
304.8285825037047
  0
LWPOLYLINE
  5
145
330
1F
100
AcDbEntity
  8
0
  6
CONTINUOUS
 62
   253
100
AcDbPolyline
 90
        5
 70
     0
 43
0.0
 10
482.254403922153
 20
112.5770540101073
 10
482.3599957572557
 20
112.6820928465874
 10
482.4376943994505
 20
112.7981725676511
 10
482.4845011945599
 20
112.9211368431331
 10
482.5000000000013
 20
113.0482701782073
  0
LWPOLYLINE
  5
146
330
1F
100
AcDbEntity
  8
0
  6
CONTINUOUS
 62
   253
100
AcDbPolyline
 90
       10
 70
     0
 43
0.0
 10
481.0523492450551
 20
112.2390087037725
 10
481.0500732698634
 20
112.1936142418497
 10
481.0482853563448
 20
112.1418400317493
 10
481.0470539670833
 20
112.0856686057261
 10
481.0464262542988
 20
112.0272508737349
 10
481.0464262542988
 20
111.9688237610272
 10
481.0470539670833
 20
111.9126245520594
 10
481.0482853563448
 20
111.8608052206477
 10
481.0500732698634
 20
111.8153500268274
 10
481.0523492450551
 20
111.7779995357898
  0
LINE
  5
147
330
1F
100
AcDbEntity
  8
0
  6
CONTINUOUS
 62
   253
100
AcDbLine
 10
481.0523492450553
 20
157.4788166699012
 30
0.0
 11
481.052349245055
 21
157.7609912962275
 31
0.0
  0
LINE
  5
148
330
1F
100
AcDbEntity
  8
0
  6
CONTINUOUS
 62
   253
100
AcDbLine
 10
481.052349245055
 20
112.2390087037725
 30
0.0
 11
481.0523492450551
 21
112.5211833300988
 31
0.0
  0
LINE
  5
149
330
1F
100
AcDbEntity
  8
0
  6
CONTINUOUS
 62
   253
100
AcDbLine
 10
470.8372824593725
 20
112.2960860317252
 30
0.0
 11
481.052349245055
 21
112.2390087037725
 31
0.0
  0
LWPOLYLINE
  5
14A
330
1F
100
AcDbEntity
  8
0
  6
CONTINUOUS
 62
   253
100
AcDbPolyline
 90
       10
 70
     0
 43
0.0
 10
470.8372824593725
 20
112.2960860317252
 10
470.8349472222462
 20
112.2502509811965
 10
470.8331111626133
 20
112.197938254188
 10
470.8318458551307
 20
112.1411871447476
 10
470.8312006249657
 20
112.0822099672838
 10
470.8312006249656
 20
112.0233058144619
 10
470.8318458551307
 20
111.9667709322458
 10
470.8331111626133
 20
111.9148092059117
 10
470.8349472222462
 20
111.8694462465355
 10
470.8372824593725
 20
111.8324504270991
  0
LINE
  5
14B
330
1F
100
AcDbEntity
  8
0
  6
CONTINUOUS
 62
   253
100
AcDbLine
 10
481.052349245055
 20
157.7609912962275
 30
0.0
 11
470.8372824593725
 21
157.7039139682748
 31
0.0
  0
LWPOLYLINE
  5
14C
330
1F
100
AcDbEntity
  8
0
  6
CONTINUOUS
 62
   253
100
AcDbPolyline
 90
       10
 70
     0
 43
0.0
 10
470.8372824593725
 20
158.1675495729009
 10
470.8349472222462
 20
158.1305537534645
 10
470.8331111626133
 20
158.0851907940883
 10
470.8318458551307
 20
158.0332290677542
 10
470.8312006249656
 20
157.9766941855381
 10
470.8312006249657
 20
157.9177900327162
 10
470.8318458551307
 20
157.8588128552524
 10
470.8331111626133
 20
157.802061745812
 10
470.8349472222462
 20
157.7497490188035
 10
470.8372824593725
 20
157.7039139682747
  0
ARC
  5
14D
330
1F
100
AcDbEntity
  8
0
  6
CONTINUOUS
 62
   253
100
AcDbCircle
 10
470.8435589233613
 20
115.7937005672567
 30
0.0
 40
3.497620167079495
100
AcDbArc
 50
249.8326600169092
 51
269.8971829207725
  0
ARC
  5
14E
330
1F
100
AcDbEntity
  8
0
  6
CONTINUOUS
 62
   253
100
AcDbCircle
 10
470.8403705005454
 20
154.2241358790122
 30
0.0
 40
3.479779459464341
100
AcDbArc
 50
90.05084567900022
 51
110.2193113833143
  0
LINE
  5
14F
330
1F
100
AcDbEntity
  8
0
  6
CONTINUOUS
 62
     7
100
AcDbLine
 10
469.0186823148331
 20
108.7231423162962
 30
0.0
 11
469.0050989498392
 21
108.7393164549611
 31
0.0
  0
LWPOLYLINE
  5
150
330
1F
100
AcDbEntity
  8
0
  6
CONTINUOUS
 62
     7
100
AcDbPolyline
 90
        3
 70
     0
 43
0.0
 10
470.8338052592692
 20
108.0010059707733
 10
470.835392131528
 20
107.999775426853
 10
470.8372824593725
 20
108.0058933277614
  0
LWPOLYLINE
  5
151
330
1F
100
AcDbEntity
  8
0
  6
CONTINUOUS
 62
     7
100
AcDbPolyline
 90
        3
 70
     0
 43
0.0
 10
470.8372824593725
 20
161.9941066722385
 10
470.8353921319903
 20
162.0002245724972
 10
470.833805260022
 20
161.998994031827
  0
LINE
  5
152
330
1F
100
AcDbEntity
  8
0
  6
CONTINUOUS
 62
     7
100
AcDbLine
 10
469.0050989498392
 20
161.2606835450389
 30
0.0
 11
469.0178053670048
 21
161.27631521938
 31
0.0
  0
LWPOLYLINE
  5
153
330
1F
100
AcDbEntity
  8
0
  6
CONTINUOUS
 62
   253
100
AcDbPolyline
 90
        5
 70
     0
 43
0.0
 10
482.5673415711062
 20
107.3191995714571
 10
482.6126737035846
 20
107.274637355635
 10
482.6664853268715
 20
107.2405947258254
 10
482.7263406101533
 20
107.2186126518338
 10
482.7895301509906
 20
107.2096861717191
  0
LWPOLYLINE
  5
154
330
1F
100
AcDbEntity
  8
0
  6
CONTINUOUS
 62
     7
100
AcDbPolyline
 90
        3
 70
     0
 43
0.0
 10
481.0490157501661
 20
107.5637854553078
 10
481.050540192073
 20
107.5621696497897
 10
481.0523492450551
 20
107.5674954718801
  0
LWPOLYLINE
  5
155
330
1F
100
AcDbEntity
  8
0
  6
CONTINUOUS
 62
   253
100
AcDbPolyline
 90
        6
 70
     0
 43
0.0
 10
482.7895301509906
 20
162.7903138282809
 10
482.7367759027726
 20
162.7838127889104
 10
482.6860068767782
 20
162.7681792642307
 10
482.6388172088365
 20
162.7439041433486
 10
482.596688643751
 20
162.7117496595196
 10
482.5609440088504
 20
162.6727254561974
  0
LWPOLYLINE
  5
156
330
1F
100
AcDbEntity
  8
0
  6
CONTINUOUS
 62
     7
100
AcDbPolyline
 90
        3
 70
     0
 43
0.0
 10
481.0523492450551
 20
162.4325045281199
 10
481.0505408430288
 20
162.4378296252261
 10
481.0490168160269
 20
162.4362185010446
  0
LINE
  5
157
330
1F
100
AcDbEntity
  8
0
  6
CONTINUOUS
 62
     7
100
AcDbLine
 10
482.5000000000013
 20
162.6526751986309
 30
0.0
 11
482.5000000000013
 21
162.7214025946734
 31
0.0
  0
LINE
  5
158
330
1F
100
AcDbEntity
  8
0
  6
CONTINUOUS
 62
     7
100
AcDbLine
 10
482.5000000000013
 20
107.2785974053266
 30
0.0
 11
482.5000000000013
 21
107.3438695905766
 31
0.0
  0
LINE
  5
159
330
1F
100
AcDbEntity
  8
0
  6
CONTINUOUS
 62
   253
100
AcDbLine
 10
499.2679491924324
 20
163.0
 30
0.0
 11
499.2679491924324
 21
107.0
 31
0.0
  0
LINE
  5
15A
330
1F
100
AcDbEntity
  8
0
  6
CONTINUOUS
 62
   253
100
AcDbLine
 10
498.401923788648
 20
106.5
 30
0.0
 11
498.401923788648
 21
135.0
 31
0.0
  0
LINE
  5
15B
330
1F
100
AcDbEntity
  8
0
  6
CONTINUOUS
 62
   253
100
AcDbLine
 10
498.401923788648
 20
135.0
 30
0.0
 11
498.401923788648
 21
163.5
 31
0.0
  0
LINE
  5
15C
330
1F
100
AcDbEntity
  8
0
  6
CONTINUOUS
 62
     7
100
AcDbLine
 10
496.5000000000013
 20
163.5
 30
0.0
 11
496.5000000000013
 21
106.5
 31
0.0
  0
LINE
  5
15D
330
1F
100
AcDbEntity
  8
0
  6
CONTINUOUS
 62
   253
100
AcDbLine
 10
500.3071136856854
 20
108.7998856997356
 30
0.0
 11
500.3071136856854
 21
135.0
 31
0.0
  0
LINE
  5
15E
330
1F
100
AcDbEntity
  8
0
  6
CONTINUOUS
 62
   253
100
AcDbLine
 10
500.3071136856854
 20
135.0
 30
0.0
 11
500.3071136856854
 21
161.2001143002644
 31
0.0
  0
LINE
  5
15F
330
1F
100
AcDbEntity
  8
0
  6
CONTINUOUS
 62
   253
100
AcDbLine
 10
502.3849284533902
 20
159.9516372327166
 30
0.0
 11
502.3849284533902
 21
135.0
 31
0.0
  0
LINE
  5
160
330
1F
100
AcDbEntity
  8
0
  6
CONTINUOUS
 62
   253
100
AcDbLine
 10
502.3849284533902
 20
135.0
 30
0.0
 11
502.3849284533902
 21
110.0483627672834
 31
0.0
  0
LINE
  5
161
330
1F
100
AcDbEntity
  8
0
  6
CONTINUOUS
 62
   253
100
AcDbLine
 10
508.3675093808641
 20
110.2572790968174
 30
0.0
 11
508.3675093808641
 21
135.0
 31
0.0
  0
LINE
  5
162
330
1F
100
AcDbEntity
  8
0
  6
CONTINUOUS
 62
   253
100
AcDbLine
 10
508.3675093808641
 20
135.0
 30
0.0
 11
508.3675093808641
 21
159.7427209031826
 31
0.0
  0
LINE
  5
163
330
1F
100
AcDbEntity
  8
0
  6
CONTINUOUS
 62
   253
100
AcDbLine
 10
510.3841312343163
 20
158.865868765685
 30
0.0
 11
510.3841312343163
 21
135.0
 31
0.0
  0
LINE
  5
164
330
1F
100
AcDbEntity
  8
0
  6
CONTINUOUS
 62
   253
100
AcDbLine
 10
510.3841312343163
 20
135.0
 30
0.0
 11
510.3841312343163
 21
111.1341312343151
 31
0.0
  0
LINE
  5
165
330
1F
100
AcDbEntity
  8
0
  6
CONTINUOUS
 62
   253
100
AcDbLine
 10
514.621320343561
 20
115.3713203435596
 30
0.0
 11
514.621320343561
 21
154.6286796564403
 31
0.0
  0
LINE
  5
166
330
1F
100
AcDbEntity
  8
0
  6
CONTINUOUS
 62
   253
100
AcDbLine
 10
531.7673269879803
 20
158.5
 30
0.0
 11
531.7673269879803
 21
135.0
 31
0.0
  0
LINE
  5
167
330
1F
100
AcDbEntity
  8
0
  6
CONTINUOUS
 62
   253
100
AcDbLine
 10
530.8014011616912
 20
112.2411809548975
 30
0.0
 11
530.8014011616912
 21
135.0
 31
0.0
  0
LINE
  5
168
330
1F
100
AcDbEntity
  8
0
  6
CONTINUOUS
 62
   253
100
AcDbLine
 10
531.7673269879803
 20
135.0
 30
0.0
 11
531.7673269879803
 21
111.5
 31
0.0
  0
LINE
  5
169
330
1F
100
AcDbEntity
  8
0
  6
CONTINUOUS
 62
   253
100
AcDbLine
 10
530.8014011616912
 20
135.0
 30
0.0
 11
530.8014011616912
 21
157.7588190451025
 31
0.0
  0
LINE
  5
16A
330
1F
100
AcDbEntity
  8
0
  6
CONTINUOUS
 62
     7
100
AcDbLine
 10
533.0000000000013
 20
158.5
 30
0.0
 11
533.0000000000013
 21
111.5
 31
0.0
  0
LINE
  5
16B
330
1F
100
AcDbEntity
  8
0
  6
CONTINUOUS
 62
   253
100
AcDbLine
 10
530.5216366891939
 20
156.7147238195899
 30
0.0
 11
530.5216366891939
 21
113.2852761804101
 31
0.0
  0
LINE
  5
16C
330
1F
100
AcDbEntity
  8
0
  6
CONTINUOUS
 62
   253
100
AcDbLine
 10
526.6579333840376
 20
116.25
 30
0.0
 11
526.6579333840376
 21
153.75
 31
0.0
  0
LINE
  5
16D
330
1F
100
AcDbEntity
  8
0
  6
CONTINUOUS
 62
   253
100
AcDbLine
 10
516.7426406871206
 20
153.75
 30
0.0
 11
516.7426406871206
 21
116.25
 31
0.0
  0
LINE
  5
16E
330
1F
100
AcDbEntity
  8
0
  6
CONTINUOUS
 62
     7
100
AcDbLine
 10
533.0000000000026
 20
111.4999999999999
 30
0.0
 11
542.7026179606503
 21
111.5846734641666
 31
0.0
  0
LINE
  5
16F
330
1F
100
AcDbEntity
  8
0
  6
CONTINUOUS
 62
     7
100
AcDbLine
 10
542.7026179606509
 20
158.4153265358327
 30
0.0
 11
533.0000000000032
 21
158.4999999999996
 31
0.0
  0
ARC
  5
170
330
1F
100
AcDbEntity
  8
0
  6
CONTINUOUS
 62
     7
100
AcDbCircle
 10
550.1975558168733
 20
155.3498049689006
 30
0.0
 40
2.999999999999997
100
AcDbArc
 50
15.00000000006771
 51
62.05506080979039
  0
ARC
  5
171
330
1F
100
AcDbEntity
  8
0
  6
CONTINUOUS
 62
     7
100
AcDbCircle
 10
550.1975558168728
 20
114.6501950310985
 30
0.0
 40
2.999999999999999
100
AcDbArc
 50
297.9449391902078
 51
344.9999999999308
  0
LINE
  5
172
330
1F
100
AcDbEntity
  8
0
  6
CONTINUOUS
 62
     7
100
AcDbLine
 10
553.0953332957395
 20
113.8737378957873
 30
0.0
 11
553.6028023233787
 21
115.7676380902046
 31
0.0
  0
LINE
  5
173
330
1F
100
AcDbEntity
  8
0
  6
CONTINUOUS
 62
     7
100
AcDbLine
 10
553.6028023233793
 20
154.2323619097943
 30
0.0
 11
553.09533329574
 21
156.1262621042117
 31
0.0
  0
LINE
  5
174
330
1F
100
AcDbEntity
  8
0
  6
CONTINUOUS
 62
     7
100
AcDbLine
 10
551.2615530576994
 20
147.8853824447783
 30
0.0
 11
550.2319018211859
 21
148.0583691176219
 31
0.0
  0
LINE
  5
175
330
1F
100
AcDbEntity
  8
0
  6
CONTINUOUS
 62
     7
100
AcDbLine
 10
551.3577839729171
 20
147.8541979130873
 30
0.0
 11
551.2615530576993
 21
147.8853824447783
 31
0.0
  0
LINE
  5
176
330
1F
100
AcDbEntity
  8
0
  6
CONTINUOUS
 62
     7
100
AcDbLine
 10
550.231901821186
 20
121.9416308823772
 30
0.0
 11
551.3373994715854
 21
122.1389549452225
 31
0.0
  0
LWPOLYLINE
  5
177
330
1F
100
AcDbEntity
  8
0
  6
CONTINUOUS
 62
     7
100
AcDbPolyline
 90
        7
 70
     0
 43
0.0
 10
-542.9942992522106
 20
120.5226604047768
 10
-543.0042570009816
 20
120.6681879657482
 10
-543.0343117589367
 20
120.800706136347
 10
-543.0848908507063
 20
120.9328802031425
 10
-543.1493669628511
 20
121.0517769830162
 10
-543.2341653080225
 20
121.1706066949965
 10
-543.3233567367251
 20
121.269777639727
210
0.0
220
0.0
230
-1.0
  0
ARC
  5
178
330
1F
100
AcDbEntity
  8
0
  6
CONTINUOUS
 62
     7
100
AcDbCircle
 10
544.4856454507639
 20
120.0496734046095
 30
0.0
 40
1.685102192548921
100
AcDbArc
 50
91.2838470028076
 51
133.6098282872396
  0
ARC
  5
179
330
1F
100
AcDbEntity
  8
0
  6
CONTINUOUS
 62
     7
100
AcDbCircle
 10
544.4861651358095
 20
149.9522390148346
 30
0.0
 40
1.687025843056747
100
AcDbArc
 50
226.7086531643987
 51
268.6999628261922
  0
LWPOLYLINE
  5
17A
330
1F
100
AcDbEntity
  8
0
  6
CONTINUOUS
 62
     7
100
AcDbPolyline
 90
        8
 70
     0
 43
0.0
 10
-543.3293572896407
 20
148.7242928424867
 10
-543.2283804323396
 20
148.8366224321053
 10
-543.1680473439206
 20
148.9192345516319
 10
-543.0959805065906
 20
149.0438694809287
 10
-543.0549047288251
 20
149.1384730685408
 10
-543.0147277317327
 20
149.2745288483904
 10
-542.9951029233323
 20
149.4245925139057
 10
-542.994299252211
 20
149.4773395952224
210
0.0
220
0.0
230
-1.0
  0
LINE
  5
17B
330
1F
100
AcDbEntity
  8
0
  6
CONTINUOUS
 62
     7
100
AcDbLine
 10
550.2319008786009
 20
148.0583691891487
 30
0.0
 11
544.4478907558332
 21
148.2656473473614
 31
0.0
  0
LINE
  5
17C
330
1F
100
AcDbEntity
  8
0
  6
CONTINUOUS
 62
     7
100
AcDbLine
 10
544.4478907558322
 20
121.7343526526385
 30
0.0
 11
550.2319008786003
 21
121.9416308108511
 31
0.0
  0
ARC
  5
17D
330
1F
100
AcDbEntity
  8
0
  6
CONTINUOUS
 62
     7
100
AcDbCircle
 10
555.5346539759564
 20
115.250000000003
 30
0.0
 40
2.000000000000002
100
AcDbArc
 50
90.79423606225475
 51
165.0000000000927
  0
ARC
  5
17E
330
1F
100
AcDbEntity
  8
0
  6
CONTINUOUS
 62
     7
100
AcDbCircle
 10
555.534653975957
 20
154.7499999999959
 30
0.0
 40
2.0
100
AcDbArc
 50
194.9999999999057
 51
269.2057639377437
  0
ARC
  5
17F
330
1F
100
AcDbEntity
  8
0
  6
CONTINUOUS
 62
     7
100
AcDbCircle
 10
555.4999999999985
 20
117.7497598088543
 30
0.0
 40
0.500000000000001
100
AcDbArc
 50
270.7942360622486
 51
359.9999999996525
  0
ARC
  5
180
330
1F
100
AcDbEntity
  8
0
  6
CONTINUOUS
 62
     7
100
AcDbCircle
 10
555.499999999999
 20
152.2502401911446
 30
0.0
 40
0.5000000000000004
100
AcDbArc
 50
0.0000000003458853
 51
89.20576393774967
  0
ARC
  5
181
330
1F
100
AcDbEntity
  8
0
  6
CONTINUOUS
 62
     7
100
AcDbCircle
 10
550.1774559761083
 20
154.9321400544044
 30
0.0
 40
2.96221245695742
100
AcDbArc
 50
61.24552378609823
 51
89.04204452009385
  0
ARC
  5
182
330
1F
100
AcDbEntity
  8
0
  6
CONTINUOUS
 62
     7
100
AcDbCircle
 10
550.1774055798373
 20
115.0681401768445
 30
0.0
 40
2.962493491952664
100
AcDbArc
 50
270.9588394155069
 51
299.0232359190838
  0
LINE
  5
183
330
1F
100
AcDbEntity
  8
0
  6
CONTINUOUS
 62
     7
100
AcDbLine
 10
544.0447904397232
 20
111.9999999999997
 30
0.0
 11
551.6034243374526
 21
111.9999999999996
 31
0.0
  0
LINE
  5
184
330
1F
100
AcDbEntity
  8
0
  6
CONTINUOUS
 62
     7
100
AcDbLine
 10
551.6034243374532
 20
157.9999999999994
 30
0.0
 11
544.0438021236262
 21
157.9999999999995
 31
0.0
  0
LINE
  5
185
330
1F
100
AcDbEntity
  8
0
  6
CONTINUOUS
 62
     7
100
AcDbLine
 10
542.9202707640243
 20
111.8281221536112
 30
0.0
 11
544.4429942815203
 21
112.0150943289545
 31
0.0
  0
ARC
  5
186
330
1F
100
AcDbEntity
  8
0
  6
CONTINUOUS
 62
     7
100
AcDbCircle
 10
544.417483286812
 20
163.9618214759251
 30
0.0
 40
5.976970248334838
100
AcDbArc
 50
255.3729041576152
 51
270.2445514542251
  0
ARC
  5
187
330
1F
100
AcDbEntity
  8
0
  6
CONTINUOUS
 62
     7
100
AcDbCircle
 10
542.7000000000014
 20
158.1153379589094
 30
0.0
 40
0.2999999999999982
100
AcDbArc
 50
6.474683806203016
 51
89.50000000000612
  0
ARC
  5
188
330
1F
100
AcDbEntity
  8
0
  6
CONTINUOUS
 62
     7
100
AcDbCircle
 10
542.7000000000007
 20
111.8846620410899
 30
0.0
 40
0.3000000000000013
100
AcDbArc
 50
270.4999999999925
 51
353.5248284781152
  0
LINE
  5
189
330
1F
100
AcDbEntity
  8
0
  6
CONTINUOUS
 62
     7
100
AcDbLine
 10
542.9977286311026
 20
111.8507855093226
 30
0.0
 11
543.0135297561728
 21
111.8552311524798
 31
0.0
  0
LINE
  5
18A
330
1F
100
AcDbEntity
  8
0
  6
CONTINUOUS
 62
     7
100
AcDbLine
 10
543.0135297561728
 20
111.8552311524798
 30
0.0
 11
543.0953149838949
 21
111.8760498950145
 31
0.0
  0
LINE
  5
18B
330
1F
100
AcDbEntity
  8
0
  6
CONTINUOUS
 62
     7
100
AcDbLine
 10
496.5000000000013
 20
163.5
 30
0.0
 11
482.7895301509905
 21
163.0212198427791
 31
0.0
  0
LINE
  5
18C
330
1F
100
AcDbEntity
  8
0
  6
CONTINUOUS
 62
     7
100
AcDbLine
 10
482.7895301509905
 20
106.9787801572209
 30
0.0
 11
496.5000000000013
 21
106.5
 31
0.0
  0
ARC
  5
18D
330
1F
100
AcDbEntity
  8
0
  6
CONTINUOUS
 62
     7
100
AcDbCircle
 10
470.9419809494802
 20
159.6056656751746
 30
0.0
 40
3.000000000000001
100
AcDbArc
 50
130.2127270658874
 51
155.0
  0
ARC
  5
18E
330
1F
100
AcDbEntity
  8
0
  6
CONTINUOUS
 62
     7
100
AcDbCircle
 10
470.9419809494802
 20
110.3943343248254
 30
0.0
 40
3.000000000000002
100
AcDbArc
 50
204.9999999999999
 51
229.7872729341126
  0
LINE
  5
18F
330
1F
100
AcDbEntity
  8
0
  6
CONTINUOUS
 62
     7
100
AcDbLine
 10
468.2230575883703
 20
160.8735204603967
 30
0.0
 11
467.8524722063961
 21
160.0787975441133
 31
0.0
  0
LINE
  5
190
330
1F
100
AcDbEntity
  8
0
  6
CONTINUOUS
 62
     7
100
AcDbLine
 10
467.8524722063961
 20
109.9212024558867
 30
0.0
 11
468.2230575883703
 21
109.1264795396033
 31
0.0
  0
ARC
  5
191
330
1F
100
AcDbEntity
  8
0
  6
CONTINUOUS
 62
     7
100
AcDbCircle
 10
466.493010525841
 20
109.2872750632756
 30
0.0
 40
1.499999999999999
100
AcDbArc
 50
25.00000000000023
 51
80.00000000000081
  0
ARC
  5
192
330
1F
100
AcDbEntity
  8
0
  6
CONTINUOUS
 62
     7
100
AcDbCircle
 10
466.493010525841
 20
160.7127249367244
 30
0.0
 40
1.5
100
AcDbArc
 50
279.9999999999994
 51
334.9999999999998
  0
LINE
  5
193
330
1F
100
AcDbEntity
  8
0
  6
CONTINUOUS
 62
     7
100
AcDbLine
 10
466.7534827923415
 20
159.235513307206
 30
0.0
 11
464.0000000000014
 21
158.75
 31
0.0
  0
LINE
  5
194
330
1F
100
AcDbEntity
  8
0
  6
CONTINUOUS
 62
     7
100
AcDbLine
 10
464.0000000000014
 20
111.25
 30
0.0
 11
466.7534827923415
 21
110.764486692794
 31
0.0
  0
ARC
  5
195
330
1F
100
AcDbEntity
  8
0
  6
CONTINUOUS
 62
     7
100
AcDbCircle
 10
471.0195223875617
 20
123.6507646062871
 30
0.0
 40
3.799852243937377
100
AcDbArc
 50
241.3885277213832
 51
267.1594184830632
  0
ARC
  5
196
330
1F
100
AcDbEntity
  8
0
  6
CONTINUOUS
 62
     7
100
AcDbCircle
 10
471.0179773621791
 20
146.3590337141419
 30
0.0
 40
3.789989543254806
100
AcDbArc
 50
92.82459383768756
 51
119.3581520577506
  0
ARC
  5
197
330
1F
100
AcDbEntity
  8
0
  6
CONTINUOUS
 62
     7
100
AcDbCircle
 10
480.9743831150414
 20
117.5942347740028
 30
0.0
 40
1.701311714857465
100
AcDbArc
 50
42.67937330798861
 51
87.57305761440523
  0
LWPOLYLINE
  5
198
330
1F
100
AcDbEntity
  8
0
  6
CONTINUOUS
 62
     7
100
AcDbPolyline
 90
        7
 70
     0
 43
0.0
 10
-482.2251172023718
 20
118.7475455707531
 10
-482.3108258424094
 20
118.637290455066
 10
-482.3898620542005
 20
118.5060820999216
 10
-482.4363523148064
 20
118.4036597601612
 10
-482.4772387568139
 20
118.2760021745964
 10
-482.5013555046438
 20
118.1360652509978
 10
-482.505511844967
 20
118.0358451742029
210
0.0
220
0.0
230
-1.0
  0
LWPOLYLINE
  5
199
330
1F
100
AcDbEntity
  8
0
  6
CONTINUOUS
 62
     7
100
AcDbPolyline
 90
        6
 70
     0
 43
0.0
 10
-482.505511844967
 20
151.9641548257971
 10
-482.5006720045399
 20
151.8578284141061
 10
-482.4849274385699
 20
151.7579073292987
 10
-482.4427678592324
 20
151.6133811165133
 10
-482.4021154075421
 20
151.5185245158873
 10
-482.330633892074
 20
151.3922296465475
210
0.0
220
0.0
230
-1.0
  0
ARC
  5
19A
330
1F
100
AcDbEntity
  8
0
  6
CONTINUOUS
 62
     7
100
AcDbCircle
 10
480.9938535050434
 20
152.3490810317753
 30
0.0
 40
1.64394232762652
100
AcDbArc
 50
271.8326028497429
 51
324.4053666074735
  0
LINE
  5
19B
330
1F
100
AcDbEntity
  8
0
  6
CONTINUOUS
 62
     7
100
AcDbLine
 10
470.8312115935944
 20
119.8555812715924
 30
0.0
 11
481.0464265563457
 21
119.294020518863
 31
0.0
  0
LINE
  5
19C
330
1F
100
AcDbEntity
  8
0
  6
CONTINUOUS
 62
     7
100
AcDbLine
 10
481.0464265563457
 20
150.705979481137
 30
0.0
 11
470.8312115935945
 21
150.1444187284075
 31
0.0
  0
ARC
  5
19D
330
1F
100
AcDbEntity
  8
0
  6
CONTINUOUS
 62
     7
100
AcDbCircle
 10
470.9674836812814
 20
110.9740554604926
 30
0.0
 40
2.976053293857526
100
AcDbArc
 50
228.7499671933577
 51
267.4255208165492
  0
ARC
  5
19E
330
1F
100
AcDbEntity
  8
0
  6
CONTINUOUS
 62
     7
100
AcDbCircle
 10
470.9675346585474
 20
159.025682237146
 30
0.0
 40
2.976317621526171
100
AcDbArc
 50
92.57523272178553
 51
131.5616154328875
  0
LINE
  5
19F
330
1F
100
AcDbEntity
  8
0
  6
CONTINUOUS
 62
     7
100
AcDbLine
 10
469.0050989498959
 20
108.103376420482
 30
0.0
 11
470.3245058088995
 21
108.0688265359543
 31
0.0
  0
LINE
  5
1A0
330
1F
100
AcDbEntity
  8
0
  6
CONTINUOUS
 62
     7
100
AcDbLine
 10
470.324476352848
 20
161.9311726927118
 30
0.0
 11
469.0050989498959
 21
161.896623579518
 31
0.0
  0
ARC
  5
1A1
330
1F
100
AcDbEntity
  8
0
  6
CONTINUOUS
 62
     7
100
AcDbCircle
 10
480.9149469007422
 20
101.7386708333383
 30
0.0
 40
5.826641275048817
100
AcDbArc
 50
73.51252772173837
 51
88.68148634243333
  0
ARC
  5
1A2
330
1F
100
AcDbEntity
  8
0
  6
CONTINUOUS
 62
     7
100
AcDbCircle
 10
480.9548698839375
 20
167.9350431469054
 30
0.0
 40
5.499618470885274
100
AcDbArc
 50
270.9809177053571
 51
287.1752514426788
  0
ARC
  5
1A3
330
1F
100
AcDbEntity
  8
0
  6
CONTINUOUS
 62
     7
100
AcDbCircle
 10
482.8000000000013
 20
162.7214025946734
 30
0.0
 40
0.2999999999999987
100
AcDbArc
 50
92.00000000001712
 51
180.0
  0
ARC
  5
1A4
330
1F
100
AcDbEntity
  8
0
  6
CONTINUOUS
 62
     7
100
AcDbCircle
 10
482.8000000000013
 20
107.2785974053266
 30
0.0
 40
0.3000000000000017
100
AcDbArc
 50
180.0
 51
267.9999999999842
  0
LINE
  5
1A5
330
1F
100
AcDbEntity
  8
0
  6
CONTINUOUS
 62
     7
100
AcDbLine
 10
482.4281077766745
 20
107.3736096944598
 30
0.0
 11
482.5001720413357
 21
107.3506646133329
 31
0.0
  0
ARC
  5
1A6
330
1F
100
AcDbEntity
  8
0
  6
CONTINUOUS
 62
     7
100
AcDbCircle
 10
498.401923788648
 20
107.5
 30
0.0
 40
1.000000000000001
100
AcDbArc
 50
270.0
 51
329.9999999999998
  0
ARC
  5
1A7
330
1F
100
AcDbEntity
  8
0
  6
CONTINUOUS
 62
     7
100
AcDbCircle
 10
498.401923788648
 20
162.5
 30
0.0
 40
0.9999999999999996
100
AcDbArc
 50
30.00000000000027
 51
90.0
  0
LINE
  5
1A8
330
1F
100
AcDbEntity
  8
0
  6
CONTINUOUS
 62
     7
100
AcDbLine
 10
498.401923788648
 20
163.5
 30
0.0
 11
496.5000000000013
 21
163.5
 31
0.0
  0
LINE
  5
1A9
330
1F
100
AcDbEntity
  8
0
  6
CONTINUOUS
 62
     7
100
AcDbLine
 10
496.5000000000013
 20
106.5
 30
0.0
 11
498.401923788648
 21
106.5
 31
0.0
  0
LINE
  5
1AA
330
1F
100
AcDbEntity
  8
0
  6
CONTINUOUS
 62
     7
100
AcDbLine
 10
499.2679491924324
 20
107.0
 30
0.0
 11
500.3071136856854
 21
108.7998856997356
 31
0.0
  0
LINE
  5
1AB
330
1F
100
AcDbEntity
  8
0
  6
CONTINUOUS
 62
     7
100
AcDbLine
 10
500.3071136856854
 20
161.2001143002644
 30
0.0
 11
499.2679491924324
 21
163.0
 31
0.0
  0
ARC
  5
1AC
330
1F
100
AcDbEntity
  8
0
  6
CONTINUOUS
 62
     7
100
AcDbCircle
 10
502.4721771951465
 20
162.4501143002644
 30
0.0
 40
2.500000000000001
100
AcDbArc
 50
210.0000000000001
 51
267.9999999999999
  0
ARC
  5
1AD
330
1F
100
AcDbEntity
  8
0
  6
CONTINUOUS
 62
     7
100
AcDbCircle
 10
502.4721771951465
 20
107.5498856997356
 30
0.0
 40
2.5
100
AcDbArc
 50
92.00000000000011
 51
150.0000000000001
  0
LINE
  5
1AE
330
1F
100
AcDbEntity
  8
0
  6
CONTINUOUS
 62
     7
100
AcDbLine
 10
502.3849284533902
 20
110.0483627672834
 30
0.0
 11
508.3675093808641
 21
110.2572790968174
 31
0.0
  0
LINE
  5
1AF
330
1F
100
AcDbEntity
  8
0
  6
CONTINUOUS
 62
     7
100
AcDbLine
 10
508.3675093808641
 20
159.7427209031826
 30
0.0
 11
502.3849284533902
 21
159.9516372327166
 31
0.0
  0
ARC
  5
1B0
330
1F
100
AcDbEntity
  8
0
  6
CONTINUOUS
 62
     7
100
AcDbCircle
 10
508.2628108907567
 20
113.2554515778747
 30
0.0
 40
3.000000000000001
100
AcDbArc
 50
272.0000000000001
 51
315.0000000000001
  0
ARC
  5
1B1
330
1F
100
AcDbEntity
  8
0
  6
CONTINUOUS
 62
     7
100
AcDbCircle
 10
508.2628108907567
 20
156.7445484221253
 30
0.0
 40
3.0
100
AcDbArc
 50
44.99999999999998
 51
87.99999999999991
  0
LINE
  5
1B2
330
1F
100
AcDbEntity
  8
0
  6
CONTINUOUS
 62
     7
100
AcDbLine
 10
510.3841312343163
 20
111.1341312343151
 30
0.0
 11
514.621320343561
 21
115.3713203435596
 31
0.0
  0
LINE
  5
1B3
330
1F
100
AcDbEntity
  8
0
  6
CONTINUOUS
 62
     7
100
AcDbLine
 10
514.621320343561
 20
154.6286796564404
 30
0.0
 11
510.3841312343163
 21
158.865868765685
 31
0.0
  0
ARC
  5
1B4
330
1F
100
AcDbEntity
  8
0
  6
CONTINUOUS
 62
     7
100
AcDbCircle
 10
531.7673269879803
 20
112.5
 30
0.0
 40
1.000000000000001
100
AcDbArc
 50
194.9999999999995
 51
270.0
  0
ARC
  5
1B5
330
1F
100
AcDbEntity
  8
0
  6
CONTINUOUS
 62
     7
100
AcDbCircle
 10
531.7673269879803
 20
157.5
 30
0.0
 40
1.000000000000001
100
AcDbArc
 50
90.0
 51
165.0000000000005
  0
LINE
  5
1B6
330
1F
100
AcDbEntity
  8
0
  6
CONTINUOUS
 62
     7
100
AcDbLine
 10
533.0000000000013
 20
158.5
 30
0.0
 11
531.7673269879803
 21
158.5
 31
0.0
  0
LINE
  5
1B7
330
1F
100
AcDbEntity
  8
0
  6
CONTINUOUS
 62
     7
100
AcDbLine
 10
531.7673269879803
 20
111.5
 30
0.0
 11
533.0000000000013
 21
111.5
 31
0.0
  0
LINE
  5
1B8
330
1F
100
AcDbEntity
  8
0
  6
CONTINUOUS
 62
     7
100
AcDbLine
 10
530.8014011616912
 20
157.7588190451025
 30
0.0
 11
530.5216366891939
 21
156.71472381959
 31
0.0
  0
LINE
  5
1B9
330
1F
100
AcDbEntity
  8
0
  6
CONTINUOUS
 62
     7
100
AcDbLine
 10
530.5216366891939
 20
113.28527618041
 30
0.0
 11
530.8014011616912
 21
112.2411809548975
 31
0.0
  0
LINE
  5
1BA
330
1F
100
AcDbEntity
  8
0
  6
CONTINUOUS
 62
     7
100
AcDbLine
 10
533.0002618643383
 20
114.7401618569666
 30
0.0
 11
533.0059854530753
 21
114.7500127599421
 31
0.0
  0
ARC
  5
1BB
330
1F
100
AcDbEntity
  8
0
  6
CONTINUOUS
 62
     7
100
AcDbCircle
 10
526.6579333840376
 20
157.75
 30
0.0
 40
4.000000000000001
100
AcDbArc
 50
270.0
 51
345.0000000000005
  0
ARC
  5
1BC
330
1F
100
AcDbEntity
  8
0
  6
CONTINUOUS
 62
     7
100
AcDbCircle
 10
526.6579333840376
 20
112.25
 30
0.0
 40
4.0
100
AcDbArc
 50
14.99999999999966
 51
90.0
  0
ARC
  5
1BD
330
1F
100
AcDbEntity
  8
0
  6
CONTINUOUS
 62
     7
100
AcDbCircle
 10
516.7426406871206
 20
156.75
 30
0.0
 40
2.999999999999999
100
AcDbArc
 50
225.0
 51
270.0
  0
ARC
  5
1BE
330
1F
100
AcDbEntity
  8
0
  6
CONTINUOUS
 62
     7
100
AcDbCircle
 10
516.7426406871206
 20
113.25
 30
0.0
 40
3.0
100
AcDbArc
 50
90.0
 51
134.9999999999999
  0
LINE
  5
1BF
330
1F
100
AcDbEntity
  8
0
  6
CONTINUOUS
 62
     7
100
AcDbLine
 10
526.6579333840376
 20
153.75
 30
0.0
 11
516.7426406871206
 21
153.75
 31
0.0
  0
LINE
  5
1C0
330
1F
100
AcDbEntity
  8
0
  6
CONTINUOUS
 62
     7
100
AcDbLine
 10
516.7426406871206
 20
116.25
 30
0.0
 11
526.6579333840376
 21
116.25
 31
0.0
  0
ARC
  5
1C1
330
1F
100
AcDbEntity
  8
0
  6
CONTINUOUS
 62
     7
100
AcDbCircle
 10
410.0
 20
135.0
 30
0.0
 40
12.90000000000002
100
AcDbArc
 50
0.000000000000007
 51
4.447530979309529
  0
ARC
  5
1C2
330
1F
100
AcDbEntity
  8
0
  6
CONTINUOUS
 62
     7
100
AcDbCircle
 10
410.0
 20
135.0
 30
0.0
 40
12.90000000000001
100
AcDbArc
 50
85.5524690206898
 51
94.4475309793103
  0
ARC
  5
1C3
330
1F
100
AcDbEntity
  8
0
  6
CONTINUOUS
 62
     7
100
AcDbCircle
 10
410.0
 20
135.0
 30
0.0
 40
12.90000000000002
100
AcDbArc
 50
175.5524690206904
 51
184.4475309793092
  0
ARC
  5
1C4
330
1F
100
AcDbEntity
  8
0
  6
CONTINUOUS
 62
     7
100
AcDbCircle
 10
410.0
 20
135.0
 30
0.0
 40
12.89999999999999
100
AcDbArc
 50
265.5524690206897
 51
274.4475309793103
  0
ARC
  5
1C5
330
1F
100
AcDbEntity
  8
0
  6
CONTINUOUS
 62
     7
100
AcDbCircle
 10
410.0
 20
135.0
 30
0.0
 40
12.90000000000001
100
AcDbArc
 50
355.552469020691
 51
0.0
  0
CIRCLE
  5
1C6
330
1F
100
AcDbEntity
  8
0
  6
CONTINUOUS
 62
     7
100
AcDbCircle
 10
410.0
 20
135.0
 30
0.0
 40
23.74999999999999
  0
CIRCLE
  5
1C7
330
1F
100
AcDbEntity
  8
0
  6
CONTINUOUS
 62
     7
100
AcDbCircle
 10
410.0
 20
135.0
 30
0.0
 40
21.79799810514162
  0
CIRCLE
  5
1C8
330
1F
100
AcDbEntity
  8
0
  6
CONTINUOUS
 62
     7
100
AcDbCircle
 10
410.0
 20
135.0
 30
0.0
 40
22.30672464063994
  0
CIRCLE
  5
1C9
330
1F
100
AcDbEntity
  8
0
  6
CONTINUOUS
 62
     7
100
AcDbCircle
 10
410.0
 20
135.0
 30
0.0
 40
21.74999999999999
  0
ARC
  5
1CA
330
1F
100
AcDbEntity
  8
0
  6
CONTINUOUS
 62
     7
100
AcDbCircle
 10
410.0
 20
135.0
 30
0.0
 40
26.89662357951798
100
AcDbArc
 50
212.5159280149496
 51
237.4840719850507
  0
ARC
  5
1CB
330
1F
100
AcDbEntity
  8
0
  6
CONTINUOUS
 62
     7
100
AcDbCircle
 10
410.0
 20
135.0
 30
0.0
 40
26.89662357951802
100
AcDbArc
 50
167.5159280149496
 51
192.4840719850507
  0
ARC
  5
1CC
330
1F
100
AcDbEntity
  8
0
  6
CONTINUOUS
 62
     7
100
AcDbCircle
 10
410.0
 20
135.0
 30
0.0
 40
26.896623579518
100
AcDbArc
 50
122.5159280149496
 51
147.4840719850507
  0
ARC
  5
1CD
330
1F
100
AcDbEntity
  8
0
  6
CONTINUOUS
 62
     7
100
AcDbCircle
 10
410.0
 20
135.0
 30
0.0
 40
26.896623579518
100
AcDbArc
 50
77.51592801494964
 51
102.4840719850507
  0
ARC
  5
1CE
330
1F
100
AcDbEntity
  8
0
  6
CONTINUOUS
 62
     7
100
AcDbCircle
 10
410.0
 20
135.0
 30
0.0
 40
26.89662357951798
100
AcDbArc
 50
32.51592801494962
 51
57.48407198505067
  0
ARC
  5
1CF
330
1F
100
AcDbEntity
  8
0
  6
CONTINUOUS
 62
     7
100
AcDbCircle
 10
410.0
 20
135.0
 30
0.0
 40
26.89662357951797
100
AcDbArc
 50
347.5159280149496
 51
12.48407198505072
  0
ARC
  5
1D0
330
1F
100
AcDbEntity
  8
0
  6
CONTINUOUS
 62
     7
100
AcDbCircle
 10
410.0
 20
135.0
 30
0.0
 40
26.89662357951799
100
AcDbArc
 50
302.5159280149496
 51
327.4840719850507
  0
ARC
  5
1D1
330
1F
100
AcDbEntity
  8
0
  6
CONTINUOUS
 62
     7
100
AcDbCircle
 10
410.0
 20
135.0
 30
0.0
 40
26.896623579518
100
AcDbArc
 50
257.5159280149496
 51
282.4840719850507
  0
LINE
  5
1D2
330
1F
100
AcDbEntity
  8
0
  6
CONTINUOUS
 62
     7
100
AcDbLine
 10
394.6637439909414
 20
157.4788166699012
 30
0.0
 11
393.4069528536795
 21
156.6155797146406
 31
0.0
  0
LINE
  5
1D3
330
1F
100
AcDbEntity
  8
0
  6
CONTINUOUS
 62
     7
100
AcDbLine
 10
395.2167981116941
 20
157.4894794539807
 30
0.0
 11
394.6637439909415
 21
157.4788166699012
 31
0.0
  0
LINE
  5
1D4
330
1F
100
AcDbEntity
  8
0
  6
CONTINUOUS
 62
     7
100
AcDbLine
 10
395.5421490689484
 20
157.6803638955325
 30
0.0
 11
395.2167981116939
 21
157.4894794539806
 31
0.0
  0
LINE
  5
1D5
330
1F
100
AcDbEntity
  8
0
  6
CONTINUOUS
 62
     7
100
AcDbLine
 10
387.5105205460193
 20
149.7832018883062
 30
0.0
 11
387.3196361044674
 21
149.4578509310514
 31
0.0
  0
LINE
  5
1D6
330
1F
100
AcDbEntity
  8
0
  6
CONTINUOUS
 62
     7
100
AcDbLine
 10
387.5211833300989
 20
150.3362560090587
 30
0.0
 11
387.5105205460194
 21
149.7832018883061
 31
0.0
  0
LINE
  5
1D7
330
1F
100
AcDbEntity
  8
0
  6
CONTINUOUS
 62
     7
100
AcDbLine
 10
388.3844202853594
 20
151.5930471463206
 30
0.0
 11
387.5211833300989
 21
150.3362560090586
 31
0.0
  0
ARC
  5
1D8
330
1F
100
AcDbEntity
  8
0
  6
CONTINUOUS
 62
     7
100
AcDbCircle
 10
410.0
 20
135.0
 30
0.0
 40
27.25
100
AcDbArc
 50
127.5113922580706
 51
142.4886077419293
  0
LINE
  5
1D9
330
1F
100
AcDbEntity
  8
0
  6
CONTINUOUS
 62
     7
100
AcDbLine
 10
404.5508388756058
 20
161.3557657301363
 30
0.0
 11
404.185805324421
 21
161.2606835450404
 31
0.0
  0
LINE
  5
1DA
330
1F
100
AcDbEntity
  8
0
  6
CONTINUOUS
 62
     7
100
AcDbLine
 10
424.7832018883062
 20
157.4894794539807
 30
0.0
 11
424.4578509310514
 21
157.6803638955326
 31
0.0
  0
LINE
  5
1DB
330
1F
100
AcDbEntity
  8
0
  6
CONTINUOUS
 62
     7
100
AcDbLine
 10
383.2607056776454
 20
140.050553078318
 30
0.0
 11
382.9824208467879
 21
138.5514668377894
 31
0.0
  0
LINE
  5
1DC
330
1F
100
AcDbEntity
  8
0
  6
CONTINUOUS
 62
     7
100
AcDbLine
 10
383.644234269864
 20
140.4491611243944
 30
0.0
 11
383.2607056776456
 21
140.0505530783181
 31
0.0
  0
LINE
  5
1DD
330
1F
100
AcDbEntity
  8
0
  6
CONTINUOUS
 62
     7
100
AcDbLine
 10
383.7393164549596
 20
140.8141946755788
 30
0.0
 11
383.6442342698638
 21
140.4491611243943
 31
0.0
  0
LINE
  5
1DE
330
1F
100
AcDbEntity
  8
0
  6
CONTINUOUS
 62
     7
100
AcDbLine
 10
383.6442342698637
 20
129.5508388756058
 30
0.0
 11
383.7393164549597
 21
129.1858053244211
 31
0.0
  0
LINE
  5
1DF
330
1F
100
AcDbEntity
  8
0
  6
CONTINUOUS
 62
     7
100
AcDbLine
 10
383.2607056776455
 20
129.9494469216819
 30
0.0
 11
383.6442342698639
 21
129.5508388756057
 31
0.0
  0
LINE
  5
1E0
330
1F
100
AcDbEntity
  8
0
  6
CONTINUOUS
 62
     7
100
AcDbLine
 10
382.9824208467879
 20
131.4485331622106
 30
0.0
 11
383.2607056776454
 21
129.949446921682
 31
0.0
  0
ARC
  5
1E1
330
1F
100
AcDbEntity
  8
0
  6
CONTINUOUS
 62
     7
100
AcDbCircle
 10
410.0
 20
135.0
 30
0.0
 40
27.25
100
AcDbArc
 50
172.5113922580706
 51
187.4886077419293
  0
LINE
  5
1E2
330
1F
100
AcDbEntity
  8
0
  6
CONTINUOUS
 62
     7
100
AcDbLine
 10
415.050553078318
 20
161.7392943223546
 30
0.0
 11
413.5514668377894
 21
162.0175791532121
 31
0.0
  0
LINE
  5
1E3
330
1F
100
AcDbEntity
  8
0
  6
CONTINUOUS
 62
     7
100
AcDbLine
 10
415.4491611243942
 20
161.3557657301366
 30
0.0
 11
415.0505530783179
 21
161.739294322355
 31
0.0
  0
LINE
  5
1E4
330
1F
100
AcDbEntity
  8
0
  6
CONTINUOUS
 62
     7
100
AcDbLine
 10
415.8141946755788
 20
161.2606835450404
 30
0.0
 11
415.4491611243943
 21
161.3557657301362
 31
0.0
  0
LINE
  5
1E5
330
1F
100
AcDbEntity
  8
0
  6
CONTINUOUS
 62
     7
100
AcDbLine
 10
404.9494469216822
 20
161.739294322355
 30
0.0
 11
404.5508388756059
 21
161.3557657301367
 31
0.0
  0
LINE
  5
1E6
330
1F
100
AcDbEntity
  8
0
  6
CONTINUOUS
 62
     7
100
AcDbLine
 10
406.4485331622107
 20
162.0175791532121
 30
0.0
 11
404.949446921682
 21
161.7392943223546
 31
0.0
  0
ARC
  5
1E7
330
1F
100
AcDbEntity
  8
0
  6
CONTINUOUS
 62
     7
100
AcDbCircle
 10
410.0
 20
135.0
 30
0.0
 40
27.25
100
AcDbArc
 50
82.51139225807073
 51
97.48860774192927
  0
LINE
  5
1E8
330
1F
100
AcDbEntity
  8
0
  6
CONTINUOUS
 62
     7
100
AcDbLine
 10
436.7392943223546
 20
129.949446921682
 30
0.0
 11
437.0175791532121
 21
131.4485331622106
 31
0.0
  0
LINE
  5
1E9
330
1F
100
AcDbEntity
  8
0
  6
CONTINUOUS
 62
     7
100
AcDbLine
 10
436.3557657301364
 20
129.5508388756057
 30
0.0
 11
436.7392943223547
 21
129.949446921682
 31
0.0
  0
LINE
  5
1EA
330
1F
100
AcDbEntity
  8
0
  6
CONTINUOUS
 62
     7
100
AcDbLine
 10
436.2606835450404
 20
129.1858053244212
 30
0.0
 11
436.3557657301362
 21
129.5508388756058
 31
0.0
  0
LINE
  5
1EB
330
1F
100
AcDbEntity
  8
0
  6
CONTINUOUS
 62
     7
100
AcDbLine
 10
436.3557657301363
 20
140.4491611243942
 30
0.0
 11
436.2606835450404
 21
140.814194675579
 31
0.0
  0
LINE
  5
1EC
330
1F
100
AcDbEntity
  8
0
  6
CONTINUOUS
 62
     7
100
AcDbLine
 10
436.7392943223548
 20
140.050553078318
 30
0.0
 11
436.3557657301365
 21
140.4491611243942
 31
0.0
  0
LINE
  5
1ED
330
1F
100
AcDbEntity
  8
0
  6
CONTINUOUS
 62
     7
100
AcDbLine
 10
437.0175791532121
 20
138.5514668377894
 30
0.0
 11
436.7392943223546
 21
140.050553078318
 31
0.0
  0
ARC
  5
1EE
330
1F
100
AcDbEntity
  8
0
  6
CONTINUOUS
 62
     7
100
AcDbCircle
 10
410.0
 20
135.0
 30
0.0
 40
27.25
100
AcDbArc
 50
352.5113922580707
 51
7.488607741929286
  0
LINE
  5
1EF
330
1F
100
AcDbEntity
  8
0
  6
CONTINUOUS
 62
     7
100
AcDbLine
 10
432.4788166699012
 20
150.3362560090586
 30
0.0
 11
431.6155797146407
 21
151.5930471463206
 31
0.0
  0
LINE
  5
1F0
330
1F
100
AcDbEntity
  8
0
  6
CONTINUOUS
 62
     7
100
AcDbLine
 10
432.4894794539808
 20
149.783201888306
 30
0.0
 11
432.4788166699012
 21
150.3362560090586
 31
0.0
  0
LINE
  5
1F1
330
1F
100
AcDbEntity
  8
0
  6
CONTINUOUS
 62
     7
100
AcDbLine
 10
432.6803638955325
 20
149.4578509310516
 30
0.0
 11
432.4894794539806
 21
149.7832018883061
 31
0.0
  0
LINE
  5
1F2
330
1F
100
AcDbEntity
  8
0
  6
CONTINUOUS
 62
     7
100
AcDbLine
 10
425.3362560090587
 20
157.4788166699012
 30
0.0
 11
424.7832018883062
 21
157.4894794539807
 31
0.0
  0
LINE
  5
1F3
330
1F
100
AcDbEntity
  8
0
  6
CONTINUOUS
 62
     7
100
AcDbLine
 10
426.5930471463205
 20
156.6155797146406
 30
0.0
 11
425.3362560090587
 21
157.4788166699012
 31
0.0
  0
ARC
  5
1F4
330
1F
100
AcDbEntity
  8
0
  6
CONTINUOUS
 62
     7
100
AcDbCircle
 10
410.0
 20
135.0
 30
0.0
 40
27.24999999999996
100
AcDbArc
 50
37.51139225807071
 51
52.48860774192934
  0
LINE
  5
1F5
330
1F
100
AcDbEntity
  8
0
  6
CONTINUOUS
 62
     7
100
AcDbLine
 10
404.949446921682
 20
108.2607056776454
 30
0.0
 11
406.4485331622107
 21
107.9824208467879
 31
0.0
  0
LINE
  5
1F6
330
1F
100
AcDbEntity
  8
0
  6
CONTINUOUS
 62
     7
100
AcDbLine
 10
404.5508388756056
 20
108.6442342698641
 30
0.0
 11
404.9494469216818
 21
108.2607056776457
 31
0.0
  0
LINE
  5
1F7
330
1F
100
AcDbEntity
  8
0
  6
CONTINUOUS
 62
     7
100
AcDbLine
 10
404.1858053244212
 20
108.7393164549596
 30
0.0
 11
404.5508388756058
 21
108.6442342698638
 31
0.0
  0
LINE
  5
1F8
330
1F
100
AcDbEntity
  8
0
  6
CONTINUOUS
 62
     7
100
AcDbLine
 10
415.4491611243943
 20
108.6442342698637
 30
0.0
 11
415.814194675579
 21
108.7393164549596
 31
0.0
  0
LINE
  5
1F9
330
1F
100
AcDbEntity
  8
0
  6
CONTINUOUS
 62
     7
100
AcDbLine
 10
415.0505530783182
 20
108.2607056776457
 30
0.0
 11
415.4491611243944
 21
108.644234269864
 31
0.0
  0
LINE
  5
1FA
330
1F
100
AcDbEntity
  8
0
  6
CONTINUOUS
 62
     7
100
AcDbLine
 10
413.5514668377894
 20
107.9824208467879
 30
0.0
 11
415.050553078318
 21
108.2607056776454
 31
0.0
  0
ARC
  5
1FB
330
1F
100
AcDbEntity
  8
0
  6
CONTINUOUS
 62
     7
100
AcDbCircle
 10
410.0
 20
135.0
 30
0.0
 40
27.25
100
AcDbArc
 50
262.5113922580707
 51
277.4886077419293
  0
LINE
  5
1FC
330
1F
100
AcDbEntity
  8
0
  6
CONTINUOUS
 62
     7
100
AcDbLine
 10
387.5211833300989
 20
119.6637439909414
 30
0.0
 11
388.3844202853594
 21
118.4069528536794
 31
0.0
  0
LINE
  5
1FD
330
1F
100
AcDbEntity
  8
0
  6
CONTINUOUS
 62
     7
100
AcDbLine
 10
387.5105205460193
 20
120.216798111694
 30
0.0
 11
387.5211833300988
 21
119.6637439909414
 31
0.0
  0
LINE
  5
1FE
330
1F
100
AcDbEntity
  8
0
  6
CONTINUOUS
 62
     7
100
AcDbLine
 10
387.3196361044675
 20
120.5421490689485
 30
0.0
 11
387.5105205460194
 21
120.2167981116939
 31
0.0
  0
LINE
  5
1FF
330
1F
100
AcDbEntity
  8
0
  6
CONTINUOUS
 62
     7
100
AcDbLine
 10
395.2167981116938
 20
112.5105205460193
 30
0.0
 11
395.5421490689486
 21
112.3196361044674
 31
0.0
  0
LINE
  5
200
330
1F
100
AcDbEntity
  8
0
  6
CONTINUOUS
 62
     7
100
AcDbLine
 10
394.6637439909414
 20
112.5211833300988
 30
0.0
 11
395.2167981116939
 21
112.5105205460193
 31
0.0
  0
LINE
  5
201
330
1F
100
AcDbEntity
  8
0
  6
CONTINUOUS
 62
     7
100
AcDbLine
 10
393.4069528536795
 20
113.3844202853594
 30
0.0
 11
394.6637439909414
 21
112.5211833300988
 31
0.0
  0
ARC
  5
202
330
1F
100
AcDbEntity
  8
0
  6
CONTINUOUS
 62
     7
100
AcDbCircle
 10
410.0
 20
135.0
 30
0.0
 40
27.25000000000001
100
AcDbArc
 50
217.5113922580706
 51
232.4886077419293
  0
LINE
  5
203
330
1F
100
AcDbEntity
  8
0
  6
CONTINUOUS
 62
     7
100
AcDbLine
 10
425.3362560090587
 20
112.5211833300988
 30
0.0
 11
426.5930471463205
 21
113.3844202853594
 31
0.0
  0
LINE
  5
204
330
1F
100
AcDbEntity
  8
0
  6
CONTINUOUS
 62
     7
100
AcDbLine
 10
424.7832018883061
 20
112.5105205460193
 30
0.0
 11
425.3362560090586
 21
112.5211833300989
 31
0.0
  0
LINE
  5
205
330
1F
100
AcDbEntity
  8
0
  6
CONTINUOUS
 62
     7
100
AcDbLine
 10
424.4578509310516
 20
112.3196361044675
 30
0.0
 11
424.7832018883061
 21
112.5105205460194
 31
0.0
  0
LINE
  5
206
330
1F
100
AcDbEntity
  8
0
  6
CONTINUOUS
 62
     7
100
AcDbLine
 10
432.4894794539807
 20
120.2167981116939
 30
0.0
 11
432.6803638955327
 21
120.5421490689486
 31
0.0
  0
LINE
  5
207
330
1F
100
AcDbEntity
  8
0
  6
CONTINUOUS
 62
     7
100
AcDbLine
 10
432.4788166699012
 20
119.6637439909414
 30
0.0
 11
432.4894794539808
 21
120.2167981116939
 31
0.0
  0
LINE
  5
208
330
1F
100
AcDbEntity
  8
0
  6
CONTINUOUS
 62
     7
100
AcDbLine
 10
431.6155797146407
 20
118.4069528536794
 30
0.0
 11
432.4788166699012
 21
119.6637439909414
 31
0.0
  0
ARC
  5
209
330
1F
100
AcDbEntity
  8
0
  6
CONTINUOUS
 62
     7
100
AcDbCircle
 10
410.0
 20
135.0
 30
0.0
 40
27.25
100
AcDbArc
 50
307.5113922580707
 51
322.4886077419293
  0
CIRCLE
  5
20A
330
1F
100
AcDbEntity
  8
0
  6
CONTINUOUS
 62
     7
100
AcDbCircle
 10
410.0
 20
135.0
 30
0.0
 40
28.5
  0
LINE
  5
20B
330
1F
100
AcDbEntity
  8
0
  6
CONTINUOUS
 62
     7
100
AcDbLine
 10
407.5802324863656
 20
155.9216466117063
 30
0.0
 11
407.4944385248563
 21
156.4082083458466
 31
0.0
  0
LINE
  5
20C
330
1F
100
AcDbEntity
  8
0
  6
CONTINUOUS
 62
     7
100
AcDbLine
 10
425.680302515225
 20
149.7890951689388
 30
0.0
 11
425.3018246737047
 21
149.4715145517103
 31
0.0
  0
LINE
  5
20D
330
1F
100
AcDbEntity
  8
0
  6
CONTINUOUS
 62
     7
100
AcDbLine
 10
405.0324191423258
 20
155.9740879016793
 30
0.0
 11
405.118213103835
 21
155.487526167539
 31
0.0
  0
LINE
  5
20E
330
1F
100
AcDbEntity
  8
0
  6
CONTINUOUS
 62
     7
100
AcDbLine
 10
390.6714387884445
 20
143.3652431677934
 30
0.0
 11
390.207166985415
 21
143.5342242847052
 31
0.0
  0
LINE
  5
20F
330
1F
100
AcDbEntity
  8
0
  6
CONTINUOUS
 62
     7
100
AcDbLine
 10
429.792833014585
 20
143.5342242847052
 30
0.0
 11
429.3285612115556
 21
143.3652431677934
 31
0.0
  0
LINE
  5
210
330
1F
100
AcDbEntity
  8
0
  6
CONTINUOUS
 62
     7
100
AcDbLine
 10
412.5116089930319
 20
156.4425055240991
 30
0.0
 11
412.3402977828551
 21
155.4709513723272
 31
0.0
  0
LINE
  5
211
330
1F
100
AcDbEntity
  8
0
  6
CONTINUOUS
 62
     7
100
AcDbLine
 10
426.9087936979211
 20
147.5564034439129
 30
0.0
 11
427.2872715394413
 21
147.8739840611414
 31
0.0
  0
LINE
  5
212
330
1F
100
AcDbEntity
  8
0
  6
CONTINUOUS
 62
     7
100
AcDbLine
 10
398.1584403746287
 20
153.0101829119994
 30
0.0
 11
398.4054742412143
 21
152.5823077038828
 31
0.0
  0
LINE
  5
213
330
1F
100
AcDbEntity
  8
0
  6
CONTINUOUS
 62
     7
100
AcDbLine
 10
394.6981753262954
 20
149.4715145517103
 30
0.0
 11
394.319697484775
 21
149.7890951689388
 31
0.0
  0
LINE
  5
214
330
1F
100
AcDbEntity
  8
0
  6
CONTINUOUS
 62
     7
100
AcDbLine
 10
393.091206302079
 20
122.4435965560871
 30
0.0
 11
392.7127284605587
 21
122.1260159388586
 31
0.0
  0
LINE
  5
215
330
1F
100
AcDbEntity
  8
0
  6
CONTINUOUS
 62
     7
100
AcDbLine
 10
389.3521166271008
 20
141.1849927327405
 30
0.0
 11
389.8163884301303
 21
141.0160116158286
 31
0.0
  0
LINE
  5
216
330
1F
100
AcDbEntity
  8
0
  6
CONTINUOUS
 62
     7
100
AcDbLine
 10
388.4819442587184
 20
133.75
 30
0.0
 11
388.9760119918898
 21
133.75
 31
0.0
  0
LINE
  5
217
330
1F
100
AcDbEntity
  8
0
  6
CONTINUOUS
 62
     7
100
AcDbLine
 10
431.5180557412816
 20
136.25
 30
0.0
 11
431.0239880081102
 21
136.25
 31
0.0
  0
LINE
  5
218
330
1F
100
AcDbEntity
  8
0
  6
CONTINUOUS
 62
     7
100
AcDbLine
 10
405.118213103835
 20
114.5124738324611
 30
0.0
 11
405.0324191423258
 21
114.0259120983207
 31
0.0
  0
LINE
  5
219
330
1F
100
AcDbEntity
  8
0
  6
CONTINUOUS
 62
     7
100
AcDbLine
 10
430.1836115698696
 20
141.0160116158286
 30
0.0
 11
430.6478833728992
 21
141.1849927327405
 31
0.0
  0
LINE
  5
21A
330
1F
100
AcDbEntity
  8
0
  6
CONTINUOUS
 62
     7
100
AcDbLine
 10
427.2872715394413
 20
122.1260159388586
 30
0.0
 11
426.9087936979211
 21
122.4435965560871
 31
0.0
  0
LINE
  5
21B
330
1F
100
AcDbEntity
  8
0
  6
CONTINUOUS
 62
     7
100
AcDbLine
 10
398.4054742412143
 20
117.4176922961172
 30
0.0
 11
398.1584403746287
 21
116.9898170880006
 31
0.0
  0
LINE
  5
21C
330
1F
100
AcDbEntity
  8
0
  6
CONTINUOUS
 62
     7
100
AcDbLine
 10
400.3235038840898
 20
115.7398170880006
 30
0.0
 11
400.5705377506754
 21
116.1676922961172
 31
0.0
  0
LINE
  5
21D
330
1F
100
AcDbEntity
  8
0
  6
CONTINUOUS
 62
     7
100
AcDbLine
 10
407.4944385248563
 20
113.5917916541534
 30
0.0
 11
407.5802324863656
 21
114.0783533882937
 31
0.0
  0
LINE
  5
21E
330
1F
100
AcDbEntity
  8
0
  6
CONTINUOUS
 62
     7
100
AcDbLine
 10
392.7127284605587
 20
147.8739840611414
 30
0.0
 11
393.091206302079
 21
147.5564034439129
 31
0.0
  0
LINE
  5
21F
330
1F
100
AcDbEntity
  8
0
  6
CONTINUOUS
 62
     7
100
AcDbLine
 10
419.4294622493246
 20
116.1676922961172
 30
0.0
 11
419.6764961159103
 21
115.7398170880006
 31
0.0
  0
LINE
  5
220
330
1F
100
AcDbEntity
  8
0
  6
CONTINUOUS
 62
     7
100
AcDbLine
 10
429.3285612115556
 20
126.6347568322066
 30
0.0
 11
429.792833014585
 21
126.4657757152948
 31
0.0
  0
LINE
  5
221
330
1F
100
AcDbEntity
  8
0
  6
CONTINUOUS
 62
     7
100
AcDbLine
 10
430.6478833728992
 20
128.8150072672595
 30
0.0
 11
430.1836115698696
 21
128.9839883841714
 31
0.0
  0
LINE
  5
222
330
1F
100
AcDbEntity
  8
0
  6
CONTINUOUS
 62
     7
100
AcDbLine
 10
388.9760119918898
 20
136.25
 30
0.0
 11
388.4819442587184
 21
136.25
 31
0.0
  0
LINE
  5
223
330
1F
100
AcDbEntity
  8
0
  6
CONTINUOUS
 62
     7
100
AcDbLine
 10
390.207166985415
 20
126.4657757152948
 30
0.0
 11
390.6714387884445
 21
126.6347568322066
 31
0.0
  0
LINE
  5
224
330
1F
100
AcDbEntity
  8
0
  6
CONTINUOUS
 62
     7
100
AcDbLine
 10
389.8163884301303
 20
128.9839883841714
 30
0.0
 11
389.3521166271008
 21
128.8150072672595
 31
0.0
  0
LINE
  5
225
330
1F
100
AcDbEntity
  8
0
  6
CONTINUOUS
 62
     7
100
AcDbLine
 10
400.5705377506754
 20
153.8323077038828
 30
0.0
 11
400.3235038840898
 21
154.2601829119994
 31
0.0
  0
LINE
  5
226
330
1F
100
AcDbEntity
  8
0
  6
CONTINUOUS
 62
     7
100
AcDbLine
 10
421.5945257587857
 20
152.5823077038828
 30
0.0
 11
421.8415596253714
 21
153.0101829119994
 31
0.0
  0
LINE
  5
227
330
1F
100
AcDbEntity
  8
0
  6
CONTINUOUS
 62
     7
100
AcDbLine
 10
414.9736283755623
 20
156.0083850799318
 30
0.0
 11
414.8023171653856
 21
155.0368309281598
 31
0.0
  0
LINE
  5
228
330
1F
100
AcDbEntity
  8
0
  6
CONTINUOUS
 62
     7
100
AcDbLine
 10
394.319697484775
 20
120.2109048310612
 30
0.0
 11
394.6981753262954
 21
120.5284854482897
 31
0.0
  0
LINE
  5
229
330
1F
100
AcDbEntity
  8
0
  6
CONTINUOUS
 62
     7
100
AcDbLine
 10
421.8415596253714
 20
116.9898170880006
 30
0.0
 11
421.5945257587857
 21
117.4176922961172
 31
0.0
  0
LINE
  5
22A
330
1F
100
AcDbEntity
  8
0
  6
CONTINUOUS
 62
     7
100
AcDbLine
 10
431.0239880081102
 20
133.75
 30
0.0
 11
431.5180557412816
 21
133.75
 31
0.0
  0
LINE
  5
22B
330
1F
100
AcDbEntity
  8
0
  6
CONTINUOUS
 62
     7
100
AcDbLine
 10
419.6764961159103
 20
154.2601829119994
 30
0.0
 11
419.4294622493246
 21
153.8323077038828
 31
0.0
  0
LINE
  5
22C
330
1F
100
AcDbEntity
  8
0
  6
CONTINUOUS
 62
     7
100
AcDbLine
 10
412.4197675136345
 20
114.0783533882937
 30
0.0
 11
412.5055614751437
 21
113.5917916541534
 31
0.0
  0
LINE
  5
22D
330
1F
100
AcDbEntity
  8
0
  6
CONTINUOUS
 62
     7
100
AcDbLine
 10
414.9675808576742
 20
114.0259120983207
 30
0.0
 11
414.881786896165
 21
114.5124738324611
 31
0.0
  0
LINE
  5
22E
330
1F
100
AcDbEntity
  8
0
  6
CONTINUOUS
 62
     7
100
AcDbLine
 10
425.3018246737047
 20
120.5284854482897
 30
0.0
 11
425.680302515225
 21
120.2109048310612
 31
0.0
  0
LINE
  5
22F
330
1F
100
AcDbEntity
  8
0
  6
CONTINUOUS
 62
     7
100
AcDbLine
 10
415.0016150338757
 20
156.1671053064161
 30
0.0
 11
414.9736283755623
 21
156.0083850799318
 31
0.0
  0
LINE
  5
230
330
1F
100
AcDbEntity
  8
0
  6
CONTINUOUS
 62
     7
100
AcDbLine
 10
430.8320584368746
 20
128.7479730260785
 30
0.0
 11
430.6478833728992
 21
128.8150072672595
 31
0.0
  0
LINE
  5
231
330
1F
100
AcDbEntity
  8
0
  6
CONTINUOUS
 62
     7
100
AcDbLine
 10
400.3235038840898
 20
154.2601829119994
 30
0.0
 11
400.2255063794263
 21
154.4299195690915
 31
0.0
  0
LINE
  5
232
330
1F
100
AcDbEntity
  8
0
  6
CONTINUOUS
 62
     7
100
AcDbLine
 10
404.9983849661244
 20
156.1671053064161
 30
0.0
 11
405.0324191423258
 21
155.9740879016793
 31
0.0
  0
LINE
  5
233
330
1F
100
AcDbEntity
  8
0
  6
CONTINUOUS
 62
     7
100
AcDbLine
 10
430.6478833728992
 20
141.1849927327405
 30
0.0
 11
430.8320584368746
 21
141.2520269739215
 31
0.0
  0
LINE
  5
234
330
1F
100
AcDbEntity
  8
0
  6
CONTINUOUS
 62
     7
100
AcDbLine
 10
429.9770080785604
 20
143.6012585258864
 30
0.0
 11
429.792833014585
 21
143.5342242847052
 31
0.0
  0
LINE
  5
235
330
1F
100
AcDbEntity
  8
0
  6
CONTINUOUS
 62
     7
100
AcDbLine
 10
429.792833014585
 20
126.4657757152948
 30
0.0
 11
429.9770080785604
 21
126.3987414741137
 31
0.0
  0
LINE
  5
236
330
1F
100
AcDbEntity
  8
0
  6
CONTINUOUS
 62
     7
100
AcDbLine
 10
431.5180557412816
 20
133.75
 30
0.0
 11
431.7140507506085
 21
133.75
 31
0.0
  0
LINE
  5
237
330
1F
100
AcDbEntity
  8
0
  6
CONTINUOUS
 62
     7
100
AcDbLine
 10
388.2859492493916
 20
133.75
 30
0.0
 11
388.4819442587184
 21
133.75
 31
0.0
  0
LINE
  5
238
330
1F
100
AcDbEntity
  8
0
  6
CONTINUOUS
 62
     7
100
AcDbLine
 10
394.319697484775
 20
149.7890951689388
 30
0.0
 11
394.1695565970011
 21
149.9150783324945
 31
0.0
  0
LINE
  5
239
330
1F
100
AcDbEntity
  8
0
  6
CONTINUOUS
 62
     7
100
AcDbLine
 10
389.3521166271008
 20
128.8150072672595
 30
0.0
 11
389.1679415631255
 21
128.7479730260785
 31
0.0
  0
LINE
  5
23A
330
1F
100
AcDbEntity
  8
0
  6
CONTINUOUS
 62
     7
100
AcDbLine
 10
419.7744936205737
 20
154.4299195690915
 30
0.0
 11
419.6764961159103
 21
154.2601829119994
 31
0.0
  0
LINE
  5
23B
330
1F
100
AcDbEntity
  8
0
  6
CONTINUOUS
 62
     7
100
AcDbLine
 10
412.5395956513452
 20
156.6012257505834
 30
0.0
 11
412.5116089930319
 21
156.4425055240991
 31
0.0
  0
LINE
  5
23C
330
1F
100
AcDbEntity
  8
0
  6
CONTINUOUS
 62
     7
100
AcDbLine
 10
421.8415596253714
 20
153.0101829119994
 30
0.0
 11
421.9395571300348
 21
153.1799195690915
 31
0.0
  0
LINE
  5
23D
330
1F
100
AcDbEntity
  8
0
  6
CONTINUOUS
 62
     7
100
AcDbLine
 10
388.4819442587184
 20
136.25
 30
0.0
 11
388.2859492493916
 21
136.25
 31
0.0
  0
LINE
  5
23E
330
1F
100
AcDbEntity
  8
0
  6
CONTINUOUS
 62
     7
100
AcDbLine
 10
392.5625875727848
 20
147.9999672246971
 30
0.0
 11
392.7127284605587
 21
147.8739840611414
 31
0.0
  0
LINE
  5
23F
330
1F
100
AcDbEntity
  8
0
  6
CONTINUOUS
 62
     7
100
AcDbLine
 10
390.207166985415
 20
143.5342242847052
 30
0.0
 11
390.0229919214396
 21
143.6012585258864
 31
0.0
  0
LINE
  5
240
330
1F
100
AcDbEntity
  8
0
  6
CONTINUOUS
 62
     7
100
AcDbLine
 10
425.8304434029989
 20
149.9150783324945
 30
0.0
 11
425.680302515225
 21
149.7890951689388
 31
0.0
  0
LINE
  5
241
330
1F
100
AcDbEntity
  8
0
  6
CONTINUOUS
 62
     7
100
AcDbLine
 10
407.4944385248563
 20
156.4082083458466
 30
0.0
 11
407.4604043486549
 21
156.6012257505834
 31
0.0
  0
LINE
  5
242
330
1F
100
AcDbEntity
  8
0
  6
CONTINUOUS
 62
     7
100
AcDbLine
 10
427.4374124272153
 20
122.0000327753029
 30
0.0
 11
427.2872715394413
 21
122.1260159388586
 31
0.0
  0
LINE
  5
243
330
1F
100
AcDbEntity
  8
0
  6
CONTINUOUS
 62
     7
100
AcDbLine
 10
398.0604428699652
 20
153.1799195690915
 30
0.0
 11
398.1584403746287
 21
153.0101829119994
 31
0.0
  0
LINE
  5
244
330
1F
100
AcDbEntity
  8
0
  6
CONTINUOUS
 62
     7
100
AcDbLine
 10
427.2872715394413
 20
147.8739840611414
 30
0.0
 11
427.4374124272153
 21
147.9999672246971
 31
0.0
  0
LINE
  5
245
330
1F
100
AcDbEntity
  8
0
  6
CONTINUOUS
 62
     7
100
AcDbLine
 10
431.7140507506085
 20
136.25
 30
0.0
 11
431.5180557412816
 21
136.25
 31
0.0
  0
LINE
  5
246
330
1F
100
AcDbEntity
  8
0
  6
CONTINUOUS
 62
     7
100
AcDbLine
 10
389.1679415631255
 20
141.2520269739216
 30
0.0
 11
389.3521166271008
 21
141.1849927327405
 31
0.0
  0
LINE
  5
247
330
1F
100
AcDbEntity
  8
0
  6
CONTINUOUS
 62
     7
100
AcDbLine
 10
405.0324191423258
 20
114.0259120983207
 30
0.0
 11
404.9983849661244
 21
113.8328946935839
 31
0.0
  0
LINE
  5
248
330
1F
100
AcDbEntity
  8
0
  6
CONTINUOUS
 62
     7
100
AcDbLine
 10
400.2255063794263
 20
115.5700804309085
 30
0.0
 11
400.3235038840898
 21
115.7398170880006
 31
0.0
  0
LINE
  5
249
330
1F
100
AcDbEntity
  8
0
  6
CONTINUOUS
 62
     7
100
AcDbLine
 10
421.9395571300348
 20
116.8200804309085
 30
0.0
 11
421.8415596253714
 21
116.9898170880006
 31
0.0
  0
LINE
  5
24A
330
1F
100
AcDbEntity
  8
0
  6
CONTINUOUS
 62
     7
100
AcDbLine
 10
419.6764961159103
 20
115.7398170880006
 30
0.0
 11
419.7744936205737
 21
115.5700804309085
 31
0.0
  0
LINE
  5
24B
330
1F
100
AcDbEntity
  8
0
  6
CONTINUOUS
 62
     7
100
AcDbLine
 10
415.0016150338757
 20
113.8328946935839
 30
0.0
 11
414.9675808576742
 21
114.0259120983207
 31
0.0
  0
LINE
  5
24C
330
1F
100
AcDbEntity
  8
0
  6
CONTINUOUS
 62
     7
100
AcDbLine
 10
407.4604043486549
 20
113.3987742494166
 30
0.0
 11
407.4944385248563
 21
113.5917916541534
 31
0.0
  0
LINE
  5
24D
330
1F
100
AcDbEntity
  8
0
  6
CONTINUOUS
 62
     7
100
AcDbLine
 10
398.1584403746287
 20
116.9898170880006
 30
0.0
 11
398.0604428699652
 21
116.8200804309085
 31
0.0
  0
LINE
  5
24E
330
1F
100
AcDbEntity
  8
0
  6
CONTINUOUS
 62
     7
100
AcDbLine
 10
390.0229919214396
 20
126.3987414741137
 30
0.0
 11
390.207166985415
 21
126.4657757152948
 31
0.0
  0
LINE
  5
24F
330
1F
100
AcDbEntity
  8
0
  6
CONTINUOUS
 62
     7
100
AcDbLine
 10
412.5055614751437
 20
113.5917916541534
 30
0.0
 11
412.5395956513452
 21
113.3987742494166
 31
0.0
  0
LINE
  5
250
330
1F
100
AcDbEntity
  8
0
  6
CONTINUOUS
 62
     7
100
AcDbLine
 10
425.680302515225
 20
120.2109048310612
 30
0.0
 11
425.8304434029989
 21
120.0849216675055
 31
0.0
  0
LINE
  5
251
330
1F
100
AcDbEntity
  8
0
  6
CONTINUOUS
 62
     7
100
AcDbLine
 10
392.7127284605587
 20
122.1260159388586
 30
0.0
 11
392.5625875727848
 21
122.0000327753029
 31
0.0
  0
LINE
  5
252
330
1F
100
AcDbEntity
  8
0
  6
CONTINUOUS
 62
     7
100
AcDbLine
 10
394.1695565970011
 20
120.0849216675055
 30
0.0
 11
394.319697484775
 21
120.2109048310612
 31
0.0
  0
LINE
  5
253
330
1F
100
AcDbEntity
  8
0
  6
CONTINUOUS
 62
     7
100
AcDbLine
 10
419.4294622493246
 20
153.8323077038828
 30
0.0
 11
419.2361371184979
 21
153.4974587549111
 31
0.0
  0
LINE
  5
254
330
1F
100
AcDbEntity
  8
0
  6
CONTINUOUS
 62
     7
100
AcDbLine
 10
407.6473735996961
 20
155.5408704363258
 30
0.0
 11
407.5802324863656
 21
155.9216466117063
 31
0.0
  0
LINE
  5
255
330
1F
100
AcDbEntity
  8
0
  6
CONTINUOUS
 62
     7
100
AcDbLine
 10
414.8023171653856
 20
155.0368309281598
 30
0.0
 11
414.7352859374944
 21
154.6566779440735
 31
0.0
  0
LINE
  5
256
330
1F
100
AcDbEntity
  8
0
  6
CONTINUOUS
 62
     7
100
AcDbLine
 10
421.401200627959
 20
152.2474587549111
 30
0.0
 11
421.5945257587857
 21
152.5823077038828
 31
0.0
  0
LINE
  5
257
330
1F
100
AcDbEntity
  8
0
  6
CONTINUOUS
 62
     7
100
AcDbLine
 10
400.7638628815022
 20
153.4974587549111
 30
0.0
 11
400.5705377506754
 21
153.8323077038828
 31
0.0
  0
LINE
  5
258
330
1F
100
AcDbEntity
  8
0
  6
CONTINUOUS
 62
     7
100
AcDbLine
 10
405.118213103835
 20
155.487526167539
 30
0.0
 11
405.1853542171656
 21
155.1067499921585
 31
0.0
  0
LINE
  5
259
330
1F
100
AcDbEntity
  8
0
  6
CONTINUOUS
 62
     7
100
AcDbLine
 10
425.3018246737047
 20
149.4715145517103
 30
0.0
 11
425.0056333893346
 21
149.2229805542375
 31
0.0
  0
LINE
  5
25A
330
1F
100
AcDbEntity
  8
0
  6
CONTINUOUS
 62
     7
100
AcDbLine
 10
412.3402977828551
 20
155.4709513723272
 30
0.0
 11
412.2732665549639
 21
155.0907983882408
 31
0.0
  0
LINE
  5
25B
330
1F
100
AcDbEntity
  8
0
  6
CONTINUOUS
 62
     7
100
AcDbLine
 10
414.881786896165
 20
114.5124738324611
 30
0.0
 11
414.8146457828344
 21
114.8932500078415
 31
0.0
  0
LINE
  5
25C
330
1F
100
AcDbEntity
  8
0
  6
CONTINUOUS
 62
     7
100
AcDbLine
 10
400.5705377506754
 20
116.1676922961172
 30
0.0
 11
400.7638628815022
 21
116.5025412450889
 31
0.0
  0
LINE
  5
25D
330
1F
100
AcDbEntity
  8
0
  6
CONTINUOUS
 62
     7
100
AcDbLine
 10
391.0347711861451
 20
143.2330009898858
 30
0.0
 11
390.6714387884445
 21
143.3652431677934
 31
0.0
  0
LINE
  5
25E
330
1F
100
AcDbEntity
  8
0
  6
CONTINUOUS
 62
     7
100
AcDbLine
 10
394.9943666106655
 20
149.2229805542375
 30
0.0
 11
394.6981753262954
 21
149.4715145517103
 31
0.0
  0
LINE
  5
25F
330
1F
100
AcDbEntity
  8
0
  6
CONTINUOUS
 62
     7
100
AcDbLine
 10
398.5987993720411
 20
117.7525412450889
 30
0.0
 11
398.4054742412143
 21
117.4176922961172
 31
0.0
  0
LINE
  5
260
330
1F
100
AcDbEntity
  8
0
  6
CONTINUOUS
 62
     7
100
AcDbLine
 10
390.179720827831
 20
129.116230562079
 30
0.0
 11
389.8163884301303
 21
128.9839883841714
 31
0.0
  0
LINE
  5
261
330
1F
100
AcDbEntity
  8
0
  6
CONTINUOUS
 62
     7
100
AcDbLine
 10
428.9652288138549
 20
126.7669990101142
 30
0.0
 11
429.3285612115556
 21
126.6347568322066
 31
0.0
  0
LINE
  5
262
330
1F
100
AcDbEntity
  8
0
  6
CONTINUOUS
 62
     7
100
AcDbLine
 10
426.9087936979211
 20
122.4435965560871
 30
0.0
 11
426.612602413551
 21
122.69213055356
 31
0.0
  0
LINE
  5
263
330
1F
100
AcDbEntity
  8
0
  6
CONTINUOUS
 62
     7
100
AcDbLine
 10
431.0239880081102
 20
136.25
 30
0.0
 11
430.6373377464569
 21
136.25
 31
0.0
  0
LINE
  5
264
330
1F
100
AcDbEntity
  8
0
  6
CONTINUOUS
 62
     7
100
AcDbLine
 10
394.6981753262954
 20
120.5284854482897
 30
0.0
 11
394.9943666106655
 21
120.7770194457625
 31
0.0
  0
LINE
  5
265
330
1F
100
AcDbEntity
  8
0
  6
CONTINUOUS
 62
     7
100
AcDbLine
 10
389.3626622535432
 20
136.25
 30
0.0
 11
388.9760119918898
 21
136.25
 31
0.0
  0
LINE
  5
266
330
1F
100
AcDbEntity
  8
0
  6
CONTINUOUS
 62
     7
100
AcDbLine
 10
421.5945257587857
 20
117.4176922961172
 30
0.0
 11
421.401200627959
 21
117.7525412450889
 31
0.0
  0
LINE
  5
267
330
1F
100
AcDbEntity
  8
0
  6
CONTINUOUS
 62
     7
100
AcDbLine
 10
429.820279172169
 20
140.883769437921
 30
0.0
 11
430.1836115698696
 21
141.0160116158286
 31
0.0
  0
LINE
  5
268
330
1F
100
AcDbEntity
  8
0
  6
CONTINUOUS
 62
     7
100
AcDbLine
 10
390.6714387884445
 20
126.6347568322066
 30
0.0
 11
391.0347711861451
 21
126.7669990101142
 31
0.0
  0
LINE
  5
269
330
1F
100
AcDbEntity
  8
0
  6
CONTINUOUS
 62
     7
100
AcDbLine
 10
388.9760119918898
 20
133.75
 30
0.0
 11
389.3626622535432
 21
133.75
 31
0.0
  0
LINE
  5
26A
330
1F
100
AcDbEntity
  8
0
  6
CONTINUOUS
 62
     7
100
AcDbLine
 10
393.091206302079
 20
147.5564034439129
 30
0.0
 11
393.3873975864491
 21
147.3078694464401
 31
0.0
  0
LINE
  5
26B
330
1F
100
AcDbEntity
  8
0
  6
CONTINUOUS
 62
     7
100
AcDbLine
 10
429.3285612115556
 20
143.3652431677934
 30
0.0
 11
428.9652288138549
 21
143.2330009898858
 31
0.0
  0
LINE
  5
26C
330
1F
100
AcDbEntity
  8
0
  6
CONTINUOUS
 62
     7
100
AcDbLine
 10
398.4054742412143
 20
152.5823077038828
 30
0.0
 11
398.5987993720411
 21
152.2474587549111
 31
0.0
  0
LINE
  5
26D
330
1F
100
AcDbEntity
  8
0
  6
CONTINUOUS
 62
     7
100
AcDbLine
 10
425.0056333893346
 20
120.7770194457625
 30
0.0
 11
425.3018246737047
 21
120.5284854482897
 31
0.0
  0
LINE
  5
26E
330
1F
100
AcDbEntity
  8
0
  6
CONTINUOUS
 62
     7
100
AcDbLine
 10
430.6373377464569
 20
133.75
 30
0.0
 11
431.0239880081102
 21
133.75
 31
0.0
  0
LINE
  5
26F
330
1F
100
AcDbEntity
  8
0
  6
CONTINUOUS
 62
     7
100
AcDbLine
 10
407.5802324863656
 20
114.0783533882937
 30
0.0
 11
407.6473735996961
 21
114.4591295636742
 31
0.0
  0
LINE
  5
270
330
1F
100
AcDbEntity
  8
0
  6
CONTINUOUS
 62
     7
100
AcDbLine
 10
393.3873975864491
 20
122.69213055356
 30
0.0
 11
393.091206302079
 21
122.4435965560871
 31
0.0
  0
LINE
  5
271
330
1F
100
AcDbEntity
  8
0
  6
CONTINUOUS
 62
     7
100
AcDbLine
 10
426.612602413551
 20
147.30786944644
 30
0.0
 11
426.9087936979211
 21
147.5564034439129
 31
0.0
  0
LINE
  5
272
330
1F
100
AcDbEntity
  8
0
  6
CONTINUOUS
 62
     7
100
AcDbLine
 10
412.352626400304
 20
114.4591295636742
 30
0.0
 11
412.4197675136345
 21
114.0783533882937
 31
0.0
  0
LINE
  5
273
330
1F
100
AcDbEntity
  8
0
  6
CONTINUOUS
 62
     7
100
AcDbLine
 10
419.2361371184979
 20
116.5025412450889
 30
0.0
 11
419.4294622493246
 21
116.1676922961172
 31
0.0
  0
LINE
  5
274
330
1F
100
AcDbEntity
  8
0
  6
CONTINUOUS
 62
     7
100
AcDbLine
 10
430.1836115698696
 20
128.9839883841714
 30
0.0
 11
429.820279172169
 21
129.116230562079
 31
0.0
  0
LINE
  5
275
330
1F
100
AcDbEntity
  8
0
  6
CONTINUOUS
 62
     7
100
AcDbLine
 10
389.8163884301303
 20
141.0160116158286
 30
0.0
 11
390.179720827831
 21
140.883769437921
 31
0.0
  0
LINE
  5
276
330
1F
100
AcDbEntity
  8
0
  6
CONTINUOUS
 62
     7
100
AcDbLine
 10
405.1853542171656
 20
114.8932500078415
 30
0.0
 11
405.118213103835
 21
114.5124738324611
 31
0.0
  0
LINE
  5
277
330
1F
100
AcDbEntity
  8
0
  6
CONTINUOUS
 62
     7
100
AcDbLine
 10
401.3721834501532
 20
152.4438166227183
 30
0.0
 11
400.7941062010711
 21
153.4450757888281
 31
0.0
  0
LINE
  5
278
330
1F
100
AcDbEntity
  8
0
  6
CONTINUOUS
 62
     7
100
AcDbLine
 10
400.7941062010711
 20
153.4450757888281
 30
0.0
 11
400.7638628815021
 21
153.4974587549112
 31
0.0
  0
LINE
  5
279
330
1F
100
AcDbEntity
  8
0
  6
CONTINUOUS
 62
     7
100
AcDbLine
 10
419.2361371184979
 20
153.4974587549111
 30
0.0
 11
419.2069401021211
 21
153.446888039117
 31
0.0
  0
LINE
  5
27A
330
1F
100
AcDbEntity
  8
0
  6
CONTINUOUS
 62
     7
100
AcDbLine
 10
419.2069401021211
 20
153.446888039117
 30
0.0
 11
418.6278165498468
 21
152.4438166227183
 31
0.0
  0
LINE
  5
27B
330
1F
100
AcDbEntity
  8
0
  6
CONTINUOUS
 62
     7
100
AcDbLine
 10
405.1853542171656
 20
155.1067499921585
 30
0.0
 11
405.1954942345399
 21
155.049243095973
 31
0.0
  0
LINE
  5
27C
330
1F
100
AcDbEntity
  8
0
  6
CONTINUOUS
 62
     7
100
AcDbLine
 10
405.1954942345399
 20
155.049243095973
 30
0.0
 11
405.3966217335328
 21
153.9085923675097
 31
0.0
  0
LINE
  5
27D
330
1F
100
AcDbEntity
  8
0
  6
CONTINUOUS
 62
     7
100
AcDbLine
 10
420.7928800593079
 20
151.1938166227183
 30
0.0
 11
421.37095730839
 21
152.1950757888281
 31
0.0
  0
LINE
  5
27E
330
1F
100
AcDbEntity
  8
0
  6
CONTINUOUS
 62
     7
100
AcDbLine
 10
421.37095730839
 20
152.1950757888281
 30
0.0
 11
421.401200627959
 21
152.2474587549112
 31
0.0
  0
LINE
  5
27F
330
1F
100
AcDbEntity
  8
0
  6
CONTINUOUS
 62
     7
100
AcDbLine
 10
414.7352859374944
 20
154.6566779440735
 30
0.0
 11
414.7271815265267
 21
154.6107155454939
 31
0.0
  0
LINE
  5
280
330
1F
100
AcDbEntity
  8
0
  6
CONTINUOUS
 62
     7
100
AcDbLine
 10
414.7271815265267
 20
154.6107155454939
 30
0.0
 11
414.5665749759306
 21
153.6998705349865
 31
0.0
  0
LINE
  5
281
330
1F
100
AcDbEntity
  8
0
  6
CONTINUOUS
 62
     7
100
AcDbLine
 10
425.0056333893346
 20
149.2229805542375
 30
0.0
 11
424.9609009650324
 21
149.1854455935038
 31
0.0
  0
LINE
  5
282
330
1F
100
AcDbEntity
  8
0
  6
CONTINUOUS
 62
     7
100
AcDbLine
 10
424.9609009650324
 20
149.1854455935038
 30
0.0
 11
424.0736322068344
 21
148.4409387057447
 31
0.0
  0
LINE
  5
283
330
1F
100
AcDbEntity
  8
0
  6
CONTINUOUS
 62
     7
100
AcDbLine
 10
412.2732665549639
 20
155.0907983882408
 30
0.0
 11
412.2651621439962
 21
155.0448359896613
 31
0.0
  0
LINE
  5
284
330
1F
100
AcDbEntity
  8
0
  6
CONTINUOUS
 62
     7
100
AcDbLine
 10
412.2651621439962
 20
155.0448359896613
 30
0.0
 11
412.1045555934001
 21
154.1339909791538
 31
0.0
  0
LINE
  5
285
330
1F
100
AcDbEntity
  8
0
  6
CONTINUOUS
 62
     7
100
AcDbLine
 10
407.8586411160632
 20
154.3427128116771
 30
0.0
 11
407.6578769943556
 21
155.4813027251492
 31
0.0
  0
LINE
  5
286
330
1F
100
AcDbEntity
  8
0
  6
CONTINUOUS
 62
     7
100
AcDbLine
 10
407.6578769943556
 20
155.4813027251492
 30
0.0
 11
407.6473735996961
 21
155.5408704363259
 31
0.0
  0
LINE
  5
287
330
1F
100
AcDbEntity
  8
0
  6
CONTINUOUS
 62
     7
100
AcDbLine
 10
418.6278165498468
 20
117.5561833772818
 30
0.0
 11
419.2058937989289
 21
116.5549242111719
 31
0.0
  0
LINE
  5
288
330
1F
100
AcDbEntity
  8
0
  6
CONTINUOUS
 62
     7
100
AcDbLine
 10
419.2058937989289
 20
116.5549242111719
 30
0.0
 11
419.2361371184979
 21
116.5025412450889
 31
0.0
  0
LINE
  5
289
330
1F
100
AcDbEntity
  8
0
  6
CONTINUOUS
 62
     7
100
AcDbLine
 10
421.401200627959
 20
117.7525412450889
 30
0.0
 11
421.3728374920752
 21
117.8016676375017
 31
0.0
  0
LINE
  5
28A
330
1F
100
AcDbEntity
  8
0
  6
CONTINUOUS
 62
     7
100
AcDbLine
 10
421.3728374920752
 20
117.8016676375017
 30
0.0
 11
421.3595621446734
 21
117.8246612136896
 31
0.0
  0
LINE
  5
28B
330
1F
100
AcDbEntity
  8
0
  6
CONTINUOUS
 62
     7
100
AcDbLine
 10
421.3595621446734
 20
117.8246612136896
 30
0.0
 11
420.7928800593079
 21
118.8061833772818
 31
0.0
  0
LINE
  5
28C
330
1F
100
AcDbEntity
  8
0
  6
CONTINUOUS
 62
     7
100
AcDbLine
 10
414.8146457828344
 20
114.8932500078415
 30
0.0
 11
414.8045057654602
 21
114.950756904027
 31
0.0
  0
LINE
  5
28D
330
1F
100
AcDbEntity
  8
0
  6
CONTINUOUS
 62
     7
100
AcDbLine
 10
414.8045057654602
 20
114.950756904027
 30
0.0
 11
414.6033782664673
 21
116.0914076324903
 31
0.0
  0
LINE
  5
28E
330
1F
100
AcDbEntity
  8
0
  6
CONTINUOUS
 62
     7
100
AcDbLine
 10
395.9263677931657
 20
148.4409387057447
 30
0.0
 11
395.0407020644599
 21
149.1841004920481
 31
0.0
  0
LINE
  5
28F
330
1F
100
AcDbEntity
  8
0
  6
CONTINUOUS
 62
     7
100
AcDbLine
 10
395.0407020644599
 20
149.1841004920481
 30
0.0
 11
394.9943666106654
 21
149.2229805542375
 31
0.0
  0
LINE
  5
290
330
1F
100
AcDbEntity
  8
0
  6
CONTINUOUS
 62
     7
100
AcDbLine
 10
430.6373377464569
 20
136.25
 30
0.0
 11
430.5789437137032
 21
136.25
 31
0.0
  0
LINE
  5
291
330
1F
100
AcDbEntity
  8
0
  6
CONTINUOUS
 62
     7
100
AcDbLine
 10
430.5789437137032
 20
136.25
 30
0.0
 11
429.4206966091547
 21
136.25
 31
0.0
  0
LINE
  5
292
330
1F
100
AcDbEntity
  8
0
  6
CONTINUOUS
 62
     7
100
AcDbLine
 10
394.9943666106655
 20
120.7770194457625
 30
0.0
 11
395.0390990349677
 21
120.8145544064962
 31
0.0
  0
LINE
  5
293
330
1F
100
AcDbEntity
  8
0
  6
CONTINUOUS
 62
     7
100
AcDbLine
 10
395.0390990349677
 20
120.8145544064962
 30
0.0
 11
395.9263677931657
 21
121.5590612942553
 31
0.0
  0
LINE
  5
294
330
1F
100
AcDbEntity
  8
0
  6
CONTINUOUS
 62
     7
100
AcDbLine
 10
391.0347711861451
 20
126.7669990101142
 30
0.0
 11
391.0896436278217
 21
126.786970945566
 31
0.0
  0
LINE
  5
295
330
1F
100
AcDbEntity
  8
0
  6
CONTINUOUS
 62
     7
100
AcDbLine
 10
391.0896436278217
 20
126.786970945566
 30
0.0
 11
392.1780398850125
 21
127.1831147862702
 31
0.0
  0
LINE
  5
296
330
1F
100
AcDbEntity
  8
0
  6
CONTINUOUS
 62
     7
100
AcDbLine
 10
392.1780398850125
 20
142.8168852137298
 30
0.0
 11
391.0916100345992
 21
143.2123133408986
 31
0.0
  0
LINE
  5
297
330
1F
100
AcDbEntity
  8
0
  6
CONTINUOUS
 62
     7
100
AcDbLine
 10
391.0916100345992
 20
143.2123133408986
 30
0.0
 11
391.0347711861451
 21
143.2330009898858
 31
0.0
  0
LINE
  5
298
330
1F
100
AcDbEntity
  8
0
  6
CONTINUOUS
 62
     7
100
AcDbLine
 10
407.6473735996961
 20
114.4591295636742
 30
0.0
 11
407.6575136170704
 21
114.5166364598597
 31
0.0
  0
LINE
  5
299
330
1F
100
AcDbEntity
  8
0
  6
CONTINUOUS
 62
     7
100
AcDbLine
 10
407.6575136170704
 20
114.5166364598597
 30
0.0
 11
407.8586411160632
 21
115.657287188323
 31
0.0
  0
LINE
  5
29A
330
1F
100
AcDbEntity
  8
0
  6
CONTINUOUS
 62
     7
100
AcDbLine
 10
426.612602413551
 20
122.69213055356
 30
0.0
 11
426.5678699892487
 21
122.7296655142936
 31
0.0
  0
LINE
  5
29B
330
1F
100
AcDbEntity
  8
0
  6
CONTINUOUS
 62
     7
100
AcDbLine
 10
426.5678699892487
 20
122.7296655142936
 30
0.0
 11
425.6806012310507
 21
123.4741724020527
 31
0.0
  0
LINE
  5
29C
330
1F
100
AcDbEntity
  8
0
  6
CONTINUOUS
 62
     7
100
AcDbLine
 10
398.5987993720411
 20
152.2474587549111
 30
0.0
 11
398.6279963884179
 21
152.196888039117
 31
0.0
  0
LINE
  5
29D
330
1F
100
AcDbEntity
  8
0
  6
CONTINUOUS
 62
     7
100
AcDbLine
 10
398.6279963884179
 20
152.196888039117
 30
0.0
 11
399.2071199406921
 21
151.1938166227182
 31
0.0
  0
LINE
  5
29E
330
1F
100
AcDbEntity
  8
0
  6
CONTINUOUS
 62
     7
100
AcDbLine
 10
425.6806012310507
 20
146.5258275979473
 30
0.0
 11
426.5662669597564
 21
147.2689893842506
 31
0.0
  0
LINE
  5
29F
330
1F
100
AcDbEntity
  8
0
  6
CONTINUOUS
 62
     7
100
AcDbLine
 10
426.5662669597564
 20
147.2689893842506
 30
0.0
 11
426.612602413551
 21
147.3078694464401
 31
0.0
  0
LINE
  5
2A0
330
1F
100
AcDbEntity
  8
0
  6
CONTINUOUS
 62
     7
100
AcDbLine
 10
429.820279172169
 20
129.116230562079
 30
0.0
 11
429.7654067304925
 21
129.1362024975308
 31
0.0
  0
LINE
  5
2A1
330
1F
100
AcDbEntity
  8
0
  6
CONTINUOUS
 62
     7
100
AcDbLine
 10
429.7654067304925
 20
129.1362024975308
 30
0.0
 11
428.6770104733017
 21
129.532346338235
 31
0.0
  0
LINE
  5
2A2
330
1F
100
AcDbEntity
  8
0
  6
CONTINUOUS
 62
     7
100
AcDbLine
 10
424.0736322068344
 20
121.5590612942553
 30
0.0
 11
424.9592979355401
 21
120.8158995079519
 31
0.0
  0
LINE
  5
2A3
330
1F
100
AcDbEntity
  8
0
  6
CONTINUOUS
 62
     7
100
AcDbLine
 10
424.9592979355401
 20
120.8158995079519
 30
0.0
 11
425.0056333893347
 21
120.7770194457625
 31
0.0
  0
LINE
  5
2A4
330
1F
100
AcDbEntity
  8
0
  6
CONTINUOUS
 62
     7
100
AcDbLine
 10
391.3229895266983
 20
129.532346338235
 30
0.0
 11
390.236559676285
 21
129.1369182110662
 31
0.0
  0
LINE
  5
2A5
330
1F
100
AcDbEntity
  8
0
  6
CONTINUOUS
 62
     7
100
AcDbLine
 10
390.236559676285
 20
129.1369182110662
 30
0.0
 11
390.1797208278309
 21
129.116230562079
 31
0.0
  0
LINE
  5
2A6
330
1F
100
AcDbEntity
  8
0
  6
CONTINUOUS
 62
     7
100
AcDbLine
 10
428.6770104733017
 20
140.467653661765
 30
0.0
 11
429.763440323715
 21
140.8630817889338
 31
0.0
  0
LINE
  5
2A7
330
1F
100
AcDbEntity
  8
0
  6
CONTINUOUS
 62
     7
100
AcDbLine
 10
429.763440323715
 20
140.8630817889338
 30
0.0
 11
429.8202791721691
 21
140.883769437921
 31
0.0
  0
LINE
  5
2A8
330
1F
100
AcDbEntity
  8
0
  6
CONTINUOUS
 62
     7
100
AcDbLine
 10
412.1413588839368
 20
115.6572871883229
 30
0.0
 11
412.3421230056445
 21
114.5186972748508
 31
0.0
  0
LINE
  5
2A9
330
1F
100
AcDbEntity
  8
0
  6
CONTINUOUS
 62
     7
100
AcDbLine
 10
412.3421230056445
 20
114.5186972748508
 30
0.0
 11
412.352626400304
 21
114.4591295636741
 31
0.0
  0
LINE
  5
2AA
330
1F
100
AcDbEntity
  8
0
  6
CONTINUOUS
 62
     7
100
AcDbLine
 10
389.3626622535432
 20
133.75
 30
0.0
 11
389.4210562862969
 21
133.75
 31
0.0
  0
LINE
  5
2AB
330
1F
100
AcDbEntity
  8
0
  6
CONTINUOUS
 62
     7
100
AcDbLine
 10
389.4210562862969
 20
133.75
 30
0.0
 11
390.5793033908453
 21
133.75
 31
0.0
  0
LINE
  5
2AC
330
1F
100
AcDbEntity
  8
0
  6
CONTINUOUS
 62
     7
100
AcDbLine
 10
428.9652288138549
 20
143.2330009898858
 30
0.0
 11
428.9103563721783
 21
143.213029054434
 31
0.0
  0
LINE
  5
2AD
330
1F
100
AcDbEntity
  8
0
  6
CONTINUOUS
 62
     7
100
AcDbLine
 10
428.9103563721783
 20
143.213029054434
 30
0.0
 11
427.8219601149875
 21
142.8168852137298
 31
0.0
  0
LINE
  5
2AE
330
1F
100
AcDbEntity
  8
0
  6
CONTINUOUS
 62
     7
100
AcDbLine
 10
427.8219601149875
 20
127.1831147862702
 30
0.0
 11
428.9083899654009
 21
126.7876866591015
 31
0.0
  0
LINE
  5
2AF
330
1F
100
AcDbEntity
  8
0
  6
CONTINUOUS
 62
     7
100
AcDbLine
 10
428.9083899654009
 20
126.7876866591015
 30
0.0
 11
428.9652288138549
 21
126.7669990101142
 31
0.0
  0
LINE
  5
2B0
330
1F
100
AcDbEntity
  8
0
  6
CONTINUOUS
 62
     7
100
AcDbLine
 10
405.3966217335328
 20
116.0914076324902
 30
0.0
 11
405.1958576118251
 21
114.9528177190182
 31
0.0
  0
LINE
  5
2B1
330
1F
100
AcDbEntity
  8
0
  6
CONTINUOUS
 62
     7
100
AcDbLine
 10
405.1958576118251
 20
114.9528177190182
 30
0.0
 11
405.1853542171655
 21
114.8932500078414
 31
0.0
  0
LINE
  5
2B2
330
1F
100
AcDbEntity
  8
0
  6
CONTINUOUS
 62
     7
100
AcDbLine
 10
394.3193987689493
 20
123.4741724020527
 30
0.0
 11
393.4337330402436
 21
122.7310106157494
 31
0.0
  0
LINE
  5
2B3
330
1F
100
AcDbEntity
  8
0
  6
CONTINUOUS
 62
     7
100
AcDbLine
 10
393.4337330402436
 20
122.7310106157494
 30
0.0
 11
393.387397586449
 21
122.6921305535599
 31
0.0
  0
LINE
  5
2B4
330
1F
100
AcDbEntity
  8
0
  6
CONTINUOUS
 62
     7
100
AcDbLine
 10
429.4206966091547
 20
133.75
 30
0.0
 11
430.5768511073189
 21
133.75
 31
0.0
  0
LINE
  5
2B5
330
1F
100
AcDbEntity
  8
0
  6
CONTINUOUS
 62
     7
100
AcDbLine
 10
430.5768511073189
 20
133.75
 30
0.0
 11
430.6373377464569
 21
133.75
 31
0.0
  0
LINE
  5
2B6
330
1F
100
AcDbEntity
  8
0
  6
CONTINUOUS
 62
     7
100
AcDbLine
 10
390.179720827831
 20
140.883769437921
 30
0.0
 11
390.2345932695075
 21
140.8637975024693
 31
0.0
  0
LINE
  5
2B7
330
1F
100
AcDbEntity
  8
0
  6
CONTINUOUS
 62
     7
100
AcDbLine
 10
390.2345932695075
 20
140.8637975024693
 30
0.0
 11
391.3229895266984
 21
140.467653661765
 31
0.0
  0
LINE
  5
2B8
330
1F
100
AcDbEntity
  8
0
  6
CONTINUOUS
 62
     7
100
AcDbLine
 10
393.3873975864491
 20
147.3078694464401
 30
0.0
 11
393.4321300107513
 21
147.2703344857064
 31
0.0
  0
LINE
  5
2B9
330
1F
100
AcDbEntity
  8
0
  6
CONTINUOUS
 62
     7
100
AcDbLine
 10
393.4321300107513
 20
147.2703344857064
 30
0.0
 11
394.3193987689493
 21
146.5258275979473
 31
0.0
  0
LINE
  5
2BA
330
1F
100
AcDbEntity
  8
0
  6
CONTINUOUS
 62
     7
100
AcDbLine
 10
400.7638628815022
 20
116.5025412450889
 30
0.0
 11
400.793059897879
 21
116.553111960883
 31
0.0
  0
LINE
  5
2BB
330
1F
100
AcDbEntity
  8
0
  6
CONTINUOUS
 62
     7
100
AcDbLine
 10
400.793059897879
 20
116.553111960883
 30
0.0
 11
401.3721834501532
 21
117.5561833772818
 31
0.0
  0
LINE
  5
2BC
330
1F
100
AcDbEntity
  8
0
  6
CONTINUOUS
 62
     7
100
AcDbLine
 10
390.5793033908453
 20
136.25
 30
0.0
 11
389.4231488926811
 21
136.25
 31
0.0
  0
LINE
  5
2BD
330
1F
100
AcDbEntity
  8
0
  6
CONTINUOUS
 62
     7
100
AcDbLine
 10
389.4231488926811
 20
136.25
 30
0.0
 11
389.3626622535431
 21
136.25
 31
0.0
  0
LINE
  5
2BE
330
1F
100
AcDbEntity
  8
0
  6
CONTINUOUS
 62
     7
100
AcDbLine
 10
399.2071199406921
 20
118.8061833772818
 30
0.0
 11
398.6278439812377
 21
117.8028479839034
 31
0.0
  0
LINE
  5
2BF
330
1F
100
AcDbEntity
  8
0
  6
CONTINUOUS
 62
     7
100
AcDbLine
 10
398.6278439812377
 20
117.8028479839034
 30
0.0
 11
398.5987993720411
 21
117.7525412450889
 31
0.0
  0
LINE
  5
2C0
330
1F
100
AcDbEntity
  8
0
  6
CONTINUOUS
 62
     7
100
AcDbLine
 10
405.3966217335328
 20
153.9085923675097
 30
0.0
 11
405.4313860530887
 21
153.7114341140407
 31
0.0
  0
LINE
  5
2C1
330
1F
100
AcDbEntity
  8
0
  6
CONTINUOUS
 62
     7
100
AcDbLine
 10
407.8934054356192
 20
154.1455545582081
 30
0.0
 11
407.8586411160632
 21
154.3427128116771
 31
0.0
  0
LINE
  5
2C2
330
1F
100
AcDbEntity
  8
0
  6
CONTINUOUS
 62
     7
100
AcDbLine
 10
414.5665749759306
 20
153.6998705349865
 30
0.0
 11
414.5318783955021
 21
153.5030964491996
 31
0.0
  0
LINE
  5
2C3
330
1F
100
AcDbEntity
  8
0
  6
CONTINUOUS
 62
     7
100
AcDbLine
 10
412.1045555934001
 20
154.1339909791538
 30
0.0
 11
412.0698590129716
 21
153.9372168933669
 31
0.0
  0
LINE
  5
2C4
330
1F
100
AcDbEntity
  8
0
  6
CONTINUOUS
 62
     7
100
AcDbLine
 10
418.6278165498468
 20
152.4438166227183
 30
0.0
 11
418.5277166811841
 21
152.2704385643635
 31
0.0
  0
LINE
  5
2C5
330
1F
100
AcDbEntity
  8
0
  6
CONTINUOUS
 62
     7
100
AcDbLine
 10
420.6927801906452
 20
151.0204385643635
 30
0.0
 11
420.7928800593079
 21
151.1938166227183
 31
0.0
  0
LINE
  5
2C6
330
1F
100
AcDbEntity
  8
0
  6
CONTINUOUS
 62
     7
100
AcDbLine
 10
401.3721834501532
 20
117.5561833772818
 30
0.0
 11
401.4722833188159
 21
117.7295614356365
 31
0.0
  0
LINE
  5
2C7
330
1F
100
AcDbEntity
  8
0
  6
CONTINUOUS
 62
     7
100
AcDbLine
 10
423.9202703105424
 20
121.6877472048705
 30
0.0
 11
424.0736322068344
 21
121.5590612942553
 31
0.0
  0
LINE
  5
2C8
330
1F
100
AcDbEntity
  8
0
  6
CONTINUOUS
 62
     7
100
AcDbLine
 10
392.1780398850125
 20
127.1831147862702
 30
0.0
 11
392.3661661008605
 21
127.251587129124
 31
0.0
  0
LINE
  5
2C9
330
1F
100
AcDbEntity
  8
0
  6
CONTINUOUS
 62
     7
100
AcDbLine
 10
396.0797296894576
 20
148.3122527951295
 30
0.0
 11
395.9263677931657
 21
148.4409387057447
 31
0.0
  0
LINE
  5
2CA
330
1F
100
AcDbEntity
  8
0
  6
CONTINUOUS
 62
     7
100
AcDbLine
 10
414.6033782664673
 20
116.0914076324903
 30
0.0
 11
414.5686139469113
 21
116.2885658859593
 31
0.0
  0
LINE
  5
2CB
330
1F
100
AcDbEntity
  8
0
  6
CONTINUOUS
 62
     7
100
AcDbLine
 10
401.4722833188159
 20
152.2704385643635
 30
0.0
 11
401.3721834501532
 21
152.4438166227183
 31
0.0
  0
LINE
  5
2CC
330
1F
100
AcDbEntity
  8
0
  6
CONTINUOUS
 62
     7
100
AcDbLine
 10
399.3072198093548
 20
118.9795614356365
 30
0.0
 11
399.2071199406921
 21
118.8061833772818
 31
0.0
  0
LINE
  5
2CD
330
1F
100
AcDbEntity
  8
0
  6
CONTINUOUS
 62
     7
100
AcDbLine
 10
412.1065945643809
 20
115.854445441792
 30
0.0
 11
412.1413588839368
 21
115.6572871883229
 31
0.0
  0
LINE
  5
2CE
330
1F
100
AcDbEntity
  8
0
  6
CONTINUOUS
 62
     7
100
AcDbLine
 10
395.9263677931657
 20
121.5590612942553
 30
0.0
 11
396.0797296894576
 21
121.6877472048705
 31
0.0
  0
LINE
  5
2CF
330
1F
100
AcDbEntity
  8
0
  6
CONTINUOUS
 62
     7
100
AcDbLine
 10
390.5793033908453
 20
133.75
 30
0.0
 11
390.7795031281707
 21
133.75
 31
0.0
  0
LINE
  5
2D0
330
1F
100
AcDbEntity
  8
0
  6
CONTINUOUS
 62
     7
100
AcDbLine
 10
425.6806012310507
 20
123.4741724020527
 30
0.0
 11
425.5272393347587
 21
123.602858312668
 31
0.0
  0
LINE
  5
2D1
330
1F
100
AcDbEntity
  8
0
  6
CONTINUOUS
 62
     7
100
AcDbLine
 10
407.8586411160632
 20
115.657287188323
 30
0.0
 11
407.8934054356192
 21
115.854445441792
 31
0.0
  0
LINE
  5
2D2
330
1F
100
AcDbEntity
  8
0
  6
CONTINUOUS
 62
     7
100
AcDbLine
 10
428.6770104733017
 20
129.532346338235
 30
0.0
 11
428.4888842574537
 21
129.6008186810888
 31
0.0
  0
LINE
  5
2D3
330
1F
100
AcDbEntity
  8
0
  6
CONTINUOUS
 62
     7
100
AcDbLine
 10
429.2204968718293
 20
133.75
 30
0.0
 11
429.4206966091547
 21
133.75
 31
0.0
  0
LINE
  5
2D4
330
1F
100
AcDbEntity
  8
0
  6
CONTINUOUS
 62
     7
100
AcDbLine
 10
405.4313860530887
 20
116.2885658859593
 30
0.0
 11
405.3966217335328
 21
116.0914076324902
 31
0.0
  0
LINE
  5
2D5
330
1F
100
AcDbEntity
  8
0
  6
CONTINUOUS
 62
     7
100
AcDbLine
 10
429.4206966091547
 20
136.25
 30
0.0
 11
429.2204968718293
 21
136.25
 31
0.0
  0
LINE
  5
2D6
330
1F
100
AcDbEntity
  8
0
  6
CONTINUOUS
 62
     7
100
AcDbLine
 10
394.4727606652413
 20
123.602858312668
 30
0.0
 11
394.3193987689493
 21
123.4741724020527
 31
0.0
  0
LINE
  5
2D7
330
1F
100
AcDbEntity
  8
0
  6
CONTINUOUS
 62
     7
100
AcDbLine
 10
392.3661661008605
 20
142.748412870876
 30
0.0
 11
392.1780398850125
 21
142.8168852137298
 31
0.0
  0
LINE
  5
2D8
330
1F
100
AcDbEntity
  8
0
  6
CONTINUOUS
 62
     7
100
AcDbLine
 10
394.3193987689493
 20
146.5258275979473
 30
0.0
 11
394.4727606652413
 21
146.3971416873321
 31
0.0
  0
LINE
  5
2D9
330
1F
100
AcDbEntity
  8
0
  6
CONTINUOUS
 62
     7
100
AcDbLine
 10
427.6338338991396
 20
127.251587129124
 30
0.0
 11
427.8219601149875
 21
127.1831147862702
 31
0.0
  0
LINE
  5
2DA
330
1F
100
AcDbEntity
  8
0
  6
CONTINUOUS
 62
     7
100
AcDbLine
 10
390.7795031281707
 20
136.25
 30
0.0
 11
390.5793033908453
 21
136.25
 31
0.0
  0
LINE
  5
2DB
330
1F
100
AcDbEntity
  8
0
  6
CONTINUOUS
 62
     7
100
AcDbLine
 10
424.0736322068344
 20
148.4409387057447
 30
0.0
 11
423.9202703105423
 21
148.3122527951295
 31
0.0
  0
LINE
  5
2DC
330
1F
100
AcDbEntity
  8
0
  6
CONTINUOUS
 62
     7
100
AcDbLine
 10
391.3229895266984
 20
140.467653661765
 30
0.0
 11
391.5111157425464
 21
140.3991813189112
 31
0.0
  0
LINE
  5
2DD
330
1F
100
AcDbEntity
  8
0
  6
CONTINUOUS
 62
     7
100
AcDbLine
 10
428.4888842574537
 20
140.3991813189112
 30
0.0
 11
428.6770104733017
 21
140.467653661765
 31
0.0
  0
LINE
  5
2DE
330
1F
100
AcDbEntity
  8
0
  6
CONTINUOUS
 62
     7
100
AcDbLine
 10
399.2071199406921
 20
151.1938166227182
 30
0.0
 11
399.3072198093548
 21
151.0204385643635
 31
0.0
  0
LINE
  5
2DF
330
1F
100
AcDbEntity
  8
0
  6
CONTINUOUS
 62
     7
100
AcDbLine
 10
420.7928800593079
 20
118.8061833772818
 30
0.0
 11
420.6927801906452
 21
118.9795614356365
 31
0.0
  0
LINE
  5
2E0
330
1F
100
AcDbEntity
  8
0
  6
CONTINUOUS
 62
     7
100
AcDbLine
 10
418.5277166811841
 20
117.7295614356365
 30
0.0
 11
418.6278165498468
 21
117.5561833772818
 31
0.0
  0
LINE
  5
2E1
330
1F
100
AcDbEntity
  8
0
  6
CONTINUOUS
 62
     7
100
AcDbLine
 10
427.8219601149875
 20
142.8168852137298
 30
0.0
 11
427.6338338991396
 21
142.748412870876
 31
0.0
  0
LINE
  5
2E2
330
1F
100
AcDbEntity
  8
0
  6
CONTINUOUS
 62
     7
100
AcDbLine
 10
391.5111157425463
 20
129.6008186810888
 30
0.0
 11
391.3229895266983
 21
129.532346338235
 31
0.0
  0
LINE
  5
2E3
330
1F
100
AcDbEntity
  8
0
  6
CONTINUOUS
 62
     7
100
AcDbLine
 10
425.5272393347587
 20
146.3971416873321
 30
0.0
 11
425.6806012310507
 21
146.5258275979473
 31
0.0
  0
ARC
  5
2E4
330
1F
100
AcDbEntity
  8
0
  6
CONTINUOUS
 62
     7
100
AcDbCircle
 10
417.9691801044808
 20
152.3030248356277
 30
0.0
 40
0.4999999999999768
100
AcDbArc
 50
245.270822951231
 51
330.0000000000002
  0
LINE
  5
2E5
330
1F
100
AcDbEntity
  8
0
  6
CONTINUOUS
 62
     7
100
AcDbLine
 10
418.5277166811841
 20
152.2704385643635
 30
0.0
 11
418.402192806373
 21
152.0530248356277
 31
0.0
  0
ARC
  5
2E6
330
1F
100
AcDbEntity
  8
0
  6
CONTINUOUS
 62
     7
100
AcDbCircle
 10
421.0002690177263
 20
150.5530248356277
 30
0.0
 40
0.500000000000002
100
AcDbArc
 50
150.0
 51
234.7291770487694
  0
LINE
  5
2E7
330
1F
100
AcDbEntity
  8
0
  6
CONTINUOUS
 62
     7
100
AcDbLine
 10
420.5672563158341
 20
150.8030248356277
 30
0.0
 11
420.6927801906452
 21
151.0204385643635
 31
0.0
  0
ARC
  5
2E8
330
1F
100
AcDbEntity
  8
0
  6
CONTINUOUS
 62
     7
100
AcDbCircle
 10
410.0
 20
135.0
 30
0.0
 40
18.55000000000001
100
AcDbArc
 50
105.2708229512304
 51
114.7291770487695
  0
ARC
  5
2E9
330
1F
100
AcDbEntity
  8
0
  6
CONTINUOUS
 62
     7
100
AcDbCircle
 10
408.4294032963546
 20
153.9851448768372
 30
0.0
 40
0.4999999999999639
100
AcDbArc
 50
189.9999999999999
 51
274.7291770487695
  0
LINE
  5
2EA
330
1F
100
AcDbEntity
  8
0
  6
CONTINUOUS
 62
     7
100
AcDbLine
 10
407.9369994198485
 20
153.8983207880038
 30
0.0
 11
407.8934054356192
 21
154.1455545582081
 31
0.0
  0
ARC
  5
2EB
330
1F
100
AcDbEntity
  8
0
  6
CONTINUOUS
 62
     7
100
AcDbCircle
 10
410.0
 20
135.0
 30
0.0
 40
18.54999999999999
100
AcDbArc
 50
45.27082295123046
 51
54.72917704876954
  0
ARC
  5
2EC
330
1F
100
AcDbEntity
  8
0
  6
CONTINUOUS
 62
     7
100
AcDbCircle
 10
410.0
 20
135.0
 30
0.0
 40
18.54999999999998
100
AcDbArc
 50
65.2708229512304
 51
76.13617049968497
  0
LINE
  5
2ED
330
1F
100
AcDbEntity
  8
0
  6
CONTINUOUS
 62
     7
100
AcDbLine
 10
414.5318783955021
 20
153.5030964491996
 30
0.0
 11
414.4448617161721
 21
153.0096003377118
 31
0.0
  0
ARC
  5
2EE
330
1F
100
AcDbEntity
  8
0
  6
CONTINUOUS
 62
     7
100
AcDbCircle
 10
404.9825761608118
 20
153.377376255003
 30
0.0
 40
0.5000000000000109
100
AcDbArc
 50
285.2708229512306
 51
10.00000000000068
  0
LINE
  5
2EF
330
1F
100
AcDbEntity
  8
0
  6
CONTINUOUS
 62
     7
100
AcDbLine
 10
405.4313860530887
 20
153.7114341140407
 30
0.0
 11
405.4749800373179
 21
153.4642003438364
 31
0.0
  0
ARC
  5
2F0
330
1F
100
AcDbEntity
  8
0
  6
CONTINUOUS
 62
     7
100
AcDbCircle
 10
410.0
 20
135.0
 30
0.0
 40
18.55
100
AcDbArc
 50
83.86382950031498
 51
94.72917704876953
  0
LINE
  5
2F1
330
1F
100
AcDbEntity
  8
0
  6
CONTINUOUS
 62
     7
100
AcDbLine
 10
412.0698590129716
 20
153.9372168933669
 30
0.0
 11
411.9828423336415
 21
153.4437207818791
 31
0.0
  0
ARC
  5
2F2
330
1F
100
AcDbEntity
  8
0
  6
CONTINUOUS
 62
     7
100
AcDbCircle
 10
415.0174238391882
 20
116.6226237449971
 30
0.0
 40
0.4999999999999974
100
AcDbArc
 50
105.2708229512305
 51
190.0000000000003
  0
LINE
  5
2F3
330
1F
100
AcDbEntity
  8
0
  6
CONTINUOUS
 62
     7
100
AcDbLine
 10
414.5686139469113
 20
116.2885658859593
 30
0.0
 11
414.5250199626821
 21
116.5357996561636
 31
0.0
  0
ARC
  5
2F4
330
1F
100
AcDbEntity
  8
0
  6
CONTINUOUS
 62
     7
100
AcDbCircle
 10
410.0
 20
135.0
 30
0.0
 40
18.55000000000001
100
AcDbArc
 50
165.2708229512303
 51
174.7291770487696
  0
ARC
  5
2F5
330
1F
100
AcDbEntity
  8
0
  6
CONTINUOUS
 62
     7
100
AcDbCircle
 10
410.0
 20
135.0
 30
0.0
 40
18.54999999999999
100
AcDbArc
 50
125.2708229512305
 51
134.7291770487695
  0
ARC
  5
2F6
330
1F
100
AcDbEntity
  8
0
  6
CONTINUOUS
 62
     7
100
AcDbCircle
 10
398.9997309822738
 20
119.4469751643723
 30
0.0
 40
0.4999999999999949
100
AcDbArc
 50
330.0000000000009
 51
54.72917704876959
  0
LINE
  5
2F7
330
1F
100
AcDbEntity
  8
0
  6
CONTINUOUS
 62
     7
100
AcDbLine
 10
399.432743684166
 20
119.1969751643723
 30
0.0
 11
399.3072198093548
 21
118.9795614356365
 31
0.0
  0
ARC
  5
2F8
330
1F
100
AcDbEntity
  8
0
  6
CONTINUOUS
 62
     7
100
AcDbCircle
 10
428.4239866113315
 20
139.8434716212109
 30
0.0
 40
0.4999999999999959
100
AcDbArc
 50
110.0000000000005
 51
194.7291770487696
  0
LINE
  5
2F9
330
1F
100
AcDbEntity
  8
0
  6
CONTINUOUS
 62
     7
100
AcDbLine
 10
428.2529765396687
 20
140.3133179316038
 30
0.0
 11
428.4888842574537
 21
140.3991813189112
 31
0.0
  0
ARC
  5
2FA
330
1F
100
AcDbEntity
  8
0
  6
CONTINUOUS
 62
     7
100
AcDbCircle
 10
423.4065627721434
 20
121.4660953662079
 30
0.0
 40
0.4999999999999884
100
AcDbArc
 50
50.00000000000047
 51
134.7291770487696
  0
LINE
  5
2FB
330
1F
100
AcDbEntity
  8
0
  6
CONTINUOUS
 62
     7
100
AcDbLine
 10
423.7279565769867
 20
121.8491175877674
 30
0.0
 11
423.9202703105424
 21
121.6877472048705
 31
0.0
  0
ARC
  5
2FC
330
1F
100
AcDbEntity
  8
0
  6
CONTINUOUS
 62
     7
100
AcDbCircle
 10
428.969449122207
 20
136.75
 30
0.0
 40
0.4999999999999779
100
AcDbArc
 50
185.2708229512307
 51
270.0000000000005
  0
LINE
  5
2FD
330
1F
100
AcDbEntity
  8
0
  6
CONTINUOUS
 62
     7
100
AcDbLine
 10
429.2204968718293
 20
136.25
 30
0.0
 11
428.969449122207
 21
136.25
 31
0.0
  0
ARC
  5
2FE
330
1F
100
AcDbEntity
  8
0
  6
CONTINUOUS
 62
     7
100
AcDbCircle
 10
417.9691801044808
 20
117.6969751643723
 30
0.0
 40
0.500000000000002
100
AcDbArc
 50
30.00000000000011
 51
114.7291770487696
  0
LINE
  5
2FF
330
1F
100
AcDbEntity
  8
0
  6
CONTINUOUS
 62
     7
100
AcDbLine
 10
418.402192806373
 20
117.9469751643723
 30
0.0
 11
418.5277166811841
 21
117.7295614356365
 31
0.0
  0
ARC
  5
300
330
1F
100
AcDbEntity
  8
0
  6
CONTINUOUS
 62
     7
100
AcDbCircle
 10
410.0
 20
135.0
 30
0.0
 40
18.55
100
AcDbArc
 50
305.2708229512305
 51
314.7291770487695
  0
ARC
  5
301
330
1F
100
AcDbEntity
  8
0
  6
CONTINUOUS
 62
     7
100
AcDbCircle
 10
427.2269161096918
 20
126.8676042060385
 30
0.0
 40
0.4999999999999959
100
AcDbArc
 50
70.0
 51
154.7291770487693
  0
LINE
  5
302
330
1F
100
AcDbEntity
  8
0
  6
CONTINUOUS
 62
     7
100
AcDbLine
 10
427.3979261813546
 20
127.3374505164314
 30
0.0
 11
427.6338338991396
 21
127.251587129124
 31
0.0
  0
ARC
  5
303
330
1F
100
AcDbEntity
  8
0
  6
CONTINUOUS
 62
     7
100
AcDbCircle
 10
421.0002690177263
 20
119.4469751643723
 30
0.0
 40
0.5000000000000037
100
AcDbArc
 50
125.2708229512306
 51
210.0000000000002
  0
LINE
  5
304
330
1F
100
AcDbEntity
  8
0
  6
CONTINUOUS
 62
     7
100
AcDbLine
 10
420.6927801906452
 20
118.9795614356365
 30
0.0
 11
420.5672563158341
 21
119.1969751643723
 31
0.0
  0
ARC
  5
305
330
1F
100
AcDbEntity
  8
0
  6
CONTINUOUS
 62
     7
100
AcDbCircle
 10
391.5760133886684
 20
130.1565283787891
 30
0.0
 40
0.5000000000000149
100
AcDbArc
 50
289.9999999999999
 51
14.72917704876937
  0
LINE
  5
306
330
1F
100
AcDbEntity
  8
0
  6
CONTINUOUS
 62
     7
100
AcDbLine
 10
391.7470234603313
 20
129.6866820683962
 30
0.0
 11
391.5111157425463
 21
129.6008186810888
 31
0.0
  0
ARC
  5
307
330
1F
100
AcDbEntity
  8
0
  6
CONTINUOUS
 62
     7
100
AcDbCircle
 10
402.0308198955193
 20
152.3030248356277
 30
0.0
 40
0.499999999999988
100
AcDbArc
 50
210.0
 51
294.7291770487697
  0
LINE
  5
308
330
1F
100
AcDbEntity
  8
0
  6
CONTINUOUS
 62
     7
100
AcDbLine
 10
401.5978071936271
 20
152.0530248356277
 30
0.0
 11
401.4722833188159
 21
152.2704385643635
 31
0.0
  0
ARC
  5
309
330
1F
100
AcDbEntity
  8
0
  6
CONTINUOUS
 62
     7
100
AcDbCircle
 10
391.5760133886685
 20
139.8434716212109
 30
0.0
 40
0.4999999999999644
100
AcDbArc
 50
345.2708229512305
 51
70.0
  0
LINE
  5
30A
330
1F
100
AcDbEntity
  8
0
  6
CONTINUOUS
 62
     7
100
AcDbLine
 10
391.5111157425464
 20
140.3991813189112
 30
0.0
 11
391.7470234603313
 21
140.3133179316038
 31
0.0
  0
ARC
  5
30B
330
1F
100
AcDbEntity
  8
0
  6
CONTINUOUS
 62
     7
100
AcDbCircle
 10
411.5705967036455
 20
116.0148551231628
 30
0.0
 40
0.4999999999999615
100
AcDbArc
 50
9.999999999999865
 51
94.72917704876957
  0
LINE
  5
30C
330
1F
100
AcDbEntity
  8
0
  6
CONTINUOUS
 62
     7
100
AcDbLine
 10
412.0630005801515
 20
116.1016792119963
 30
0.0
 11
412.1065945643809
 21
115.854445441792
 31
0.0
  0
ARC
  5
30D
330
1F
100
AcDbEntity
  8
0
  6
CONTINUOUS
 62
     7
100
AcDbCircle
 10
396.5934372278566
 20
148.5339046337921
 30
0.0
 40
0.4999999999999778
100
AcDbArc
 50
230.0000000000001
 51
314.7291770487696
  0
LINE
  5
30E
330
1F
100
AcDbEntity
  8
0
  6
CONTINUOUS
 62
     7
100
AcDbLine
 10
396.2720434230134
 20
148.1508824122326
 30
0.0
 11
396.0797296894576
 21
148.3122527951295
 31
0.0
  0
ARC
  5
30F
330
1F
100
AcDbEntity
  8
0
  6
CONTINUOUS
 62
     7
100
AcDbCircle
 10
392.7730838903083
 20
126.8676042060385
 30
0.0
 40
0.5000000000000273
100
AcDbArc
 50
25.27082295123085
 51
110.0000000000008
  0
LINE
  5
310
330
1F
100
AcDbEntity
  8
0
  6
CONTINUOUS
 62
     7
100
AcDbLine
 10
392.3661661008605
 20
127.251587129124
 30
0.0
 11
392.6020738186455
 21
127.3374505164314
 31
0.0
  0
ARC
  5
311
330
1F
100
AcDbEntity
  8
0
  6
CONTINUOUS
 62
     7
100
AcDbCircle
 10
410.0
 20
135.0
 30
0.0
 40
18.55000000000001
100
AcDbArc
 50
245.2708229512305
 51
254.7291770487695
  0
ARC
  5
312
330
1F
100
AcDbEntity
  8
0
  6
CONTINUOUS
 62
     7
100
AcDbCircle
 10
391.030550877793
 20
133.25
 30
0.0
 40
0.4999999999999779
100
AcDbArc
 50
5.270822951230699
 51
90.0000000000005
  0
LINE
  5
313
330
1F
100
AcDbEntity
  8
0
  6
CONTINUOUS
 62
     7
100
AcDbLine
 10
390.7795031281707
 20
133.75
 30
0.0
 11
391.030550877793
 21
133.75
 31
0.0
  0
ARC
  5
314
330
1F
100
AcDbEntity
  8
0
  6
CONTINUOUS
 62
     7
100
AcDbCircle
 10
404.9825761608118
 20
116.6226237449971
 30
0.0
 40
0.5000000000000162
100
AcDbArc
 50
350.0000000000001
 51
74.72917704876954
  0
LINE
  5
315
330
1F
100
AcDbEntity
  8
0
  6
CONTINUOUS
 62
     7
100
AcDbLine
 10
405.4749800373179
 20
116.5357996561636
 30
0.0
 11
405.4313860530887
 21
116.2885658859593
 31
0.0
  0
ARC
  5
316
330
1F
100
AcDbEntity
  8
0
  6
CONTINUOUS
 62
     7
100
AcDbCircle
 10
396.5934372278566
 20
121.466095366208
 30
0.0
 40
0.5000000000000001
100
AcDbArc
 50
45.27082295123029
 51
130.0000000000003
  0
LINE
  5
317
330
1F
100
AcDbEntity
  8
0
  6
CONTINUOUS
 62
     7
100
AcDbLine
 10
396.0797296894576
 20
121.6877472048705
 30
0.0
 11
396.2720434230134
 21
121.8491175877674
 31
0.0
  0
ARC
  5
318
330
1F
100
AcDbEntity
  8
0
  6
CONTINUOUS
 62
     7
100
AcDbCircle
 10
394.3436805939538
 20
124.1472509171244
 30
0.0
 40
0.499999999999999
100
AcDbArc
 50
309.9999999999997
 51
34.72917704877006
  0
LINE
  5
319
330
1F
100
AcDbEntity
  8
0
  6
CONTINUOUS
 62
     7
100
AcDbLine
 10
394.665074398797
 20
123.7642286955649
 30
0.0
 11
394.4727606652413
 21
123.602858312668
 31
0.0
  0
ARC
  5
31A
330
1F
100
AcDbEntity
  8
0
  6
CONTINUOUS
 62
     7
100
AcDbCircle
 10
410.0
 20
135.0
 30
0.0
 40
18.54999999999999
100
AcDbArc
 50
25.2708229512304
 51
34.72917704876954
  0
ARC
  5
31B
330
1F
100
AcDbEntity
  8
0
  6
CONTINUOUS
 62
     7
100
AcDbCircle
 10
410.0
 20
135.0
 30
0.0
 40
18.55
100
AcDbArc
 50
265.2708229512305
 51
274.7291770487695
  0
ARC
  5
31C
330
1F
100
AcDbEntity
  8
0
  6
CONTINUOUS
 62
     7
100
AcDbCircle
 10
398.9997309822738
 20
150.5530248356277
 30
0.0
 40
0.5000000000000037
100
AcDbArc
 50
305.2708229512305
 51
29.99999999999994
  0
LINE
  5
31D
330
1F
100
AcDbEntity
  8
0
  6
CONTINUOUS
 62
     7
100
AcDbLine
 10
399.3072198093548
 20
151.0204385643635
 30
0.0
 11
399.432743684166
 21
150.8030248356277
 31
0.0
  0
ARC
  5
31E
330
1F
100
AcDbEntity
  8
0
  6
CONTINUOUS
 62
     7
100
AcDbCircle
 10
391.030550877793
 20
136.75
 30
0.0
 40
0.5000000000000004
100
AcDbArc
 50
269.9999999999996
 51
354.7291770487695
  0
LINE
  5
31F
330
1F
100
AcDbEntity
  8
0
  6
CONTINUOUS
 62
     7
100
AcDbLine
 10
391.030550877793
 20
136.25
 30
0.0
 11
390.7795031281707
 21
136.25
 31
0.0
  0
ARC
  5
320
330
1F
100
AcDbEntity
  8
0
  6
CONTINUOUS
 62
     7
100
AcDbCircle
 10
394.3436805939538
 20
145.8527490828756
 30
0.0
 40
0.4999999999999978
100
AcDbArc
 50
325.2708229512302
 51
50.00000000000006
  0
LINE
  5
321
330
1F
100
AcDbEntity
  8
0
  6
CONTINUOUS
 62
     7
100
AcDbLine
 10
394.4727606652413
 20
146.3971416873321
 30
0.0
 11
394.665074398797
 21
146.2357713044352
 31
0.0
  0
ARC
  5
322
330
1F
100
AcDbEntity
  8
0
  6
CONTINUOUS
 62
     7
100
AcDbCircle
 10
408.4294032963546
 20
116.0148551231628
 30
0.0
 40
0.4999999999999906
100
AcDbArc
 50
85.2708229512306
 51
170.0000000000006
  0
LINE
  5
323
330
1F
100
AcDbEntity
  8
0
  6
CONTINUOUS
 62
     7
100
AcDbLine
 10
407.8934054356192
 20
115.854445441792
 30
0.0
 11
407.9369994198485
 21
116.1016792119963
 31
0.0
  0
ARC
  5
324
330
1F
100
AcDbEntity
  8
0
  6
CONTINUOUS
 62
     7
100
AcDbCircle
 10
410.0
 20
135.0
 30
0.0
 40
18.55000000000001
100
AcDbArc
 50
345.2708229512305
 51
354.7291770487695
  0
ARC
  5
325
330
1F
100
AcDbEntity
  8
0
  6
CONTINUOUS
 62
     7
100
AcDbCircle
 10
410.0
 20
135.0
 30
0.0
 40
18.54999999999999
100
AcDbArc
 50
225.2708229512305
 51
234.7291770487695
  0
ARC
  5
326
330
1F
100
AcDbEntity
  8
0
  6
CONTINUOUS
 62
     7
100
AcDbCircle
 10
410.0
 20
135.0
 30
0.0
 40
18.54999999999999
100
AcDbArc
 50
285.2708229512305
 51
294.7291770487695
  0
ARC
  5
327
330
1F
100
AcDbEntity
  8
0
  6
CONTINUOUS
 62
     7
100
AcDbCircle
 10
428.4239866113315
 20
130.1565283787891
 30
0.0
 40
0.4999999999999644
100
AcDbArc
 50
165.2708229512304
 51
250.0
  0
LINE
  5
328
330
1F
100
AcDbEntity
  8
0
  6
CONTINUOUS
 62
     7
100
AcDbLine
 10
428.4888842574537
 20
129.6008186810888
 30
0.0
 11
428.2529765396687
 21
129.6866820683962
 31
0.0
  0
ARC
  5
329
330
1F
100
AcDbEntity
  8
0
  6
CONTINUOUS
 62
     7
100
AcDbCircle
 10
410.0
 20
135.0
 30
0.0
 40
18.54999999999999
100
AcDbArc
 50
145.2708229512305
 51
154.7291770487695
  0
ARC
  5
32A
330
1F
100
AcDbEntity
  8
0
  6
CONTINUOUS
 62
     7
100
AcDbCircle
 10
425.6563194060463
 20
145.8527490828756
 30
0.0
 40
0.499999999999999
100
AcDbArc
 50
130.0
 51
214.7291770487692
  0
LINE
  5
32B
330
1F
100
AcDbEntity
  8
0
  6
CONTINUOUS
 62
     7
100
AcDbLine
 10
425.3349256012031
 20
146.2357713044352
 30
0.0
 11
425.5272393347587
 21
146.3971416873321
 31
0.0
  0
ARC
  5
32C
330
1F
100
AcDbEntity
  8
0
  6
CONTINUOUS
 62
     7
100
AcDbCircle
 10
425.6563194060463
 20
124.1472509171244
 30
0.0
 40
0.4999999999999978
100
AcDbArc
 50
145.2708229512311
 51
227.7708229512314
  0
ARC
  5
32D
330
1F
100
AcDbEntity
  8
0
  6
CONTINUOUS
 62
     7
100
AcDbCircle
 10
425.6563194060463
 20
124.1472509171244
 30
0.0
 40
0.499999999999999
100
AcDbArc
 50
227.7708229512314
 51
229.9999999999996
  0
LINE
  5
32E
330
1F
100
AcDbEntity
  8
0
  6
CONTINUOUS
 62
     7
100
AcDbLine
 10
425.5272393347587
 20
123.602858312668
 30
0.0
 11
425.3349256012031
 21
123.7642286955649
 31
0.0
  0
ARC
  5
32F
330
1F
100
AcDbEntity
  8
0
  6
CONTINUOUS
 62
     7
100
AcDbCircle
 10
428.969449122207
 20
133.25
 30
0.0
 40
0.5000000000000004
100
AcDbArc
 50
89.99999999999962
 51
174.7291770487696
  0
LINE
  5
330
330
1F
100
AcDbEntity
  8
0
  6
CONTINUOUS
 62
     7
100
AcDbLine
 10
428.969449122207
 20
133.75
 30
0.0
 11
429.2204968718293
 21
133.75
 31
0.0
  0
ARC
  5
331
330
1F
100
AcDbEntity
  8
0
  6
CONTINUOUS
 62
     7
100
AcDbCircle
 10
410.0
 20
135.0
 30
0.0
 40
18.55000000000001
100
AcDbArc
 50
5.270822951230457
 51
14.72917704876954
  0
ARC
  5
332
330
1F
100
AcDbEntity
  8
0
  6
CONTINUOUS
 62
     7
100
AcDbCircle
 10
410.0
 20
135.0
 30
0.0
 40
18.54999999999998
100
AcDbArc
 50
205.2708229512305
 51
214.7291770487695
  0
ARC
  5
333
330
1F
100
AcDbEntity
  8
0
  6
CONTINUOUS
 62
     7
100
AcDbCircle
 10
427.2269161096918
 20
143.1323957939616
 30
0.0
 40
0.5000000000000273
100
AcDbArc
 50
205.2708229512311
 51
290.0000000000007
  0
LINE
  5
334
330
1F
100
AcDbEntity
  8
0
  6
CONTINUOUS
 62
     7
100
AcDbLine
 10
427.6338338991396
 20
142.748412870876
 30
0.0
 11
427.3979261813546
 21
142.6625494835686
 31
0.0
  0
ARC
  5
335
330
1F
100
AcDbEntity
  8
0
  6
CONTINUOUS
 62
     7
100
AcDbCircle
 10
410.0
 20
135.0
 30
0.0
 40
18.55000000000001
100
AcDbArc
 50
185.2708229512303
 51
194.7291770487696
  0
ARC
  5
336
330
1F
100
AcDbEntity
  8
0
  6
CONTINUOUS
 62
     7
100
AcDbCircle
 10
402.0308198955193
 20
117.6969751643723
 30
0.0
 40
0.5000000000000001
100
AcDbArc
 50
65.27082295123054
 51
150.0000000000005
  0
LINE
  5
337
330
1F
100
AcDbEntity
  8
0
  6
CONTINUOUS
 62
     7
100
AcDbLine
 10
401.4722833188159
 20
117.7295614356365
 30
0.0
 11
401.5978071936271
 21
117.9469751643723
 31
0.0
  0
ARC
  5
338
330
1F
100
AcDbEntity
  8
0
  6
CONTINUOUS
 62
     7
100
AcDbCircle
 10
423.4065627721434
 20
148.5339046337921
 30
0.0
 40
0.5000000000000101
100
AcDbArc
 50
225.2708229512303
 51
310.0000000000001
  0
LINE
  5
339
330
1F
100
AcDbEntity
  8
0
  6
CONTINUOUS
 62
     7
100
AcDbLine
 10
423.9202703105423
 20
148.3122527951295
 30
0.0
 11
423.7279565769867
 21
148.1508824122326
 31
0.0
  0
ARC
  5
33A
330
1F
100
AcDbEntity
  8
0
  6
CONTINUOUS
 62
     7
100
AcDbCircle
 10
410.0
 20
135.0
 30
0.0
 40
18.54999999999998
100
AcDbArc
 50
325.2708229512305
 51
334.7291770487695
  0
ARC
  5
33B
330
1F
100
AcDbEntity
  8
0
  6
CONTINUOUS
 62
     7
100
AcDbCircle
 10
392.7730838903083
 20
143.1323957939616
 30
0.0
 40
0.4999999999999959
100
AcDbArc
 50
250.0
 51
334.7291770487695
  0
LINE
  5
33C
330
1F
100
AcDbEntity
  8
0
  6
CONTINUOUS
 62
     7
100
AcDbLine
 10
392.6020738186455
 20
142.6625494835686
 30
0.0
 11
392.3661661008605
 21
142.748412870876
 31
0.0
  0
LINE
  5
33D
330
1F
100
AcDbEntity
  8
0
  6
CONTINUOUS
 62
     7
100
AcDbLine
 10
398.1813329401739
 20
153.1991513244157
 30
0.0
 11
398.1541009884232
 21
153.2410848528129
 31
0.0
  0
ARC
  5
33E
330
1F
100
AcDbEntity
  8
0
  6
CONTINUOUS
 62
     7
100
AcDbCircle
 10
410.0
 20
135.0
 30
0.0
 40
21.69999999999998
100
AcDbArc
 50
176.6977238911177
 51
177.0
  0
ARC
  5
33F
330
1F
100
AcDbEntity
  8
0
  6
CONTINUOUS
 62
     7
100
AcDbCircle
 10
410.0
 20
135.0
 30
0.0
 40
21.69999999999997
100
AcDbArc
 50
156.6977238911175
 51
163.3022761088822
  0
ARC
  5
340
330
1F
100
AcDbEntity
  8
0
  6
CONTINUOUS
 62
     7
100
AcDbCircle
 10
410.0
 20
135.0
 30
0.0
 40
21.69999999999999
100
AcDbArc
 50
136.6977238911176
 51
143.3022761088822
  0
ARC
  5
341
330
1F
100
AcDbEntity
  8
0
  6
CONTINUOUS
 62
     7
100
AcDbCircle
 10
410.0
 20
135.0
 30
0.0
 40
21.69999999999998
100
AcDbArc
 50
123.0
 51
123.3022761088823
  0
LINE
  5
342
330
1F
100
AcDbEntity
  8
0
  6
CONTINUOUS
 62
     7
100
AcDbLine
 10
388.279807619088
 20
136.138307048284
 30
0.0
 11
388.3297390958258
 21
136.1356902504719
 31
0.0
  0
LINE
  5
343
330
1F
100
AcDbEntity
  8
0
  6
CONTINUOUS
 62
     7
100
AcDbLine
 10
419.8515938443481
 20
154.3348415748876
 30
0.0
 11
419.8742933693352
 21
154.379391901097
 31
0.0
  0
ARC
  5
344
330
1F
100
AcDbEntity
  8
0
  6
CONTINUOUS
 62
     7
100
AcDbCircle
 10
410.0
 20
135.0
 30
0.0
 40
21.69999999999998
100
AcDbArc
 50
116.6977238911177
 51
117.0
  0
ARC
  5
345
330
1F
100
AcDbEntity
  8
0
  6
CONTINUOUS
 62
     7
100
AcDbCircle
 10
410.0
 20
135.0
 30
0.0
 40
21.69999999999998
100
AcDbArc
 50
96.69772389111766
 51
103.3022761088823
  0
ARC
  5
346
330
1F
100
AcDbEntity
  8
0
  6
CONTINUOUS
 62
     7
100
AcDbCircle
 10
410.0
 20
135.0
 30
0.0
 40
21.69999999999998
100
AcDbArc
 50
76.69772389111773
 51
83.30227610888227
  0
ARC
  5
347
330
1F
100
AcDbEntity
  8
0
  6
CONTINUOUS
 62
     7
100
AcDbCircle
 10
410.0
 20
135.0
 30
0.0
 40
21.69999999999998
100
AcDbArc
 50
62.99999999999999
 51
63.30227610888232
  0
LINE
  5
348
330
1F
100
AcDbEntity
  8
0
  6
CONTINUOUS
 62
     7
100
AcDbLine
 10
400.1257066306649
 20
154.379391901097
 30
0.0
 11
400.1484061556519
 21
154.3348415748876
 31
0.0
  0
LINE
  5
349
330
1F
100
AcDbEntity
  8
0
  6
CONTINUOUS
 62
     7
100
AcDbLine
 10
421.8186670598261
 20
116.8008486755843
 30
0.0
 11
421.8458990115769
 21
116.758915147187
 31
0.0
  0
ARC
  5
34A
330
1F
100
AcDbEntity
  8
0
  6
CONTINUOUS
 62
     7
100
AcDbCircle
 10
410.0
 20
135.0
 30
0.0
 40
21.69999999999998
100
AcDbArc
 50
356.6977238911177
 51
356.9999999999999
  0
ARC
  5
34B
330
1F
100
AcDbEntity
  8
0
  6
CONTINUOUS
 62
     7
100
AcDbCircle
 10
410.0
 20
135.0
 30
0.0
 40
21.69999999999997
100
AcDbArc
 50
336.6977238911177
 51
343.3022761088824
  0
ARC
  5
34C
330
1F
100
AcDbEntity
  8
0
  6
CONTINUOUS
 62
     7
100
AcDbCircle
 10
410.0
 20
135.0
 30
0.0
 40
21.69999999999999
100
AcDbArc
 50
316.6977238911177
 51
323.3022761088823
  0
ARC
  5
34D
330
1F
100
AcDbEntity
  8
0
  6
CONTINUOUS
 62
     7
100
AcDbCircle
 10
410.0
 20
135.0
 30
0.0
 40
21.7
100
AcDbArc
 50
303.0
 51
303.3022761088823
  0
LINE
  5
34E
330
1F
100
AcDbEntity
  8
0
  6
CONTINUOUS
 62
     7
100
AcDbLine
 10
431.720192380912
 20
133.861692951716
 30
0.0
 11
431.6702609041743
 21
133.8643097495281
 31
0.0
  0
ARC
  5
34F
330
1F
100
AcDbEntity
  8
0
  6
CONTINUOUS
 62
     7
100
AcDbCircle
 10
410.0
 20
135.0
 30
0.0
 40
21.69999999999999
100
AcDbArc
 50
236.6977238911177
 51
237.0
  0
ARC
  5
350
330
1F
100
AcDbEntity
  8
0
  6
CONTINUOUS
 62
     7
100
AcDbCircle
 10
410.0
 20
135.0
 30
0.0
 40
21.69999999999997
100
AcDbArc
 50
216.6977238911176
 51
223.3022761088822
  0
ARC
  5
351
330
1F
100
AcDbEntity
  8
0
  6
CONTINUOUS
 62
     7
100
AcDbCircle
 10
410.0
 20
135.0
 30
0.0
 40
21.69999999999996
100
AcDbArc
 50
196.6977238911176
 51
203.3022761088823
  0
ARC
  5
352
330
1F
100
AcDbEntity
  8
0
  6
CONTINUOUS
 62
     7
100
AcDbCircle
 10
410.0
 20
135.0
 30
0.0
 40
21.69999999999999
100
AcDbArc
 50
183.0000000000001
 51
183.3022761088823
  0
LINE
  5
353
330
1F
100
AcDbEntity
  8
0
  6
CONTINUOUS
 62
     7
100
AcDbLine
 10
398.1541009884232
 20
116.758915147187
 30
0.0
 11
398.1813329401739
 21
116.8008486755843
 31
0.0
  0
LINE
  5
354
330
1F
100
AcDbEntity
  8
0
  6
CONTINUOUS
 62
     7
100
AcDbLine
 10
388.3297390958258
 20
133.8643097495281
 30
0.0
 11
388.279807619088
 21
133.861692951716
 31
0.0
  0
LINE
  5
355
330
1F
100
AcDbEntity
  8
0
  6
CONTINUOUS
 62
     7
100
AcDbLine
 10
400.1484061556519
 20
115.6651584251124
 30
0.0
 11
400.1257066306649
 21
115.620608098903
 31
0.0
  0
ARC
  5
356
330
1F
100
AcDbEntity
  8
0
  6
CONTINUOUS
 62
     7
100
AcDbCircle
 10
410.0
 20
135.0
 30
0.0
 40
21.69999999999998
100
AcDbArc
 50
296.6977238911177
 51
297.0
  0
ARC
  5
357
330
1F
100
AcDbEntity
  8
0
  6
CONTINUOUS
 62
     7
100
AcDbCircle
 10
410.0
 20
135.0
 30
0.0
 40
21.69999999999998
100
AcDbArc
 50
276.6977238911177
 51
283.3022761088823
  0
ARC
  5
358
330
1F
100
AcDbEntity
  8
0
  6
CONTINUOUS
 62
     7
100
AcDbCircle
 10
410.0
 20
135.0
 30
0.0
 40
21.69999999999999
100
AcDbArc
 50
256.6977238911178
 51
263.3022761088823
  0
ARC
  5
359
330
1F
100
AcDbEntity
  8
0
  6
CONTINUOUS
 62
     7
100
AcDbCircle
 10
410.0
 20
135.0
 30
0.0
 40
21.69999999999999
100
AcDbArc
 50
243.0000000000001
 51
243.3022761088823
  0
LINE
  5
35A
330
1F
100
AcDbEntity
  8
0
  6
CONTINUOUS
 62
     7
100
AcDbLine
 10
419.8742933693352
 20
115.620608098903
 30
0.0
 11
419.8515938443481
 21
115.6651584251124
 31
0.0
  0
LINE
  5
35B
330
1F
100
AcDbEntity
  8
0
  6
CONTINUOUS
 62
     7
100
AcDbLine
 10
431.6702609041743
 20
136.1356902504719
 30
0.0
 11
431.720192380912
 21
136.138307048284
 31
0.0
  0
ARC
  5
35C
330
1F
100
AcDbEntity
  8
0
  6
CONTINUOUS
 62
     7
100
AcDbCircle
 10
410.0
 20
135.0
 30
0.0
 40
21.69999999999999
100
AcDbArc
 50
56.69772389111779
 51
57.0
  0
ARC
  5
35D
330
1F
100
AcDbEntity
  8
0
  6
CONTINUOUS
 62
     7
100
AcDbCircle
 10
410.0
 20
135.0
 30
0.0
 40
21.69999999999997
100
AcDbArc
 50
36.69772389111768
 51
43.30227610888227
  0
ARC
  5
35E
330
1F
100
AcDbEntity
  8
0
  6
CONTINUOUS
 62
     7
100
AcDbCircle
 10
410.0
 20
135.0
 30
0.0
 40
21.69999999999996
100
AcDbArc
 50
16.69772389111774
 51
23.30227610888227
  0
ARC
  5
35F
330
1F
100
AcDbEntity
  8
0
  6
CONTINUOUS
 62
     7
100
AcDbCircle
 10
410.0
 20
135.0
 30
0.0
 40
21.69999999999999
100
AcDbArc
 50
3.000000000000057
 51
3.302276108882324
  0
LINE
  5
360
330
1F
100
AcDbEntity
  8
0
  6
CONTINUOUS
 62
     7
100
AcDbLine
 10
421.8458990115769
 20
153.2410848528129
 30
0.0
 11
421.8186670598261
 21
153.1991513244157
 31
0.0
  0
ARC
  5
361
330
1F
100
AcDbEntity
  8
0
  6
CONTINUOUS
 62
     7
100
AcDbCircle
 10
410.0
 20
135.0
 30
0.0
 40
21.69999999999999
100
AcDbArc
 50
56.99999999999998
 51
63.00000000000013
  0
ARC
  5
362
330
1F
100
AcDbEntity
  8
0
  6
CONTINUOUS
 62
     7
100
AcDbCircle
 10
410.0
 20
135.0
 30
0.0
 40
21.69999999999998
100
AcDbArc
 50
356.9999999999999
 51
3.000000000000057
  0
ARC
  5
363
330
1F
100
AcDbEntity
  8
0
  6
CONTINUOUS
 62
     7
100
AcDbCircle
 10
410.0
 20
135.0
 30
0.0
 40
21.69999999999999
100
AcDbArc
 50
297.0
 51
303.0
  0
ARC
  5
364
330
1F
100
AcDbEntity
  8
0
  6
CONTINUOUS
 62
     7
100
AcDbCircle
 10
410.0
 20
135.0
 30
0.0
 40
21.7
100
AcDbArc
 50
237.0
 51
243.0000000000001
  0
ARC
  5
365
330
1F
100
AcDbEntity
  8
0
  6
CONTINUOUS
 62
     7
100
AcDbCircle
 10
410.0
 20
135.0
 30
0.0
 40
21.69999999999998
100
AcDbArc
 50
176.9999999999999
 51
183.0
  0
ARC
  5
366
330
1F
100
AcDbEntity
  8
0
  6
CONTINUOUS
 62
     7
100
AcDbCircle
 10
410.0
 20
135.0
 30
0.0
 40
21.69999999999998
100
AcDbArc
 50
117.0
 51
123.0000000000001
  0
CIRCLE
  5
367
330
1F
100
AcDbEntity
  8
0
  6
CONTINUOUS
 62
     7
100
AcDbCircle
 10
410.0
 20
135.0
 30
0.0
 40
28.5
  0
LINE
  5
368
330
1F
100
AcDbEntity
  8
0
  6
CONTINUOUS
 62
     7
100
AcDbLine
 10
411.0
 20
147.50249975005
 30
0.0
 11
411.0
 21
149.7160626527615
 31
0.0
  0
LINE
  5
369
330
1F
100
AcDbEntity
  8
0
  6
CONTINUOUS
 62
     7
100
AcDbLine
 10
422.50249975005
 20
134.0
 30
0.0
 11
424.7160626527615
 21
134.0
 31
0.0
  0
LINE
  5
36A
330
1F
100
AcDbEntity
  8
0
  6
CONTINUOUS
 62
     7
100
AcDbLine
 10
409.0
 20
122.49750024995
 30
0.0
 11
409.0
 21
120.2839373472385
 31
0.0
  0
LINE
  5
36B
330
1F
100
AcDbEntity
  8
0
  6
CONTINUOUS
 62
     7
100
AcDbLine
 10
397.4975002499501
 20
136.0
 30
0.0
 11
395.2839373472385
 21
136.0
 31
0.0
  0
LINE
  5
36C
330
1F
100
AcDbEntity
  8
0
  6
CONTINUOUS
 62
     7
100
AcDbLine
 10
424.7160626527615
 20
136.0
 30
0.0
 11
422.50249975005
 21
136.0
 31
0.0
  0
LINE
  5
36D
330
1F
100
AcDbEntity
  8
0
  6
CONTINUOUS
 62
     7
100
AcDbLine
 10
409.0
 20
149.7160626527615
 30
0.0
 11
409.0
 21
147.50249975005
 31
0.0
  0
LINE
  5
36E
330
1F
100
AcDbEntity
  8
0
  6
CONTINUOUS
 62
     7
100
AcDbLine
 10
395.2839373472385
 20
134.0
 30
0.0
 11
397.4975002499501
 21
134.0
 31
0.0
  0
LINE
  5
36F
330
1F
100
AcDbEntity
  8
0
  6
CONTINUOUS
 62
     7
100
AcDbLine
 10
411.0
 20
120.2839373472385
 30
0.0
 11
411.0
 21
122.49750024995
 31
0.0
  0
ARC
  5
370
330
1F
100
AcDbEntity
  8
0
  6
CONTINUOUS
 62
     7
100
AcDbCircle
 10
410.0
 20
135.0
 30
0.0
 40
14.74999999999998
100
AcDbArc
 50
260.9021413089865
 51
279.0978586910135
  0
ARC
  5
371
330
1F
100
AcDbEntity
  8
0
  6
CONTINUOUS
 62
     7
100
AcDbCircle
 10
410.0
 20
135.0
 30
0.0
 40
14.74999999999999
100
AcDbArc
 50
170.9021413089865
 51
189.0978586910136
  0
ARC
  5
372
330
1F
100
AcDbEntity
  8
0
  6
CONTINUOUS
 62
     7
100
AcDbCircle
 10
410.0
 20
135.0
 30
0.0
 40
14.74999999999999
100
AcDbArc
 50
350.9021413089864
 51
9.097858691013414
  0
ARC
  5
373
330
1F
100
AcDbEntity
  8
0
  6
CONTINUOUS
 62
     7
100
AcDbCircle
 10
410.0
 20
135.0
 30
0.0
 40
14.74999999999998
100
AcDbArc
 50
80.90214130898647
 51
99.09785869101354
  0
ARC
  5
374
330
1F
100
AcDbEntity
  8
0
  6
CONTINUOUS
 62
     7
100
AcDbCircle
 10
422.50249975005
 20
137.5
 30
0.0
 40
1.500000000000001
100
AcDbArc
 50
191.3077294341374
 51
270.0
  0
ARC
  5
375
330
1F
100
AcDbEntity
  8
0
  6
CONTINUOUS
 62
     7
100
AcDbCircle
 10
410.0
 20
135.0
 30
0.0
 40
11.25000000000001
100
AcDbArc
 50
11.3077294341373
 51
78.6922705658626
  0
ARC
  5
376
330
1F
100
AcDbEntity
  8
0
  6
CONTINUOUS
 62
     7
100
AcDbCircle
 10
407.5
 20
147.50249975005
 30
0.0
 40
1.500000000000001
100
AcDbArc
 50
281.3077294341373
 51
0.0
  0
ARC
  5
377
330
1F
100
AcDbEntity
  8
0
  6
CONTINUOUS
 62
     7
100
AcDbCircle
 10
410.0
 20
135.0
 30
0.0
 40
11.25000000000001
100
AcDbArc
 50
101.3077294341374
 51
168.6922705658627
  0
ARC
  5
378
330
1F
100
AcDbEntity
  8
0
  6
CONTINUOUS
 62
     7
100
AcDbCircle
 10
412.5
 20
147.50249975005
 30
0.0
 40
1.499999999999998
100
AcDbArc
 50
180.0
 51
258.6922705658626
  0
ARC
  5
379
330
1F
100
AcDbEntity
  8
0
  6
CONTINUOUS
 62
     7
100
AcDbCircle
 10
422.50249975005
 20
132.5
 30
0.0
 40
1.499999999999971
100
AcDbArc
 50
90.0
 51
168.6922705658626
  0
ARC
  5
37A
330
1F
100
AcDbEntity
  8
0
  6
CONTINUOUS
 62
     7
100
AcDbCircle
 10
410.0
 20
135.0
 30
0.0
 40
11.25000000000001
100
AcDbArc
 50
281.3077294341373
 51
348.6922705658627
  0
ARC
  5
37B
330
1F
100
AcDbEntity
  8
0
  6
CONTINUOUS
 62
     7
100
AcDbCircle
 10
397.4975002499501
 20
137.5
 30
0.0
 40
1.499999999999971
100
AcDbArc
 50
270.0
 51
348.6922705658626
  0
ARC
  5
37C
330
1F
100
AcDbEntity
  8
0
  6
CONTINUOUS
 62
     7
100
AcDbCircle
 10
410.0
 20
135.0
 30
0.0
 40
11.25000000000001
100
AcDbArc
 50
191.3077294341373
 51
258.6922705658626
  0
ARC
  5
37D
330
1F
100
AcDbEntity
  8
0
  6
CONTINUOUS
 62
     7
100
AcDbCircle
 10
397.4975002499501
 20
132.5
 30
0.0
 40
1.500000000000001
100
AcDbArc
 50
11.30772943413734
 51
90.0
  0
ARC
  5
37E
330
1F
100
AcDbEntity
  8
0
  6
CONTINUOUS
 62
     7
100
AcDbCircle
 10
407.5
 20
122.49750024995
 30
0.0
 40
1.499999999999998
100
AcDbArc
 50
0.0
 51
78.69227056586266
  0
ARC
  5
37F
330
1F
100
AcDbEntity
  8
0
  6
CONTINUOUS
 62
     7
100
AcDbCircle
 10
412.5
 20
122.49750024995
 30
0.0
 40
1.500000000000001
100
AcDbArc
 50
101.3077294341373
 51
180.0
  0
ENDSEC
  0
SECTION
  2
OBJECTS
  0
DICTIONARY
  5
C
330
0
100
AcDbDictionary
  3
ACAD_GROUP
350
D
  3
ACAD_LAYOUT
350
1A
  3
ACAD_MATERIAL
350
43
  3
ACAD_MLEADERSTYLE
350
6B
  3
ACAD_MLINESTYLE
350
17
  3
ACAD_PLOTSETTINGS
350
19
  3
ACAD_SCALELIST
350
47
  3
ACAD_VISUALSTYLE
350
2A
  3
ACDBHEADERROUNDTRIPXREC
350
380
  3
ACDBVARIABLEDICTIONARY
350
3A1
  0
DICTIONARY
  5
3A8
330
8
100
AcDbDictionary
280
     1
  3
ACAD_XREC_ROUNDTRIP
360
3A9
  0
DICTIONARY
  5
D
102
{ACAD_REACTORS
330
C
102
}
330
C
100
AcDbDictionary
  0
DICTIONARY
  5
1A
102
{ACAD_REACTORS
330
C
102
}
330
C
100
AcDbDictionary
  0
DICTIONARY
  5
43
102
{ACAD_REACTORS
330
C
102
}
330
C
100
AcDbDictionary
  3
BYBLOCK
350
45
  3
BYLAYER
350
44
  3
GLOBAL
350
46
  0
DICTIONARY
  5
6B
102
{ACAD_REACTORS
330
C
102
}
330
C
100
AcDbDictionary
  3
STANDARD
350
6C
  0
DICTIONARY
  5
17
102
{ACAD_REACTORS
330
C
102
}
330
C
100
AcDbDictionary
  3
STANDARD
350
18
  0
DICTIONARY
  5
19
102
{ACAD_REACTORS
330
C
102
}
330
C
100
AcDbDictionary
  0
DICTIONARY
  5
47
102
{ACAD_REACTORS
330
C
102
}
330
C
100
AcDbDictionary
  3
A0
350
48
  3
A1
350
49
  3
A2
350
4A
  3
A3
350
4B
  3
A4
350
4C
  3
A5
350
4D
  3
A6
350
4E
  3
A7
350
4F
  3
A8
350
50
  3
A9
350
51
  3
B0
350
52
  3
B1
350
53
  3
B2
350
54
  3
B3
350
55
  3
B4
350
56
  3
B5
350
57
  3
B6
350
58
  3
B7
350
59
  3
B8
350
5A
  3
B9
350
5B
  3
C0
350
5C
  3
C1
350
5D
  3
C2
350
5E
  3
C3
350
5F
  3
C4
350
60
  3
C5
350
61
  3
C6
350
62
  3
C7
350
63
  3
C8
350
64
  3
C9
350
65
  3
D0
350
66
  3
D1
350
67
  3
D2
350
68
  0
DICTIONARY
  5
2A
102
{ACAD_REACTORS
330
C
102
}
330
C
100
AcDbDictionary
  3
2DWIREFRAME
350
2F
  3
BASIC
350
32
  3
BRIGHTEN
350
36
  3
COLORCHANGE
350
3A
  3
CONCEPTUAL
350
34
  3
DIM
350
35
  3
EDGECOLOROFF
350
3D
  3
FACEPATTERN
350
39
  3
FLAT
350
2B
  3
FLATWITHEDGES
350
2C
  3
GOURAUD
350
2D
  3
GOURAUDWITHEDGES
350
2E
  3
HIDDEN
350
31
  3
JITTEROFF
350
3B
  3
LINEPATTERN
350
38
  3
OVERHANGOFF
350
3C
  3
REALISTIC
350
33
  3
SHADED
350
42
  3
SHADED_WITH_EDGES
350
41
  3
SHADES_OF_GRAY
350
3E
  3
SKETCHY
350
3F
  3
THICKEN
350
37
  3
WIREFRAME
350
30
  3
X-RAY
350
40
  0
DICTIONARY
  5
380
102
{ACAD_REACTORS
330
C
102
}
330
C
100
AcDbDictionary
  3
CEPSNID
350
38A
  3
CEPSNTYPE
350
389
  3
DIMSTYLEDATA
350
3A0
  3
FINGERPRINTGUID
350
38B
  3
HYPERLINKBASE
350
383
  3
INSUNITS
350
388
  3
LAYOUTDICT
350
385
  3
LWETCUNION
350
387
  3
PLOTSETDICT
350
386
  3
PSVPSCALE
350
38D
  3
PUCSBASE
350
390
  3
PUCSORGBACK
350
396
  3
PUCSORGBOTTOM
350
392
  3
PUCSORGFRONT
350
395
  3
PUCSORGLEFT
350
393
  3
PUCSORGRIGHT
350
394
  3
PUCSORGTOP
350
391
  3
PUCSORTHOREF
350
38E
  3
PUCSORTHOVIEW
350
38F
  3
STYLESHEET
350
384
  3
TSTACKALIGN
350
381
  3
TSTACKSIZE
350
382
  3
UCSBASE
350
399
  3
UCSORGBACK
350
39F
  3
UCSORGBOTTOM
350
39B
  3
UCSORGFRONT
350
39E
  3
UCSORGLEFT
350
39C
  3
UCSORGRIGHT
350
39D
  3
UCSORGTOP
350
39A
  3
UCSORTHOREF
350
397
  3
UCSORTHOVIEW
350
398
  3
VERSIONGUID
350
38C
  0
DICTIONARY
  5
3A1
102
{ACAD_REACTORS
330
C
102
}
330
C
100
AcDbDictionary
  3
CANNOSCALE
350
3AA
  3
CMLEADERSTYLE
350
3A3
  3
CTABLESTYLE
350
3A2
  3
DIMASSOC
350
3A6
  3
HIDETEXT
350
3A7
  3
MSLTSCALE
350
3AB
  0
XRECORD
  5
3A9
102
{ACAD_REACTORS
330
3A8
102
}
330
3A8
100
AcDbXrecord
102
VTR_0.000_0.000_1.000_1.000_VISUALSTYLE
340
2F
102
VTR_0.000_0.000_1.000_1.000_GRIDDISPLAY
 70
     3
102
VTR_0.000_0.000_1.000_1.000_GRIDMAJOR
 70
     5
102
VTR_0.000_0.000_1.000_1.000_DEFAULTLIGHTING
280
     1
102
VTR_0.000_0.000_1.000_1.000_DEFAULTLIGHTINGTYPE
 70
     1
102
VTR_0.000_0.000_1.000_1.000_BRIGHTNESS
141
0.0
102
VTR_0.000_0.000_1.000_1.000_CONTRAST
142
0.0
  0
MATERIAL
  5
45
102
{ACAD_REACTORS
330
43
102
}
102
{ACAD_XDICTIONARY
360
3AE
102
}
330
43
100
AcDbMaterial
  1
BYBLOCK
  0
MATERIAL
  5
44
102
{ACAD_REACTORS
330
43
102
}
102
{ACAD_XDICTIONARY
360
3AC
102
}
330
43
100
AcDbMaterial
  1
BYLAYER
  0
MATERIAL
  5
46
102
{ACAD_REACTORS
330
43
102
}
102
{ACAD_XDICTIONARY
360
3B0
102
}
330
43
100
AcDbMaterial
  1
GLOBAL
  0
ACAD_PROXY_OBJECT
  5
6C
102
{ACAD_REACTORS
330
6B
102
}
330
6B
100
AcDbProxyObject
 90
      499
 91
      505
 93
      610
310
40901902A4063FBFFFFFE056BD1B81E855B9FC0AD7A3703D0AD73F4214DD185B99185C9900AD7A3703D0AC73F90141901A02B5E8DC0F42B1CFC02B5E8DC0F42B1CFE5764000000000000300FC0
340
14
340
0
340
11
340
0
 94
        0
1001
ACAD_MLEADERVER
1070
     2
  0
MLINESTYLE
  5
18
102
{ACAD_REACTORS
330
17
102
}
330
17
100
AcDbMlineStyle
  2
Standard
 70
     0
  3

 62
   256
 51
90.0
 52
90.0
 71
     2
 49
0.5
 62
   256
  6
BYLAYER
 49
-0.5
 62
   256
  6
BYLAYER
  0
ACAD_PROXY_OBJECT
  5
48
102
{ACAD_REACTORS
330
47
102
}
330
47
100
AcDbProxyObject
 90
      499
 91
      503
 93
       41
310
903313A31580
  0
ACAD_PROXY_OBJECT
  5
49
102
{ACAD_REACTORS
330
47
102
}
330
47
100
AcDbProxyObject
 90
      499
 91
      503
 93
      105
310
903313A324000000000000004000
  0
ACAD_PROXY_OBJECT
  5
4A
102
{ACAD_REACTORS
330
47
102
}
330
47
100
AcDbProxyObject
 90
      499
 91
      503
 93
      105
310
903313A344000000000000104000
  0
ACAD_PROXY_OBJECT
  5
4B
102
{ACAD_REACTORS
330
47
102
}
330
47
100
AcDbProxyObject
 90
      499
 91
      503
 93
      105
310
903313A354000000000000144000
  0
ACAD_PROXY_OBJECT
  5
4C
102
{ACAD_REACTORS
330
47
102
}
330
47
100
AcDbProxyObject
 90
      499
 91
      503
 93
      105
310
903313A384000000000000204000
  0
ACAD_PROXY_OBJECT
  5
4D
102
{ACAD_REACTORS
330
47
102
}
330
47
100
AcDbProxyObject
 90
      499
 91
      503
 93
      113
310
904313A31304000000000000244000
  0
ACAD_PROXY_OBJECT
  5
4E
102
{ACAD_REACTORS
330
47
102
}
330
47
100
AcDbProxyObject
 90
      499
 91
      503
 93
      113
310
904313A31364000000000000304000
  0
ACAD_PROXY_OBJECT
  5
4F
102
{ACAD_REACTORS
330
47
102
}
330
47
100
AcDbProxyObject
 90
      499
 91
      503
 93
      113
310
904313A32304000000000000344000
  0
ACAD_PROXY_OBJECT
  5
50
102
{ACAD_REACTORS
330
47
102
}
330
47
100
AcDbProxyObject
 90
      499
 91
      503
 93
      113
310
904313A333040000000000003E4000
  0
ACAD_PROXY_OBJECT
  5
51
102
{ACAD_REACTORS
330
47
102
}
330
47
100
AcDbProxyObject
 90
      499
 91
      503
 93
      113
310
904313A34304000000000000444000
  0
ACAD_PROXY_OBJECT
  5
52
102
{ACAD_REACTORS
330
47
102
}
330
47
100
AcDbProxyObject
 90
      499
 91
      503
 93
      113
310
904313A35304000000000000494000
  0
ACAD_PROXY_OBJECT
  5
53
102
{ACAD_REACTORS
330
47
102
}
330
47
100
AcDbProxyObject
 90
      499
 91
      503
 93
      121
310
905313A3130304000000000000594000
  0
ACAD_PROXY_OBJECT
  5
54
102
{ACAD_REACTORS
330
47
102
}
330
47
100
AcDbProxyObject
 90
      499
 91
      503
 93
      105
310
903323A310000000000000010100
  0
ACAD_PROXY_OBJECT
  5
55
102
{ACAD_REACTORS
330
47
102
}
330
47
100
AcDbProxyObject
 90
      499
 91
      503
 93
      105
310
903343A310000000000000410100
  0
ACAD_PROXY_OBJECT
  5
56
102
{ACAD_REACTORS
330
47
102
}
330
47
100
AcDbProxyObject
 90
      499
 91
      503
 93
      105
310
903383A310000000000000810100
  0
ACAD_PROXY_OBJECT
  5
57
102
{ACAD_REACTORS
330
47
102
}
330
47
100
AcDbProxyObject
 90
      499
 91
      503
 93
      113
310
90431303A310000000000000910100
  0
ACAD_PROXY_OBJECT
  5
58
102
{ACAD_REACTORS
330
47
102
}
330
47
100
AcDbProxyObject
 90
      499
 91
      503
 93
      121
310
9053130303A310000000000001650100
  0
ACAD_PROXY_OBJECT
  5
59
102
{ACAD_REACTORS
330
47
102
}
330
47
100
AcDbProxyObject
 90
      499
 91
      503
 93
      257
310
90E312F31323822203D2031272D3022000000000000200FC000000000000284000
  0
ACAD_PROXY_OBJECT
  5
5A
102
{ACAD_REACTORS
330
47
102
}
330
47
100
AcDbProxyObject
 90
      499
 91
      503
 93
      249
310
90D312F363422203D2031272D3022000000000000240FC000000000000284000
  0
ACAD_PROXY_OBJECT
  5
5B
102
{ACAD_REACTORS
330
47
102
}
330
47
100
AcDbProxyObject
 90
      499
 91
      503
 93
      249
310
90D312F333222203D2031272D3022000000000000280FC000000000000284000
  0
ACAD_PROXY_OBJECT
  5
5C
102
{ACAD_REACTORS
330
47
102
}
330
47
100
AcDbProxyObject
 90
      499
 91
      503
 93
      249
310
90D312F313622203D2031272D30220000000000002C0FC000000000000284000
  0
ACAD_PROXY_OBJECT
  5
5D
102
{ACAD_REACTORS
330
47
102
}
330
47
100
AcDbProxyObject
 90
      499
 91
      503
 93
      249
310
90D332F333222203D2031272D30220000000000002E0FC000000000000284000
  0
ACAD_PROXY_OBJECT
  5
5E
102
{ACAD_REACTORS
330
47
102
}
330
47
100
AcDbProxyObject
 90
      499
 91
      503
 93
      241
310
90C312F3822203D2031272D3022000000000000300FC000000000000284000
  0
ACAD_PROXY_OBJECT
  5
5F
102
{ACAD_REACTORS
330
47
102
}
330
47
100
AcDbProxyObject
 90
      499
 91
      503
 93
      249
310
90D332F313622203D2031272D3022000000000000320FC000000000000284000
  0
ACAD_PROXY_OBJECT
  5
60
102
{ACAD_REACTORS
330
47
102
}
330
47
100
AcDbProxyObject
 90
      499
 91
      503
 93
      241
310
90C312F3422203D2031272D3022000000000000340FC000000000000284000
  0
ACAD_PROXY_OBJECT
  5
61
102
{ACAD_REACTORS
330
47
102
}
330
47
100
AcDbProxyObject
 90
      499
 91
      503
 93
      241
310
90C332F3822203D2031272D3022000000000000360FC000000000000284000
  0
ACAD_PROXY_OBJECT
  5
62
102
{ACAD_REACTORS
330
47
102
}
330
47
100
AcDbProxyObject
 90
      499
 91
      503
 93
      241
310
90C312F3222203D2031272D3022000000000000380FC000000000000284000
  0
ACAD_PROXY_OBJECT
  5
63
102
{ACAD_REACTORS
330
47
102
}
330
47
100
AcDbProxyObject
 90
      499
 91
      503
 93
      241
310
90C332F3422203D2031272D30220000000000003A0FC000000000000284000
  0
ACAD_PROXY_OBJECT
  5
64
102
{ACAD_REACTORS
330
47
102
}
330
47
100
AcDbProxyObject
 90
      499
 91
      503
 93
      161
310
90A3122203D2031272D30224000000000000284000
  0
ACAD_PROXY_OBJECT
  5
65
102
{ACAD_REACTORS
330
47
102
}
330
47
100
AcDbProxyObject
 90
      499
 91
      503
 93
      257
310
90E312D312F3222203D2031272D30220000000000003E0FC000000000000284000
  0
ACAD_PROXY_OBJECT
  5
66
102
{ACAD_REACTORS
330
47
102
}
330
47
100
AcDbProxyObject
 90
      499
 91
      503
 93
      225
310
90A3322203D2031272D302200000000000002100000000000000284000
  0
ACAD_PROXY_OBJECT
  5
67
102
{ACAD_REACTORS
330
47
102
}
330
47
100
AcDbProxyObject
 90
      499
 91
      503
 93
      225
310
90A3622203D2031272D302200000000000006100000000000000284000
  0
ACAD_PROXY_OBJECT
  5
68
102
{ACAD_REACTORS
330
47
102
}
330
47
100
AcDbProxyObject
 90
      499
 91
      503
 93
      249
310
90D31272D3022203D2031272D30220000000000000A100000000000000284000
  0
ACAD_PROXY_OBJECT
  5
2F
102
{ACAD_REACTORS
330
2A
102
}
330
2A
100
AcDbProxyObject
 90
      499
 91
      501
 93
      436
310
42CC9915DA5C99599C985B595049028333333333333E33F0000000000000F90107901411070040501600405405064090741402480A0340
1001
ACAD
1000
AcDbSavedByObjectVersion
1070
     0
  0
ACAD_PROXY_OBJECT
  5
32
102
{ACAD_REACTORS
330
2A
102
}
330
2A
100
AcDbProxyObject
 90
      499
 91
      501
 93
      388
310
4150985CDA58D07406404333333333333E33F0000000000000F90107A41107004050150841D405064090741402480A0350
1001
ACAD
1000
AcDbSavedByObjectVersion
1070
     0
  0
ACAD_PROXY_OBJECT
  5
36
102
{ACAD_REACTORS
330
2A
102
}
330
2A
100
AcDbProxyObject
 90
      499
 91
      501
 93
      428
310
42109C9A59DA1D195B90C409028333333333333E33F0000000000000F9010790141107004050150841D405064090741402480A029950
1001
ACAD
1000
AcDbSavedByObjectVersion
1070
     0
  0
ACAD_PROXY_OBJECT
  5
3A
102
{ACAD_REACTORS
330
2A
102
}
330
2A
100
AcDbProxyObject
 90
      499
 91
      501
 93
      452
310
42D0DBDB1BDC90DA185B99D95104090240C333333333333E33F0000000000000F90108901411070040501508421405064090741402480A0350
1001
ACAD
1000
AcDbSavedByObjectVersion
1070
     0
  0
ACAD_PROXY_OBJECT
  5
34
102
{ACAD_REACTORS
330
2A
102
}
330
2A
100
AcDbProxyObject
 90
      499
 91
      501
 93
      500
310
4290DBDB98D95C1D1D585B10940D028333333333333E33F0000000000000F90107902409070040501000000000018199010841D405064090740C02480A0340
1001
ACAD
1000
AcDbSavedByObjectVersion
1070
     0
  0
ACAD_PROXY_OBJECT
  5
35
102
{ACAD_REACTORS
330
2A
102
}
330
2A
100
AcDbProxyObject
 90
      499
 91
      501
 93
      412
310
40D11A5B50B409028333333333333E33F0000000000000F9010790141107004050150841D405064090741402480A02677FFFFFD0
1001
ACAD
1000
AcDbSavedByObjectVersion
1070
     0
  0
ACAD_PROXY_OBJECT
  5
3D
102
{ACAD_REACTORS
330
2A
102
}
330
2A
100
AcDbProxyObject
 90
      499
 91
      501
 93
      452
310
43115919D950DBDB1BDC93D999916409028333333333333E33F0000000000000F9010790141107004050150841D405064090741402480A0350
1001
ACAD
1000
AcDbSavedByObjectVersion
1070
     0
  0
ACAD_PROXY_OBJECT
  5
39
102
{ACAD_REACTORS
330
2A
102
}
330
2A
100
AcDbProxyObject
 90
      499
 91
      501
 93
      444
310
42D19858D95C185D1D195C9B90F409028333333333333E33F0000000000000F9010790141107004050150841D405064090741402480A0350
1001
ACAD
1000
AcDbSavedByObjectVersion
1070
     0
  0
ACAD_PROXY_OBJECT
  5
2B
102
{ACAD_REACTORS
330
2A
102
}
330
2A
100
AcDbProxyObject
 90
      499
 91
      501
 93
      380
310
41119B185D240901404333333333333E33F0000000000000F9010740A907004050150841D405064090741402480A1B50
1001
ACAD
1000
AcDbSavedByObjectVersion
1070
     0
  0
ACAD_PROXY_OBJECT
  5
2C
102
{ACAD_REACTORS
330
2A
102
}
330
2A
100
AcDbProxyObject
 90
      499
 91
      501
 93
      468
310
43519B185D15DA5D1A115919D95CD0140901404333333333333E33F0000000000000F90107409019070040501600405405064090741402480A1B50
1001
ACAD
1000
AcDbSavedByObjectVersion
1070
     0
  0
ACAD_PROXY_OBJECT
  5
2D
102
{ACAD_REACTORS
330
2A
102
}
330
2A
100
AcDbProxyObject
 90
      499
 91
      501
 93
      404
310
41D1DBDD5C985D5910240902404333333333333E33F0000000000000F9010740A9070040501641D405064090741402480A1B50
1001
ACAD
1000
AcDbSavedByObjectVersion
1070
     0
  0
ACAD_PROXY_OBJECT
  5
2E
102
{ACAD_REACTORS
330
2A
102
}
330
2A
100
AcDbProxyObject
 90
      499
 91
      501
 93
      492
310
4411DBDD5C985D5915DA5D1A115919D95CD0340902404333333333333E33F0000000000000F90107409019070040501600405405064090741402480A1B50
1001
ACAD
1000
AcDbSavedByObjectVersion
1070
     0
  0
ACAD_PROXY_OBJECT
  5
31
102
{ACAD_REACTORS
330
2A
102
}
330
2A
100
AcDbProxyObject
 90
      499
 91
      501
 93
      476
310
41921A5919195B90640502408333333333333E33F0000000000000F901079024090700405020000000000001110200405405064090740C02480A0340
1001
ACAD
1000
AcDbSavedByObjectVersion
1070
     0
  0
ACAD_PROXY_OBJECT
  5
3B
102
{ACAD_REACTORS
330
2A
102
}
330
2A
100
AcDbProxyObject
 90
      499
 91
      501
 93
      428
310
42529A5D1D195C93D999914409028333333333333E33F0000000000000F9010790141107004050150A41D405064090741402480A0350
1001
ACAD
1000
AcDbSavedByObjectVersion
1070
     0
  0
ACAD_PROXY_OBJECT
  5
38
102
{ACAD_REACTORS
330
2A
102
}
330
2A
100
AcDbProxyObject
 90
      499
 91
      501
 93
      444
310
42D31A5B995C185D1D195C9B90E409028333333333333E33F0000000000000F9010790141107004050750841D405064090741402483A0350
1001
ACAD
1000
AcDbSavedByObjectVersion
1070
     0
  0
ACAD_PROXY_OBJECT
  5
3C
102
{ACAD_REACTORS
330
2A
102
}
330
2A
100
AcDbProxyObject
 90
      499
 91
      501
 93
      444
310
42D3DD995C9A185B99D3D999915409028333333333333E33F0000000000000F9010790141107004050150941D405064090741402480A0350
1001
ACAD
1000
AcDbSavedByObjectVersion
1070
     0
  0
ACAD_PROXY_OBJECT
  5
33
102
{ACAD_REACTORS
330
2A
102
}
330
2A
100
AcDbProxyObject
 90
      499
 91
      501
 93
      428
310
425499585B1A5CDD1A58D08409038333333333333E33F0000000000000F9010740A907004050150800405405064090740C02480A1B40
1001
ACAD
1000
AcDbSavedByObjectVersion
1070
     0
  0
ACAD_PROXY_OBJECT
  5
42
102
{ACAD_REACTORS
330
2A
102
}
330
2A
100
AcDbProxyObject
 90
      499
 91
      501
 93
      420
310
4194DA1859195911B40902404333333333333E33F0000000000000F9010740A41107004050150800405405064090840C02480A0B40
1001
ACAD
1000
AcDbSavedByObjectVersion
1070
     0
  0
ACAD_PROXY_OBJECT
  5
41
102
{ACAD_REACTORS
330
2A
102
}
330
2A
100
AcDbProxyObject
 90
      499
 91
      501
 93
      516
310
4454DA18591959081DDA5D1A08195919D95CD1A40902404333333333333E33F0000000000000F901074090142907004050250800405405064090740C02480A0B40
1001
ACAD
1000
AcDbSavedByObjectVersion
1070
     0
  0
ACAD_PROXY_OBJECT
  5
3E
102
{ACAD_REACTORS
330
2A
102
}
330
2A
100
AcDbProxyObject
 90
      499
 91
      501
 93
      532
310
4394DA1859195CC81BD98811DC985E5174090240C333333333333E33F0000000000000F901079024090741D01000000000000111010841D405064090740C02480A0340
1001
ACAD
1000
AcDbSavedByObjectVersion
1070
     0
  0
ACAD_PROXY_OBJECT
  5
3F
102
{ACAD_REACTORS
330
2A
102
}
330
2A
100
AcDbProxyObject
 90
      499
 91
      501
 93
      476
310
41D4DAD95D18DA1E51840502408333333333333E33F0000000000000F901079024090741D01000000000000111010B41D405064090741802480A0340
1001
ACAD
1000
AcDbSavedByObjectVersion
1070
     0
  0
ACAD_PROXY_OBJECT
  5
37
102
{ACAD_REACTORS
330
2A
102
}
330
2A
100
AcDbProxyObject
 90
      499
 91
      501
 93
      412
310
41D51A1A58DAD95B90D409028333333333333E33F0000000000000F9010790141107004050150C41D405064090741402480A0350
1001
ACAD
1000
AcDbSavedByObjectVersion
1070
     0
  0
ACAD_PROXY_OBJECT
  5
30
102
{ACAD_REACTORS
330
2A
102
}
330
2A
100
AcDbProxyObject
 90
      499
 91
      501
 93
      420
310
4255DA5C99599C985B595059028333333333333E33F0000000000000F90107901411070040501600405405064090740C02480A0340
1001
ACAD
1000
AcDbSavedByObjectVersion
1070
     0
  0
ACAD_PROXY_OBJECT
  5
40
102
{ACAD_REACTORS
330
2A
102
}
330
2A
100
AcDbProxyObject
 90
      499
 91
      501
 93
      404
310
41560B54985E51940902404000000000000E03F0000000000000F9010740501907004050150841D405064090740C02480A1B40
1001
ACAD
1000
AcDbSavedByObjectVersion
1070
     0
  0
XRECORD
  5
38A
102
{ACAD_REACTORS
330
380
102
}
330
380
100
AcDbXrecord
340
0
  0
XRECORD
  5
389
102
{ACAD_REACTORS
330
380
102
}
330
380
100
AcDbXrecord
 90
        0
  0
XRECORD
  5
3A0
102
{ACAD_REACTORS
330
380
102
}
330
380
100
AcDbXrecord
1000
DSTYLE
1002
{
1070
   179
 70
     2
1070
   171
 70
     2
1070
   143
 40
25.4
1070
   274
 70
     2
1070
    41
 40
3.0
1070
   141
 40
0.09
1070
    43
 40
0.38
1070
   278
 70
    46
1070
    44
 40
1.5
1070
    42
 40
0.0625
1070
   147
 40
1.5
1070
   272
 70
     4
1070
    73
 70
     1
1070
   172
 70
     0
1070
    74
 70
     1
1070
   283
 70
     1
1070
   340
340
6E
1070
   140
 40
3.0
1070
   284
 70
     0
1070
    78
 70
     0
1002
}
  0
XRECORD
  5
38B
102
{ACAD_REACTORS
330
380
102
}
330
380
100
AcDbXrecord
  1
{CC95A519-7833-4C7E-9602-2794E364B43F}
  0
XRECORD
  5
383
102
{ACAD_REACTORS
330
380
102
}
330
380
100
AcDbXrecord
  1

  0
XRECORD
  5
388
102
{ACAD_REACTORS
330
380
102
}
330
380
100
AcDbXrecord
 90
        4
  0
XRECORD
  5
385
102
{ACAD_REACTORS
330
380
102
}
330
380
100
AcDbXrecord
340
1A
  0
XRECORD
  5
387
102
{ACAD_REACTORS
330
380
102
}
330
380
100
AcDbXrecord
 90
    10269
  0
XRECORD
  5
386
102
{ACAD_REACTORS
330
380
102
}
330
380
100
AcDbXrecord
340
19
  0
XRECORD
  5
38D
102
{ACAD_REACTORS
330
380
102
}
330
380
100
AcDbXrecord
 40
0.0
  0
XRECORD
  5
390
102
{ACAD_REACTORS
330
380
102
}
330
380
100
AcDbXrecord
340
0
  0
XRECORD
  5
396
102
{ACAD_REACTORS
330
380
102
}
330
380
100
AcDbXrecord
 10
0.0
 20
0.0
 30
0.0
  0
XRECORD
  5
392
102
{ACAD_REACTORS
330
380
102
}
330
380
100
AcDbXrecord
 10
0.0
 20
0.0
 30
0.0
  0
XRECORD
  5
395
102
{ACAD_REACTORS
330
380
102
}
330
380
100
AcDbXrecord
 10
0.0
 20
0.0
 30
0.0
  0
XRECORD
  5
393
102
{ACAD_REACTORS
330
380
102
}
330
380
100
AcDbXrecord
 10
0.0
 20
0.0
 30
0.0
  0
XRECORD
  5
394
102
{ACAD_REACTORS
330
380
102
}
330
380
100
AcDbXrecord
 10
0.0
 20
0.0
 30
0.0
  0
XRECORD
  5
391
102
{ACAD_REACTORS
330
380
102
}
330
380
100
AcDbXrecord
 10
0.0
 20
0.0
 30
0.0
  0
XRECORD
  5
38E
102
{ACAD_REACTORS
330
380
102
}
330
380
100
AcDbXrecord
340
0
  0
XRECORD
  5
38F
102
{ACAD_REACTORS
330
380
102
}
330
380
100
AcDbXrecord
 70
     0
  0
XRECORD
  5
384
102
{ACAD_REACTORS
330
380
102
}
330
380
100
AcDbXrecord
  1

  0
XRECORD
  5
381
102
{ACAD_REACTORS
330
380
102
}
330
380
100
AcDbXrecord
 90
        1
  0
XRECORD
  5
382
102
{ACAD_REACTORS
330
380
102
}
330
380
100
AcDbXrecord
 90
       70
  0
XRECORD
  5
399
102
{ACAD_REACTORS
330
380
102
}
330
380
100
AcDbXrecord
340
0
  0
XRECORD
  5
39F
102
{ACAD_REACTORS
330
380
102
}
330
380
100
AcDbXrecord
 10
0.0
 20
0.0
 30
0.0
  0
XRECORD
  5
39B
102
{ACAD_REACTORS
330
380
102
}
330
380
100
AcDbXrecord
 10
0.0
 20
0.0
 30
0.0
  0
XRECORD
  5
39E
102
{ACAD_REACTORS
330
380
102
}
330
380
100
AcDbXrecord
 10
0.0
 20
0.0
 30
0.0
  0
XRECORD
  5
39C
102
{ACAD_REACTORS
330
380
102
}
330
380
100
AcDbXrecord
 10
0.0
 20
0.0
 30
0.0
  0
XRECORD
  5
39D
102
{ACAD_REACTORS
330
380
102
}
330
380
100
AcDbXrecord
 10
0.0
 20
0.0
 30
0.0
  0
XRECORD
  5
39A
102
{ACAD_REACTORS
330
380
102
}
330
380
100
AcDbXrecord
 10
0.0
 20
0.0
 30
0.0
  0
XRECORD
  5
397
102
{ACAD_REACTORS
330
380
102
}
330
380
100
AcDbXrecord
340
0
  0
XRECORD
  5
398
102
{ACAD_REACTORS
330
380
102
}
330
380
100
AcDbXrecord
 70
     0
  0
XRECORD
  5
38C
102
{ACAD_REACTORS
330
380
102
}
330
380
100
AcDbXrecord
  1
{FAEB1C32-E019-11D5-929B-00C0DF256EC4}
  0
DICTIONARYVAR
  5
3AA
102
{ACAD_REACTORS
330
3A1
102
}
330
3A1
100
DictionaryVariables
280
     0
  1
1:1
  0
DICTIONARYVAR
  5
3A3
102
{ACAD_REACTORS
330
3A1
102
}
330
3A1
100
DictionaryVariables
280
     0
  1
Standard
  0
DICTIONARYVAR
  5
3A2
102
{ACAD_REACTORS
330
3A1
102
}
330
3A1
100
DictionaryVariables
280
     0
  1
Standard
  0
DICTIONARYVAR
  5
3A6
102
{ACAD_REACTORS
330
3A1
102
}
330
3A1
100
DictionaryVariables
280
     0
  1
2
  0
DICTIONARYVAR
  5
3A7
102
{ACAD_REACTORS
330
3A1
102
}
330
3A1
100
DictionaryVariables
280
     0
  1
1
  0
DICTIONARYVAR
  5
3AB
102
{ACAD_REACTORS
330
3A1
102
}
330
3A1
100
DictionaryVariables
280
     0
  1
1
  0
DICTIONARY
  5
3AE
330
45
100
AcDbDictionary
280
     1
  3
ACAD_XREC_ROUNDTRIP
360
3AF
  0
DICTIONARY
  5
3AC
330
44
100
AcDbDictionary
280
     1
  3
ACAD_XREC_ROUNDTRIP
360
3AD
  0
DICTIONARY
  5
3B0
330
46
100
AcDbDictionary
280
     1
  3
ACAD_XREC_ROUNDTRIP
360
3B1
  0
XRECORD
  5
3AF
102
{ACAD_REACTORS
330
3AE
102
}
330
3AE
100
AcDbXrecord
102
MATERIAL
148
0.0
149
0.0
149
0.0
 93
        0
 94
      127
282
     0
 72
     1
 77
     1
171
     1
175
     1
179
     1
273
     0
  0
XRECORD
  5
3AD
102
{ACAD_REACTORS
330
3AC
102
}
330
3AC
100
AcDbXrecord
102
MATERIAL
148
0.0
149
0.0
149
0.0
 93
        0
 94
      127
282
     0
 72
     1
 77
     1
171
     1
175
     1
179
     1
273
     0
  0
XRECORD
  5
3B1
102
{ACAD_REACTORS
330
3B0
102
}
330
3B0
100
AcDbXrecord
102
MATERIAL
148
0.0
149
0.0
149
0.0
 93
        0
 94
      127
282
     0
 72
     1
 77
     1
171
     1
175
     1
179
     1
273
     0
  0
ENDSEC
  0
EOF
