  0
SECTION
  2
HEADER
  9
$ACADVER
  1
AC1021
  9
$ACADMAINTVER
 70
    25
  9
$DWGCODEPAGE
  3
ANSI_932
  9
$INSBASE
 10
0.0
 20
0.0
 30
0.0
  9
$EXTMIN
 10
-103.1597532766
 20
0.0
 30
0.0
  9
$EXTMAX
 10
155.8402467234
 20
251.5
 30
10.0
  9
$LIMMIN
 10
0.0
 20
0.0
  9
$LIMMAX
 10
12.0
 20
9.0
  9
$ORTHOMODE
 70
     0
  9
$REGENMODE
 70
     1
  9
$FILLMODE
 70
     1
  9
$QTEXTMODE
 70
     0
  9
$MIRRTEXT
 70
     1
  9
$LTSCALE
 40
1.0
  9
$ATTMODE
 70
     1
  9
$TEXTSIZE
 40
0.2
  9
$TRACEWID
 40
0.05
  9
$TEXTSTYLE
  7
Standard
  9
$CLAYER
  8
0
  9
$CELTYPE
  6
ByLayer
  9
$CECOLOR
 62
   256
  9
$CELTSCALE
 40
1.0
  9
$DISPSILH
 70
     0
  9
$DIMSCALE
 40
1.0
  9
$DIMASZ
 40
0.9
  9
$DIMEXO
 40
0.0625
  9
$DIMDLI
 40
0.38
  9
$DIMRND
 40
0.0
  9
$DIMDLE
 40
0.0
  9
$DIMEXE
 40
0.18
  9
$DIMTP
 40
0.0
  9
$DIMTM
 40
0.0
  9
$DIMTXT
 40
3.0
  9
$DIMCEN
 40
0.09
  9
$DIMTSZ
 40
0.0
  9
$DIMTOL
 70
     0
  9
$DIMLIM
 70
     0
  9
$DIMTIH
 70
     1
  9
$DIMTOH
 70
     1
  9
$DIMSE1
 70
     0
  9
$DIMSE2
 70
     0
  9
$DIMTAD
 70
     1
  9
$DIMZIN
 70
     0
  9
$DIMBLK
  1

  9
$DIMASO
 70
     1
  9
$DIMSHO
 70
     1
  9
$DIMPOST
  1

  9
$DIMAPOST
  1

  9
$DIMALT
 70
     0
  9
$DIMALTD
 70
     2
  9
$DIMALTF
 40
25.4
  9
$DIMLFAC
 40
1.0
  9
$DIMTOFL
 70
     0
  9
$DIMTVP
 40
0.0
  9
$DIMTIX
 70
     0
  9
$DIMSOXD
 70
     0
  9
$DIMSAH
 70
     0
  9
$DIMBLK1
  1

  9
$DIMBLK2
  1

  9
$DIMSTYLE
  2
Standard
  9
$DIMCLRD
 70
     0
  9
$DIMCLRE
 70
     0
  9
$DIMCLRT
 70
     0
  9
$DIMTFAC
 40
1.0
  9
$DIMGAP
 40
0.09
  9
$DIMJUST
 70
     0
  9
$DIMSD1
 70
     0
  9
$DIMSD2
 70
     0
  9
$DIMTOLJ
 70
     1
  9
$DIMTZIN
 70
     0
  9
$DIMALTZ
 70
     0
  9
$DIMALTTZ
 70
     0
  9
$DIMUPT
 70
     0
  9
$DIMDEC
 70
     2
  9
$DIMTDEC
 70
     4
  9
$DIMALTU
 70
     2
  9
$DIMALTTD
 70
     2
  9
$DIMTXSTY
  7
Standard
  9
$DIMAUNIT
 70
     0
  9
$DIMADEC
 70
     2
  9
$DIMALTRND
 40
0.0
  9
$DIMAZIN
 70
     0
  9
$DIMDSEP
 70
    46
  9
$DIMATFIT
 70
     3
  9
$DIMFRAC
 70
     0
  9
$DIMLDRBLK
  1

  9
$DIMLUNIT
 70
     2
  9
$DIMLWD
 70
    -2
  9
$DIMLWE
 70
    -2
  9
$DIMTMOVE
 70
     0
  9
$DIMFXL
 40
1.0
  9
$DIMFXLON
 70
     0
  9
$DIMJOGANG
 40
0.7853981633974483
  9
$DIMTFILL
 70
     0
  9
$DIMTFILLCLR
 70
     0
  9
$DIMARCSYM
 70
     0
  9
$DIMLTYPE
  6

  9
$DIMLTEX1
  6

  9
$DIMLTEX2
  6

  9
$LUNITS
 70
     2
  9
$LUPREC
 70
     4
  9
$SKETCHINC
 40
0.1
  9
$FILLETRAD
 40
0.5
  9
$AUNITS
 70
     0
  9
$AUPREC
 70
     0
  9
$MENU
  1
.
  9
$ELEVATION
 40
0.0
  9
$PELEVATION
 40
0.0
  9
$THICKNESS
 40
0.0
  9
$LIMCHECK
 70
     0
  9
$CHAMFERA
 40
0.5
  9
$CHAMFERB
 40
0.5
  9
$CHAMFERC
 40
1.0
  9
$CHAMFERD
 40
0.0
  9
$SKPOLY
 70
     0
  9
$TDCREATE
 40
2459070.610278599
  9
$TDUCREATE
 40
2459070.235278599
  9
$TDUPDATE
 40
2459070.610278611
  9
$TDUUPDATE
 40
2459070.235278611
  9
$TDINDWG
 40
0.0000000116
  9
$TDUSRTIMER
 40
0.0000000116
  9
$USRTIMER
 70
     1
  9
$ANGBASE
 50
0.0
  9
$ANGDIR
 70
     0
  9
$PDMODE
 70
     0
  9
$PDSIZE
 40
0.0
  9
$PLINEWID
 40
0.0
  9
$SPLFRAME
 70
     0
  9
$SPLINETYPE
 70
     6
  9
$SPLINESEGS
 70
     8
  9
$HANDSEED
  5
1B4
  9
$SURFTAB1
 70
     6
  9
$SURFTAB2
 70
     6
  9
$SURFTYPE
 70
     6
  9
$SURFU
 70
     6
  9
$SURFV
 70
     6
  9
$UCSBASE
  2

  9
$UCSNAME
  2

  9
$UCSORG
 10
0.0
 20
0.0
 30
0.0
  9
$UCSXDIR
 10
1.0
 20
0.0
 30
0.0
  9
$UCSYDIR
 10
0.0
 20
1.0
 30
0.0
  9
$UCSORTHOREF
  2

  9
$UCSORTHOVIEW
 70
     0
  9
$UCSORGTOP
 10
0.0
 20
0.0
 30
0.0
  9
$UCSORGBOTTOM
 10
0.0
 20
0.0
 30
0.0
  9
$UCSORGLEFT
 10
0.0
 20
0.0
 30
0.0
  9
$UCSORGRIGHT
 10
0.0
 20
0.0
 30
0.0
  9
$UCSORGFRONT
 10
0.0
 20
0.0
 30
0.0
  9
$UCSORGBACK
 10
0.0
 20
0.0
 30
0.0
  9
$PUCSBASE
  2

  9
$PUCSNAME
  2

  9
$PUCSORG
 10
0.0
 20
0.0
 30
0.0
  9
$PUCSXDIR
 10
1.0
 20
0.0
 30
0.0
  9
$PUCSYDIR
 10
0.0
 20
1.0
 30
0.0
  9
$PUCSORTHOREF
  2

  9
$PUCSORTHOVIEW
 70
     0
  9
$PUCSORGTOP
 10
0.0
 20
0.0
 30
0.0
  9
$PUCSORGBOTTOM
 10
0.0
 20
0.0
 30
0.0
  9
$PUCSORGLEFT
 10
0.0
 20
0.0
 30
0.0
  9
$PUCSORGRIGHT
 10
0.0
 20
0.0
 30
0.0
  9
$PUCSORGFRONT
 10
0.0
 20
0.0
 30
0.0
  9
$PUCSORGBACK
 10
0.0
 20
0.0
 30
0.0
  9
$USERI1
 70
     0
  9
$USERI2
 70
     0
  9
$USERI3
 70
     0
  9
$USERI4
 70
     0
  9
$USERI5
 70
     0
  9
$USERR1
 40
0.0
  9
$USERR2
 40
0.0
  9
$USERR3
 40
0.0
  9
$USERR4
 40
0.0
  9
$USERR5
 40
0.0
  9
$WORLDVIEW
 70
     1
  9
$SHADEDGE
 70
     3
  9
$SHADEDIF
 70
    70
  9
$TILEMODE
 70
     1
  9
$MAXACTVP
 70
    64
  9
$PINSBASE
 10
0.0
 20
0.0
 30
0.0
  9
$PLIMCHECK
 70
     0
  9
$PEXTMIN
 10
1.000000000000000E+20
 20
1.000000000000000E+20
 30
1.000000000000000E+20
  9
$PEXTMAX
 10
-1.000000000000000E+20
 20
-1.000000000000000E+20
 30
-1.000000000000000E+20
  9
$PLIMMIN
 10
0.0
 20
0.0
  9
$PLIMMAX
 10
12.0
 20
9.0
  9
$UNITMODE
 70
     0
  9
$VISRETAIN
 70
     1
  9
$PLINEGEN
 70
     0
  9
$PSLTSCALE
 70
     1
  9
$TREEDEPTH
 70
  3020
  9
$CMLSTYLE
  2
Standard
  9
$CMLJUST
 70
     0
  9
$CMLSCALE
 40
1.0
  9
$PROXYGRAPHICS
 70
     1
  9
$MEASUREMENT
 70
     1
  9
$CELWEIGHT
370
    -1
  9
$ENDCAPS
280
     0
  9
$JOINSTYLE
280
     0
  9
$LWDISPLAY
290
     1
  9
$INSUNITS
 70
     4
  9
$HYPERLINKBASE
  1

  9
$STYLESHEET
  1

  9
$XEDIT
290
     1
  9
$CEPSNTYPE
380
     0
  9
$PSTYLEMODE
290
     1
  9
$FINGERPRINTGUID
  2
{919AE0C8-69CE-4051-A24B-2DA9A8D4896F}
  9
$VERSIONGUID
  2
{FAEB1C32-E019-11D5-929B-00C0DF256EC4}
  9
$EXTNAMES
290
     1
  9
$PSVPSCALE
 40
0.0
  9
$OLESTARTUP
290
     0
  9
$SORTENTS
280
   127
  9
$INDEXCTL
280
     0
  9
$HIDETEXT
280
     1
  9
$XCLIPFRAME
290
     0
  9
$HALOGAP
280
     0
  9
$OBSCOLOR
 70
   257
  9
$OBSLTYPE
280
     0
  9
$INTERSECTIONDISPLAY
280
     0
  9
$INTERSECTIONCOLOR
 70
   257
  9
$DIMASSOC
280
     2
  9
$PROJECTNAME
  1

  9
$CAMERADISPLAY
290
     0
  9
$LENSLENGTH
 40
50.0
  9
$CAMERAHEIGHT
 40
0.0
  9
$STEPSPERSEC
 40
2.0
  9
$STEPSIZE
 40
6.0
  9
$3DDWFPREC
 40
2.0
  9
$PSOLWIDTH
 40
0.25
  9
$PSOLHEIGHT
 40
4.0
  9
$LOFTANG1
 40
1.570796326794897
  9
$LOFTANG2
 40
1.570796326794897
  9
$LOFTMAG1
 40
0.0
  9
$LOFTMAG2
 40
0.0
  9
$LOFTPARAM
 70
     7
  9
$LOFTNORMALS
280
     1
  9
$LATITUDE
 40
37.795
  9
$LONGITUDE
 40
-122.394
  9
$NORTHDIRECTION
 40
0.0
  9
$TIMEZONE
 70
 -8000
  9
$LIGHTGLYPHDISPLAY
280
     1
  9
$TILEMODELIGHTSYNCH
280
     1
  9
$SOLIDHIST
280
     1
  9
$SHOWHIST
280
     1
  9
$DWFFRAME
280
     2
  9
$DGNFRAME
280
     2
  9
$REALWORLDSCALE
290
     1
  9
$INTERFERECOLOR
 62
   256
  9
$CSHADOW
280
     0
  9
$SHADOWPLANELOCATION
 40
0.0
  0
ENDSEC
  0
SECTION
  2
CLASSES
  0
CLASS
  1
ACDBDICTIONARYWDFLT
  2
AcDbDictionaryWithDefault
  3
ObjectDBX Classes
 90
        0
 91
        4
280
     0
281
     0
  0
CLASS
  1
VISUALSTYLE
  2
AcDbVisualStyle
  3
ObjectDBX Classes
 90
     4095
 91
        4
280
     0
281
     0
  0
ENDSEC
  0
SECTION
  2
TABLES
  0
TABLE
  2
VPORT
  5
8
330
0
100
AcDbSymbolTable
 70
     1
  0
VPORT
  5
29
330
8
100
AcDbSymbolTableRecord
100
AcDbViewportTableRecord
  2
*Active
 70
     0
 10
0.0
 20
0.0
 11
1.0
 21
1.0
 12
26.34024672339999
 22
125.75
 13
0.0
 23
0.0
 14
0.5
 24
0.5
 15
0.5
 25
0.5
 16
0.0
 26
0.0
 36
1.0
 17
0.0
 27
0.0
 37
0.0
 40
251.5
 41
1.6
 42
50.0
 43
0.0
 44
0.0
 50
0.0
 51
0.0
 71
     0
 72
   100
 73
     1
 74
     3
 75
     0
 76
     0
 77
     0
 78
     0
281
     0
 65
     1
110
0.0
120
0.0
130
0.0
111
1.0
121
0.0
131
0.0
112
0.0
122
1.0
132
0.0
 79
     0
146
0.0
 60
     3
 61
     5
292
     1
282
     1
141
0.0
142
0.0
 63
   250
  0
ENDTAB
  0
TABLE
  2
LTYPE
  5
5
330
0
100
AcDbSymbolTable
 70
     3
  0
LTYPE
  5
14
330
5
100
AcDbSymbolTableRecord
100
AcDbLinetypeTableRecord
  2
ByBlock
 70
     0
  3

 72
    65
 73
     0
 40
0.0
  0
LTYPE
  5
15
330
5
100
AcDbSymbolTableRecord
100
AcDbLinetypeTableRecord
  2
ByLayer
 70
     0
  3

 72
    65
 73
     0
 40
0.0
  0
LTYPE
  5
16
330
5
100
AcDbSymbolTableRecord
100
AcDbLinetypeTableRecord
  2
Continuous
 70
     0
  3
Solid line
 72
    65
 73
     0
 40
0.0
  0
LTYPE
  5
3D
330
5
100
AcDbSymbolTableRecord
100
AcDbLinetypeTableRecord
  2
________________
 70
     0
  3

 72
    65
 73
     0
 40
0.0
  0
LTYPE
  5
13F
330
5
100
AcDbSymbolTableRecord
100
AcDbLinetypeTableRecord
  2
________...._...
 70
     0
  3

 72
    65
 73
     4
 40
6.0000000300003
 49
3.0
 74
     0
 49
-1.5
 74
     0
 49
0.0000000300003
 74
     0
 49
-1.5
 74
     0
  0
ENDTAB
  0
TABLE
  2
LAYER
  5
2
330
0
100
AcDbSymbolTable
 70
     2
  0
LAYER
  5
10
330
2
100
AcDbSymbolTableRecord
100
AcDbLayerTableRecord
  2
0
 70
     0
 62
     7
  6
Continuous
370
    -3
390
F
347
0
  0
LAYER
  5
3B
330
2
100
AcDbSymbolTableRecord
100
AcDbLayerTableRecord
  2
1
 70
     0
 62
     7
  6
Continuous
370
    -3
390
F
347
0
  0
ENDTAB
  0
TABLE
  2
STYLE
  5
3
330
0
100
AcDbSymbolTable
 70
     1
  0
STYLE
  5
11
330
3
100
AcDbSymbolTableRecord
100
AcDbTextStyleTableRecord
  2
Standard
 70
     0
 40
0.0
 41
1.0
 50
0.0
 71
     0
 42
0.2
  3
txt
  4

  0
ENDTAB
  0
TABLE
  2
VIEW
  5
6
330
0
100
AcDbSymbolTable
 70
     0
  0
ENDTAB
  0
TABLE
  2
UCS
  5
7
330
0
100
AcDbSymbolTable
 70
     0
  0
ENDTAB
  0
TABLE
  2
APPID
  5
9
330
0
100
AcDbSymbolTable
 70
     1
  0
APPID
  5
12
330
9
100
AcDbSymbolTableRecord
100
AcDbRegAppTableRecord
  2
ACAD
 70
     0
  0
ENDTAB
  0
TABLE
  2
DIMSTYLE
  5
A
330
0
100
AcDbSymbolTable
 70
     1
100
AcDbDimStyleTable
  0
DIMSTYLE
105
27
330
A
100
AcDbSymbolTableRecord
100
AcDbDimStyleTableRecord
  2
Standard
 70
     0
340
11
  0
ENDTAB
  0
TABLE
  2
BLOCK_RECORD
  5
1
330
0
100
AcDbSymbolTable
 70
     1
  0
BLOCK_RECORD
  5
1F
330
1
100
AcDbSymbolTableRecord
100
AcDbBlockTableRecord
  2
*Model_Space
340
22
 70
     0
280
     1
281
     0
  0
BLOCK_RECORD
  5
1B
330
1
100
AcDbSymbolTableRecord
100
AcDbBlockTableRecord
  2
*Paper_Space
340
1E
 70
     0
280
     1
281
     0
  0
BLOCK_RECORD
  5
23
330
1
100
AcDbSymbolTableRecord
100
AcDbBlockTableRecord
  2
*Paper_Space0
340
26
 70
     0
280
     1
281
     0
  0
ENDTAB
  0
ENDSEC
  0
SECTION
  2
BLOCKS
  0
BLOCK
  5
20
330
1F
100
AcDbEntity
  8
0
100
AcDbBlockBegin
  2
*Model_Space
 70
     0
 10
0.0
 20
0.0
 30
0.0
  3
*Model_Space
  1

  0
ENDBLK
  5
21
330
1F
100
AcDbEntity
  8
0
100
AcDbBlockEnd
  0
BLOCK
  5
1C
330
1B
100
AcDbEntity
 67
     1
  8
0
100
AcDbBlockBegin
  2
*Paper_Space
 70
     0
 10
0.0
 20
0.0
 30
0.0
  3
*Paper_Space
  1

  0
ENDBLK
  5
1D
330
1B
100
AcDbEntity
 67
     1
  8
0
100
AcDbBlockEnd
  0
BLOCK
  5
24
330
23
100
AcDbEntity
  8
0
100
AcDbBlockBegin
  2
*Paper_Space0
 70
     0
 10
0.0
 20
0.0
 30
0.0
  3
*Paper_Space0
  1

  0
ENDBLK
  5
25
330
23
100
AcDbEntity
  8
0
100
AcDbBlockEnd
  0
ENDSEC
  0
SECTION
  2
ENTITIES
  0
LINE
  5
3C
330
1F
100
AcDbEntity
  8
1
  6
________________
 62
     7
370
     9
100
AcDbLine
 10
19.5902467234
 20
184.25
 30
0.0
 11
19.5902467234
 21
245.75
 31
0.0
  0
LINE
  5
3E
330
1F
100
AcDbEntity
  8
1
  6
________________
 62
     7
370
     9
100
AcDbLine
 10
4.1425957234
 20
244.723299
 30
0.0
 11
-6.072471276600001
 21
244.29192
 31
0.0
  0
LINE
  5
3F
330
1F
100
AcDbEntity
  8
1
  6
________________
 62
     7
370
     9
100
AcDbLine
 10
-7.904654276600001
 20
209.189659
 30
0.0
 11
-7.904654276600001
 21
220.810341
 31
0.0
  0
LINE
  5
40
330
1F
100
AcDbEntity
  8
1
  6
________________
 62
     7
370
     9
100
AcDbLine
 10
-7.904654276600001
 20
231.087577
 30
0.0
 11
-7.904654276600001
 21
239.30464
 31
0.0
  0
LINE
  5
41
330
1F
100
AcDbEntity
  8
1
  6
________________
 62
     7
370
     9
100
AcDbLine
 10
-7.904654276600001
 20
243.561611
 30
0.0
 11
-7.904654276600001
 21
244.146624
 31
0.0
  0
LINE
  5
42
330
1F
100
AcDbEntity
  8
1
  6
________________
 62
     7
370
     9
100
AcDbLine
 10
-12.9097532766
 20
189.0
 30
0.0
 11
-12.9097532766
 21
241.0
 31
0.0
  0
ARC
  5
43
330
1F
100
AcDbEntity
  8
1
  6
________________
 62
     7
370
     9
100
AcDbCircle
 10
-6.0835584942
 20
244.2906511656
 30
0.0
 40
0.0111597284
100
AcDbArc
 50
6.5285046276
 51
37.7016350797
  0
LINE
  5
44
330
1F
100
AcDbEntity
  8
1
  6
________________
 62
     7
370
     9
100
AcDbLine
 10
-7.904654276600001
 20
243.561611
 30
0.0
 11
-7.8920952766
 21
243.575919
 31
0.0
  0
LINE
  5
45
330
1F
100
AcDbEntity
  8
1
  6
________________
 62
     7
370
     9
100
AcDbLine
 10
68.0902467234
 20
186.5
 30
0.0
 11
68.0902467234
 21
243.5
 31
0.0
  0
LINE
  5
46
330
1F
100
AcDbEntity
  8
1
  6
________________
 62
     7
370
     9
100
AcDbLine
 10
63.3634877234
 20
240.543578
 30
0.0
 11
63.14769872339999
 21
239.719868
 31
0.0
  0
LINE
  5
47
330
1F
100
AcDbEntity
  8
1
  6
________________
 62
     7
370
     9
100
AcDbLine
 10
63.46788972340001
 20
241.0
 30
0.0
 11
63.3634877234
 21
240.543578
 31
0.0
  0
LINE
  5
48
330
1F
100
AcDbEntity
  8
1
  6
________________
 62
     7
370
     9
100
AcDbLine
 10
63.42327172339999
 20
213.75
 30
0.0
 11
63.42327172339999
 21
216.25
 31
0.0
  0
LINE
  5
49
330
1F
100
AcDbEntity
  8
1
  6
________________
 62
     7
370
     9
100
AcDbLine
 10
48.0836757234
 20
241.0
 30
0.0
 11
48.3200657234
 21
240.523641
 31
0.0
  0
LINE
  5
4A
330
1F
100
AcDbEntity
  8
1
  6
________________
 62
     7
370
     9
100
AcDbLine
 10
48.0836757234
 20
216.25
 30
0.0
 11
48.0836757234
 21
213.75
 31
0.0
  0
LINE
  5
4B
330
1F
100
AcDbEntity
  8
1
  6
________________
 62
     7
370
     9
100
AcDbLine
 10
63.29460372339999
 20
216.25
 30
0.0
 11
48.0836757234
 21
216.25
 31
0.0
  0
LINE
  5
4C
330
1F
100
AcDbEntity
  8
1
  6
________________
 62
     7
370
     9
100
AcDbLine
 10
48.3200657234
 20
240.523641
 30
0.0
 11
48.3263857234
 21
240.5
 31
0.0
  0
LINE
  5
4D
330
1F
100
AcDbEntity
  8
1
  6
________________
 62
     7
370
     9
100
AcDbLine
 10
48.3263857234
 20
240.5
 30
0.0
 11
48.5130107234
 21
239.802647
 31
0.0
  0
ARC
  5
4E
330
1F
100
AcDbEntity
  8
1
  6
________________
 62
     7
370
     9
100
AcDbCircle
 10
50.2526067234
 20
240.267318
 30
0.0
 40
1.800587
100
AcDbArc
 50
194.955373
 51
269.970428
  0
LINE
  5
4F
330
1F
100
AcDbEntity
  8
1
  6
________________
 62
     7
370
     9
100
AcDbLine
 10
61.2758656079
 20
238.466732
 30
0.0
 11
50.2516767234
 21
238.466732
 31
0.0
  0
LINE
  5
50
330
1F
100
AcDbEntity
  8
1
  6
________________
 62
     7
370
     9
100
AcDbLine
 10
48.0836757234
 20
241.0
 30
0.0
 11
63.46788972340001
 21
241.0
 31
0.0
  0
LINE
  5
51
330
1F
100
AcDbEntity
  8
1
  6
________________
 62
     7
370
     9
100
AcDbLine
 10
19.5902467234
 20
245.75
 30
0.0
 11
5.879776723399999
 21
245.27122
 31
0.0
  0
ARC
  5
52
330
1F
100
AcDbEntity
  8
1
  6
________________
 62
     7
370
     9
100
AcDbCircle
 10
-5.9677722766
 20
241.855666
 30
0.0
 40
3.0
100
AcDbArc
 50
130.212727
 51
155.0
  0
LINE
  5
53
330
1F
100
AcDbEntity
  8
1
  6
________________
 62
     7
370
     9
100
AcDbLine
 10
-8.6866952766
 20
243.12352
 30
0.0
 11
-9.0572812766
 21
242.328798
 31
0.0
  0
ARC
  5
54
330
1F
100
AcDbEntity
  8
1
  6
________________
 62
     7
370
     9
100
AcDbCircle
 10
-10.4167422766
 20
242.962725
 30
0.0
 40
1.5
100
AcDbArc
 50
280.0
 51
334.9999999999999
  0
LINE
  5
55
330
1F
100
AcDbEntity
  8
1
  6
________________
 62
     7
370
     9
100
AcDbLine
 10
-10.1562702766
 20
241.485513
 30
0.0
 11
-12.9097532766
 21
241.0
 31
0.0
  0
ARC
  5
56
330
1F
100
AcDbEntity
  8
1
  6
________________
 62
     7
370
     9
100
AcDbCircle
 10
-5.9445812766
 20
241.31841
 30
0.0
 40
2.980104
100
AcDbArc
 50
92.52359
 51
131.421988
  0
LINE
  5
57
330
1F
100
AcDbEntity
  8
1
  6
________________
 62
     7
370
     9
100
AcDbLine
 10
-6.7913832766
 20
244.175776
 30
0.0
 11
-7.904654276600001
 21
244.146624
 31
0.0
  0
ARC
  5
58
330
1F
100
AcDbEntity
  8
1
  6
________________
 62
     7
370
     9
100
AcDbCircle
 10
4.0149767234
 20
250.784227
 30
0.0
 40
6.059508
100
AcDbArc
 50
271.176573
 51
285.908756
  0
ARC
  5
59
330
1F
100
AcDbEntity
  8
1
  6
________________
 62
     7
370
     9
100
AcDbCircle
 10
5.8902467234
 20
244.971403
 30
0.0
 40
0.3
100
AcDbArc
 50
92.0
 51
180.0
  0
ARC
  5
5A
330
1F
100
AcDbEntity
  8
1
  6
________________
 62
     7
370
     9
100
AcDbCircle
 10
21.4921707234
 20
244.75
 30
0.0
 40
1.0
100
AcDbArc
 50
30.0
 51
90.0
  0
LINE
  5
5B
330
1F
100
AcDbEntity
  8
1
  6
________________
 62
     7
370
     9
100
AcDbLine
 10
21.4921707234
 20
245.75
 30
0.0
 11
19.5902467234
 21
245.75
 31
0.0
  0
LINE
  5
5C
330
1F
100
AcDbEntity
  8
1
  6
________________
 62
     7
370
     9
100
AcDbLine
 10
23.3973607234
 20
243.450114
 30
0.0
 11
22.3581957234
 21
245.25
 31
0.0
  0
LINE
  5
5D
330
1F
100
AcDbEntity
  8
1
  6
________________
 62
     7
370
     9
100
AcDbLine
 10
70.0902467234
 20
243.5
 30
0.0
 11
64.8575737234
 21
243.5
 31
0.0
  0
ARC
  5
5E
330
1F
100
AcDbEntity
  8
1
  6
________________
 62
     7
370
     9
100
AcDbCircle
 10
64.8575737234
 20
242.5
 30
0.0
 40
1.0
100
AcDbArc
 50
90.0
 51
165.0
  0
ARC
  5
5F
330
1F
100
AcDbEntity
  8
1
  6
________________
 62
     7
370
     9
100
AcDbCircle
 10
25.5624237234
 20
244.700114
 30
0.0
 40
2.5
100
AcDbArc
 50
210.0
 51
267.9999999999999
  0
LINE
  5
60
330
1F
100
AcDbEntity
  8
1
  6
________________
 62
     7
370
     9
100
AcDbLine
 10
63.8916477234
 20
242.758819
 30
0.0
 11
63.4205627234
 21
241.000705
 31
0.0
  0
LINE
  5
61
330
1F
100
AcDbEntity
  8
1
  6
________________
 62
     7
370
     9
100
AcDbLine
 10
47.2028347234
 20
241.442891
 30
0.0
 11
25.4751747234
 21
242.201637
 31
0.0
  0
ARC
  5
62
330
1F
100
AcDbEntity
  8
1
  6
________________
 62
     7
370
     9
100
AcDbCircle
 10
47.1609547234
 20
240.243622
 30
0.0
 40
1.2
100
AcDbArc
 50
39.073372
 51
88.0
  0
CIRCLE
  5
63
330
1F
100
AcDbEntity
  8
1
  6
________________
 62
     7
370
     9
100
AcDbCircle
 10
-72.4097532766
 20
215.0
 30
0.0
 40
26.0
  0
CIRCLE
  5
64
330
1F
100
AcDbEntity
  8
1
  6
________________
 62
     7
370
     9
100
AcDbCircle
 10
-72.4097532766
 20
215.0
 30
0.0
 40
23.3
  0
ARC
  5
65
330
1F
100
AcDbEntity
  8
1
  6
________________
 62
     7
370
     9
100
AcDbCircle
 10
-72.4097532766
 20
215.0
 30
0.0
 40
29.146624
100
AcDbArc
 50
33.501125
 51
56.49887499999999
  0
ARC
  5
66
330
1F
100
AcDbEntity
  8
1
  6
________________
 62
     7
370
     9
100
AcDbCircle
 10
-72.4097532766
 20
215.0
 30
0.0
 40
29.146624
100
AcDbArc
 50
348.501125
 51
11.498875
  0
ARC
  5
67
330
1F
100
AcDbEntity
  8
1
  6
________________
 62
     7
370
     9
100
AcDbCircle
 10
-72.4097532766
 20
215.0
 30
0.0
 40
29.146624
100
AcDbArc
 50
303.501125
 51
326.498875
  0
ARC
  5
68
330
1F
100
AcDbEntity
  8
1
  6
________________
 62
     7
370
     9
100
AcDbCircle
 10
-72.4097532766
 20
215.0
 30
0.0
 40
29.146624
100
AcDbArc
 50
258.501125
 51
281.498875
  0
ARC
  5
69
330
1F
100
AcDbEntity
  8
1
  6
________________
 62
     7
370
     9
100
AcDbCircle
 10
-72.4097532766
 20
215.0
 30
0.0
 40
29.146624
100
AcDbArc
 50
213.501125
 51
236.498875
  0
ARC
  5
6A
330
1F
100
AcDbEntity
  8
1
  6
________________
 62
     7
370
     9
100
AcDbCircle
 10
-72.4097532766
 20
215.0
 30
0.0
 40
29.146624
100
AcDbArc
 50
168.501125
 51
191.498875
  0
ARC
  5
6B
330
1F
100
AcDbEntity
  8
1
  6
________________
 62
     7
370
     9
100
AcDbCircle
 10
-72.4097532766
 20
215.0
 30
0.0
 40
29.146624
100
AcDbArc
 50
123.501125
 51
146.498875
  0
ARC
  5
6C
330
1F
100
AcDbEntity
  8
1
  6
________________
 62
     7
370
     9
100
AcDbCircle
 10
-72.4097532766
 20
215.0
 30
0.0
 40
29.146624
100
AcDbArc
 50
78.501125
 51
101.498875
  0
LINE
  5
6D
330
1F
100
AcDbEntity
  8
1
  6
________________
 62
     7
370
     9
100
AcDbLine
 10
-55.4565752766
 20
190.904261
 30
0.0
 11
-54.2130852766
 21
191.780799
 31
0.0
  0
ARC
  5
6E
330
1F
100
AcDbEntity
  8
1
  6
________________
 62
     7
370
     9
100
AcDbCircle
 10
-55.8048200043
 20
193.4788027818
 30
0.0
 40
2.5979883309
100
AcDbArc
 50
265.5803467594001
 51
277.7033685
  0
LINE
  5
6F
330
1F
100
AcDbEntity
  8
1
  6
________________
 62
     7
370
     9
100
AcDbLine
 10
-56.3221762766
 20
190.69536
 30
0.0
 11
-56.0050252766
 21
190.888541
 31
0.0
  0
LINE
  5
70
330
1F
100
AcDbEntity
  8
1
  6
________________
 62
     7
370
     9
100
AcDbLine
 10
-48.2982942766
 20
198.595272
 30
0.0
 11
-48.1051132766
 21
198.912423
 31
0.0
  0
ARC
  5
71
330
1F
100
AcDbEntity
  8
1
  6
________________
 62
     7
370
     9
100
AcDbCircle
 10
-51.752732883
 20
198.419837205
 30
0.0
 40
3.4588915241
100
AcDbArc
 50
353.8090253731
 51
2.907259367499989
  0
LINE
  5
72
330
1F
100
AcDbEntity
  8
1
  6
________________
 62
     7
370
     9
100
AcDbLine
 10
-49.1905522766
 20
196.803332
 30
0.0
 11
-48.3140142766
 21
198.046822
 31
0.0
  0
ARC
  5
73
330
1F
100
AcDbEntity
  8
1
  6
________________
 62
     7
370
     9
100
AcDbCircle
 10
-72.4097532766
 20
215.0
 30
0.0
 40
29.5
100
AcDbArc
 50
308.085464
 51
321.914536
  0
LINE
  5
74
330
1F
100
AcDbEntity
  8
1
  6
________________
 62
     7
370
     9
100
AcDbLine
 10
-66.9602712766
 20
186.350729
 30
0.0
 11
-66.5994122766
 21
186.438389
 31
0.0
  0
LINE
  5
75
330
1F
100
AcDbEntity
  8
1
  6
________________
 62
     7
370
     9
100
AcDbLine
 10
-77.4603062766
 20
185.974033
 30
0.0
 11
-75.9612202766
 21
185.714559
 31
0.0
  0
ARC
  5
76
330
1F
100
AcDbEntity
  8
1
  6
________________
 62
     7
370
     9
100
AcDbCircle
 10
-75.8860767366
 20
188.0407545895
 30
0.0
 40
2.5979883307
100
AcDbArc
 50
220.5803467517999
 51
232.7033684923999
  0
LINE
  5
77
330
1F
100
AcDbEntity
  8
1
  6
________________
 62
     7
370
     9
100
AcDbLine
 10
-78.2200942766
 20
186.438389
 30
0.0
 11
-77.8592352766
 21
186.350729
 31
0.0
  0
ARC
  5
78
330
1F
100
AcDbEntity
  8
1
  6
________________
 62
     7
370
     9
100
AcDbCircle
 10
-69.526979737
 20
188.6693352547
 30
0.0
 40
3.4588915239
100
AcDbArc
 50
308.8090253807
 51
317.9072593751
  0
LINE
  5
79
330
1F
100
AcDbEntity
  8
1
  6
________________
 62
     7
370
     9
100
AcDbLine
 10
-68.8582862766
 20
185.714559
 30
0.0
 11
-67.3592002766
 21
185.974033
 31
0.0
  0
ARC
  5
7A
330
1F
100
AcDbEntity
  8
1
  6
________________
 62
     7
370
     9
100
AcDbCircle
 10
-72.4097532766
 20
215.0
 30
0.0
 40
29.5
100
AcDbArc
 50
263.085464
 51
276.914536
  0
LINE
  5
7B
330
1F
100
AcDbEntity
  8
1
  6
________________
 62
     7
370
     9
100
AcDbLine
 10
-101.0590242766
 20
209.550518
 30
0.0
 11
-100.9713642766
 21
209.189659
 31
0.0
  0
LINE
  5
7C
330
1F
100
AcDbEntity
  8
1
  6
________________
 62
     7
370
     9
100
AcDbLine
 10
-43.7604822766
 20
220.449482
 30
0.0
 11
-43.8481422766
 21
220.810341
 31
0.0
  0
LINE
  5
7D
330
1F
100
AcDbEntity
  8
1
  6
________________
 62
     7
370
     9
100
AcDbLine
 10
-101.4357202766
 20
220.050553
 30
0.0
 11
-101.6951942766
 21
218.551467
 31
0.0
  0
ARC
  5
7E
330
1F
100
AcDbEntity
  8
1
  6
________________
 62
     7
370
     9
100
AcDbCircle
 10
-99.3689986871
 20
218.47632346
 30
0.0
 40
2.5979883307
100
AcDbArc
 50
130.5803467518
 51
142.7033684924
  0
LINE
  5
7F
330
1F
100
AcDbEntity
  8
1
  6
________________
 62
     7
370
     9
100
AcDbLine
 10
-100.9713642766
 20
220.810341
 30
0.0
 11
-101.0590242766
 21
220.449482
 31
0.0
  0
ARC
  5
80
330
1F
100
AcDbEntity
  8
1
  6
________________
 62
     7
370
     9
100
AcDbCircle
 10
-98.7404180219
 20
212.1172264604
 30
0.0
 40
3.4588915239
100
AcDbArc
 50
218.8090253806999
 51
227.9072593751
  0
LINE
  5
81
330
1F
100
AcDbEntity
  8
1
  6
________________
 62
     7
370
     9
100
AcDbLine
 10
-101.6951942766
 20
211.448533
 30
0.0
 11
-101.4357202766
 21
209.949447
 31
0.0
  0
ARC
  5
82
330
1F
100
AcDbEntity
  8
1
  6
________________
 62
     7
370
     9
100
AcDbCircle
 10
-72.4097532766
 20
215.0
 30
0.0
 40
29.5
100
AcDbArc
 50
173.085464
 51
186.914536
  0
LINE
  5
83
330
1F
100
AcDbEntity
  8
1
  6
________________
 62
     7
370
     9
100
AcDbLine
 10
-43.3837862766
 20
209.949447
 30
0.0
 11
-43.1243122766
 21
211.448533
 31
0.0
  0
ARC
  5
84
330
1F
100
AcDbEntity
  8
1
  6
________________
 62
     7
370
     9
100
AcDbCircle
 10
-45.4505078661
 20
211.52367654
 30
0.0
 40
2.5979883307
100
AcDbArc
 50
310.5803467518
 51
322.7033684924
  0
LINE
  5
85
330
1F
100
AcDbEntity
  8
1
  6
________________
 62
     7
370
     9
100
AcDbLine
 10
-43.8481422766
 20
209.189659
 30
0.0
 11
-43.7604822766
 21
209.550518
 31
0.0
  0
ARC
  5
86
330
1F
100
AcDbEntity
  8
1
  6
________________
 62
     7
370
     9
100
AcDbCircle
 10
-46.0790885313
 20
217.8827735396
 30
0.0
 40
3.4588915239
100
AcDbArc
 50
38.8090253807
 51
47.9072593751
  0
LINE
  5
87
330
1F
100
AcDbEntity
  8
1
  6
________________
 62
     7
370
     9
100
AcDbLine
 10
-43.1243122766
 20
218.551467
 30
0.0
 11
-43.3837862766
 21
220.050553
 31
0.0
  0
ARC
  5
88
330
1F
100
AcDbEntity
  8
1
  6
________________
 62
     7
370
     9
100
AcDbCircle
 10
-72.4097532766
 20
215.0
 30
0.0
 40
29.5
100
AcDbArc
 50
353.0854639999999
 51
6.914535999999999
  0
LINE
  5
89
330
1F
100
AcDbEntity
  8
1
  6
________________
 62
     7
370
     9
100
AcDbLine
 10
-96.5054922766
 20
198.046822
 30
0.0
 11
-95.6289542766
 21
196.803332
 31
0.0
  0
ARC
  5
8A
330
1F
100
AcDbEntity
  8
1
  6
________________
 62
     7
370
     9
100
AcDbCircle
 10
-93.9309504948
 20
198.3950667277
 30
0.0
 40
2.5979883309
100
AcDbArc
 50
175.5803467594
 51
187.7033685
  0
LINE
  5
8B
330
1F
100
AcDbEntity
  8
1
  6
________________
 62
     7
370
     9
100
AcDbLine
 10
-96.7143932766
 20
198.912423
 30
0.0
 11
-96.5212122766
 21
198.595272
 31
0.0
  0
LINE
  5
8C
330
1F
100
AcDbEntity
  8
1
  6
________________
 62
     7
370
     9
100
AcDbLine
 10
-88.8144812766
 20
190.888541
 30
0.0
 11
-88.4973302766
 21
190.69536
 31
0.0
  0
ARC
  5
8D
330
1F
100
AcDbEntity
  8
1
  6
________________
 62
     7
370
     9
100
AcDbCircle
 10
-88.9899160716
 20
194.3429796064
 30
0.0
 40
3.4588915241
100
AcDbArc
 50
263.8090253731
 51
272.9072593675
  0
LINE
  5
8E
330
1F
100
AcDbEntity
  8
1
  6
________________
 62
     7
370
     9
100
AcDbLine
 10
-90.6064212766
 20
191.780799
 30
0.0
 11
-89.3629312766
 21
190.904261
 31
0.0
  0
ARC
  5
8F
330
1F
100
AcDbEntity
  8
1
  6
________________
 62
     7
370
     9
100
AcDbCircle
 10
-72.4097532766
 20
215.0
 30
0.0
 40
29.5
100
AcDbArc
 50
218.085464
 51
231.914536
  0
LINE
  5
90
330
1F
100
AcDbEntity
  8
1
  6
________________
 62
     7
370
     9
100
AcDbLine
 10
-89.3629312766
 20
239.095739
 30
0.0
 11
-90.6064212766
 21
238.219201
 31
0.0
  0
ARC
  5
91
330
1F
100
AcDbEntity
  8
1
  6
________________
 62
     7
370
     9
100
AcDbCircle
 10
-89.0146865489
 20
236.5211972182
 30
0.0
 40
2.5979883309
100
AcDbArc
 50
85.58034675939999
 51
97.7033685
  0
LINE
  5
92
330
1F
100
AcDbEntity
  8
1
  6
________________
 62
     7
370
     9
100
AcDbLine
 10
-88.4973302766
 20
239.30464
 30
0.0
 11
-88.8144812766
 21
239.111459
 31
0.0
  0
LINE
  5
93
330
1F
100
AcDbEntity
  8
1
  6
________________
 62
     7
370
     9
100
AcDbLine
 10
-96.5212122766
 20
231.404728
 30
0.0
 11
-96.7143932766
 21
231.087577
 31
0.0
  0
ARC
  5
94
330
1F
100
AcDbEntity
  8
1
  6
________________
 62
     7
370
     9
100
AcDbCircle
 10
-93.0667736702
 20
231.580162795
 30
0.0
 40
3.4588915241
100
AcDbArc
 50
173.8090253731
 51
182.9072593675
  0
LINE
  5
95
330
1F
100
AcDbEntity
  8
1
  6
________________
 62
     7
370
     9
100
AcDbLine
 10
-95.6289542766
 20
233.196668
 30
0.0
 11
-96.5054922766
 21
231.953178
 31
0.0
  0
ARC
  5
96
330
1F
100
AcDbEntity
  8
1
  6
________________
 62
     7
370
     9
100
AcDbCircle
 10
-72.4097532766
 20
215.0
 30
0.0
 40
29.5
100
AcDbArc
 50
128.085464
 51
141.914536
  0
LINE
  5
97
330
1F
100
AcDbEntity
  8
1
  6
________________
 62
     7
370
     9
100
AcDbLine
 10
-77.8592352766
 20
243.649271
 30
0.0
 11
-78.2200942766
 21
243.561611
 31
0.0
  0
LINE
  5
98
330
1F
100
AcDbEntity
  8
1
  6
________________
 62
     7
370
     9
100
AcDbLine
 10
-67.3592002766
 20
244.025967
 30
0.0
 11
-68.8582862766
 21
244.285441
 31
0.0
  0
ARC
  5
99
330
1F
100
AcDbEntity
  8
1
  6
________________
 62
     7
370
     9
100
AcDbCircle
 10
-68.9334298166
 20
241.9592454105
 30
0.0
 40
2.5979883307
100
AcDbArc
 50
40.5803467518
 51
52.70336849240001
  0
LINE
  5
9A
330
1F
100
AcDbEntity
  8
1
  6
________________
 62
     7
370
     9
100
AcDbLine
 10
-66.5994122766
 20
243.561611
 30
0.0
 11
-66.9602712766
 21
243.649271
 31
0.0
  0
ARC
  5
9B
330
1F
100
AcDbEntity
  8
1
  6
________________
 62
     7
370
     9
100
AcDbCircle
 10
-75.2925268162
 20
241.3306647453
 30
0.0
 40
3.4588915239
100
AcDbArc
 50
128.8090253807
 51
137.9072593751
  0
LINE
  5
9C
330
1F
100
AcDbEntity
  8
1
  6
________________
 62
     7
370
     9
100
AcDbLine
 10
-75.9612202766
 20
244.285441
 30
0.0
 11
-77.4603062766
 21
244.025967
 31
0.0
  0
ARC
  5
9D
330
1F
100
AcDbEntity
  8
1
  6
________________
 62
     7
370
     9
100
AcDbCircle
 10
-72.4097532766
 20
215.0
 30
0.0
 40
29.5
100
AcDbArc
 50
83.085464
 51
96.914536
  0
LINE
  5
9E
330
1F
100
AcDbEntity
  8
1
  6
________________
 62
     7
370
     9
100
AcDbLine
 10
-48.3140142766
 20
231.953178
 30
0.0
 11
-49.1905522766
 21
233.196668
 31
0.0
  0
ARC
  5
9F
330
1F
100
AcDbEntity
  8
1
  6
________________
 62
     7
370
     9
100
AcDbCircle
 10
-50.8885560584
 20
231.6049332723
 30
0.0
 40
2.5979883309
100
AcDbArc
 50
355.5803467594
 51
7.703368499999954
  0
LINE
  5
A0
330
1F
100
AcDbEntity
  8
1
  6
________________
 62
     7
370
     9
100
AcDbLine
 10
-48.1051132766
 20
231.087577
 30
0.0
 11
-48.2982942766
 21
231.404728
 31
0.0
  0
LINE
  5
A1
330
1F
100
AcDbEntity
  8
1
  6
________________
 62
     7
370
     9
100
AcDbLine
 10
-56.0050252766
 20
239.111459
 30
0.0
 11
-56.3221762766
 21
239.30464
 31
0.0
  0
ARC
  5
A2
330
1F
100
AcDbEntity
  8
1
  6
________________
 62
     7
370
     9
100
AcDbCircle
 10
-55.8295904816
 20
235.6570203936
 30
0.0
 40
3.4588915241
100
AcDbArc
 50
83.8090253731
 51
92.90725936750002
  0
LINE
  5
A3
330
1F
100
AcDbEntity
  8
1
  6
________________
 62
     7
370
     9
100
AcDbLine
 10
-54.2130852766
 20
238.219201
 30
0.0
 11
-55.4565752766
 21
239.095739
 31
0.0
  0
ARC
  5
A4
330
1F
100
AcDbEntity
  8
1
  6
________________
 62
     7
370
     9
100
AcDbCircle
 10
-72.4097532766
 20
215.0
 30
0.0
 40
29.5
100
AcDbArc
 50
38.085464
 51
51.914536
  0
CIRCLE
  5
A5
330
1F
100
AcDbEntity
  8
1
  6
________________
 62
     7
370
     9
100
AcDbCircle
 10
-72.4097532766
 20
215.0
 30
0.0
 40
30.75
  0
LINE
  5
A6
330
1F
100
AcDbEntity
  8
1
  6
________________
 62
     7
370
     9
100
AcDbLine
 10
-75.1664832766
 20
237.834195
 30
0.0
 11
-77.6289852766
 21
237.399992
 31
0.0
  0
LINE
  5
A7
330
1F
100
AcDbEntity
  8
1
  6
________________
 62
     7
370
     9
100
AcDbLine
 10
-82.8098822766
 20
235.51432
 30
0.0
 11
-84.9754732766
 21
234.264026
 31
0.0
  0
LINE
  5
A8
330
1F
100
AcDbEntity
  8
1
  6
________________
 62
     7
370
     9
100
AcDbLine
 10
-89.1990742766
 20
230.72001
 30
0.0
 11
-90.8063642766
 21
228.804518
 31
0.0
  0
LINE
  5
A9
330
1F
100
AcDbEntity
  8
1
  6
________________
 62
     7
370
     9
100
AcDbLine
 10
-93.5631182766
 20
224.02968
 30
0.0
 11
-94.4183372766
 21
221.679987
 31
0.0
  0
LINE
  5
AA
330
1F
100
AcDbEntity
  8
1
  6
________________
 62
     7
370
     9
100
AcDbLine
 10
-95.3757472766
 20
216.250252
 30
0.0
 11
-95.3757472766
 21
213.749751
 31
0.0
  0
LINE
  5
AB
330
1F
100
AcDbEntity
  8
1
  6
________________
 62
     7
370
     9
100
AcDbLine
 10
-94.4183412766
 20
208.320025
 30
0.0
 11
-93.5631162766
 21
205.970313
 31
0.0
  0
LINE
  5
AC
330
1F
100
AcDbEntity
  8
1
  6
________________
 62
     7
370
     9
100
AcDbLine
 10
-90.8063782766
 20
201.1955
 30
0.0
 11
-89.1990862766
 21
199.280003
 31
0.0
  0
LINE
  5
AD
330
1F
100
AcDbEntity
  8
1
  6
________________
 62
     7
370
     9
100
AcDbLine
 10
-84.9755192766
 20
195.736004
 30
0.0
 11
-82.8100152766
 21
194.485748
 31
0.0
  0
LINE
  5
AE
330
1F
100
AcDbEntity
  8
1
  6
________________
 62
     7
370
     9
100
AcDbLine
 10
-77.6290322766
 20
192.60002
 30
0.0
 11
-75.1665212766
 21
192.16581
 31
0.0
  0
LINE
  5
AF
330
1F
100
AcDbEntity
  8
1
  6
________________
 62
     7
370
     9
100
AcDbLine
 10
-69.6530232766
 20
192.165805
 30
0.0
 11
-67.1905212766
 21
192.600008
 31
0.0
  0
LINE
  5
B0
330
1F
100
AcDbEntity
  8
1
  6
________________
 62
     7
370
     9
100
AcDbLine
 10
-62.0095162766
 20
194.485735
 30
0.0
 11
-59.8440212766
 21
195.735982
 31
0.0
  0
LINE
  5
B1
330
1F
100
AcDbEntity
  8
1
  6
________________
 62
     7
370
     9
100
AcDbLine
 10
-55.6204322766
 20
199.27999
 30
0.0
 11
-54.0131422766
 21
201.195482
 31
0.0
  0
LINE
  5
B2
330
1F
100
AcDbEntity
  8
1
  6
________________
 62
     7
370
     9
100
AcDbLine
 10
-51.2563882766
 20
205.97032
 30
0.0
 11
-50.4011692766
 21
208.320013
 31
0.0
  0
LINE
  5
B3
330
1F
100
AcDbEntity
  8
1
  6
________________
 62
     7
370
     9
100
AcDbLine
 10
-49.4437592766
 20
213.749748
 30
0.0
 11
-49.4437592766
 21
216.250249
 31
0.0
  0
LINE
  5
B4
330
1F
100
AcDbEntity
  8
1
  6
________________
 62
     7
370
     9
100
AcDbLine
 10
-50.4011652766
 20
221.679975
 30
0.0
 11
-51.2563902766
 21
224.029687
 31
0.0
  0
LINE
  5
B5
330
1F
100
AcDbEntity
  8
1
  6
________________
 62
     7
370
     9
100
AcDbLine
 10
-54.0131282766
 20
228.8045
 30
0.0
 11
-55.6204202766
 21
230.719997
 31
0.0
  0
LINE
  5
B6
330
1F
100
AcDbEntity
  8
1
  6
________________
 62
     7
370
     9
100
AcDbLine
 10
-59.8439872766
 20
234.263996
 30
0.0
 11
-62.0094912766
 21
235.514252
 31
0.0
  0
LINE
  5
B7
330
1F
100
AcDbEntity
  8
1
  6
________________
 62
     7
370
     9
100
AcDbLine
 10
-67.1904742766
 20
237.39998
 30
0.0
 11
-69.6529852766
 21
237.83419
 31
0.0
  0
ARC
  5
B8
330
1F
100
AcDbEntity
  8
1
  6
________________
 62
     7
370
     9
100
AcDbCircle
 10
-72.4097532766
 20
215.0
 30
0.0
 40
22.2
100
AcDbArc
 50
276.77146
 51
283.2289519999999
  0
ARC
  5
B9
330
1F
100
AcDbEntity
  8
1
  6
________________
 62
     7
370
     9
100
AcDbCircle
 10
-72.4097532766
 20
215.0
 30
0.0
 40
22.2
100
AcDbArc
 50
296.771786
 51
303.228214
  0
ARC
  5
BA
330
1F
100
AcDbEntity
  8
1
  6
________________
 62
     7
370
     9
100
AcDbCircle
 10
-72.4097532766
 20
215.0
 30
0.0
 40
22.2
100
AcDbArc
 50
316.771048
 51
323.22854
  0
ARC
  5
BB
330
1F
100
AcDbEntity
  8
1
  6
________________
 62
     7
370
     9
100
AcDbCircle
 10
-72.4097532766
 20
215.0
 30
0.0
 40
22.2
100
AcDbArc
 50
336.77146
 51
343.228952
  0
ARC
  5
BC
330
1F
100
AcDbEntity
  8
1
  6
________________
 62
     7
370
     9
100
AcDbCircle
 10
-72.4097532766
 20
215.0
 30
0.0
 40
22.2
100
AcDbArc
 50
356.771786
 51
3.22821399999998
  0
ARC
  5
BD
330
1F
100
AcDbEntity
  8
1
  6
________________
 62
     7
370
     9
100
AcDbCircle
 10
-72.4097532766
 20
215.0
 30
0.0
 40
22.2
100
AcDbArc
 50
16.771048
 51
23.22854
  0
ARC
  5
BE
330
1F
100
AcDbEntity
  8
1
  6
________________
 62
     7
370
     9
100
AcDbCircle
 10
-72.4097532766
 20
215.0
 30
0.0
 40
22.2
100
AcDbArc
 50
36.77146
 51
43.228952
  0
ARC
  5
BF
330
1F
100
AcDbEntity
  8
1
  6
________________
 62
     7
370
     9
100
AcDbCircle
 10
-72.4097532766
 20
215.0
 30
0.0
 40
22.2
100
AcDbArc
 50
56.771786
 51
63.228214
  0
ARC
  5
C0
330
1F
100
AcDbEntity
  8
1
  6
________________
 62
     7
370
     9
100
AcDbCircle
 10
-72.4097532766
 20
215.0
 30
0.0
 40
22.2
100
AcDbArc
 50
76.771048
 51
83.22854
  0
ARC
  5
C1
330
1F
100
AcDbEntity
  8
1
  6
________________
 62
     7
370
     9
100
AcDbCircle
 10
-72.4097532766
 20
215.0
 30
0.0
 40
22.2
100
AcDbArc
 50
96.77146
 51
103.228952
  0
ARC
  5
C2
330
1F
100
AcDbEntity
  8
1
  6
________________
 62
     7
370
     9
100
AcDbCircle
 10
-72.4097532766
 20
215.0
 30
0.0
 40
22.2
100
AcDbArc
 50
116.771786
 51
123.228214
  0
ARC
  5
C3
330
1F
100
AcDbEntity
  8
1
  6
________________
 62
     7
370
     9
100
AcDbCircle
 10
-72.4097532766
 20
215.0
 30
0.0
 40
22.2
100
AcDbArc
 50
136.771048
 51
143.22854
  0
ARC
  5
C4
330
1F
100
AcDbEntity
  8
1
  6
________________
 62
     7
370
     9
100
AcDbCircle
 10
-72.4097532766
 20
215.0
 30
0.0
 40
22.2
100
AcDbArc
 50
156.77146
 51
163.228952
  0
ARC
  5
C5
330
1F
100
AcDbEntity
  8
1
  6
________________
 62
     7
370
     9
100
AcDbCircle
 10
-72.4097532766
 20
215.0
 30
0.0
 40
22.2
100
AcDbArc
 50
176.771786
 51
183.228214
  0
ARC
  5
C6
330
1F
100
AcDbEntity
  8
1
  6
________________
 62
     7
370
     9
100
AcDbCircle
 10
-72.4097532766
 20
215.0
 30
0.0
 40
22.2
100
AcDbArc
 50
196.771048
 51
203.22854
  0
ARC
  5
C7
330
1F
100
AcDbEntity
  8
1
  6
________________
 62
     7
370
     9
100
AcDbCircle
 10
-72.4097532766
 20
215.0
 30
0.0
 40
22.2
100
AcDbArc
 50
216.77146
 51
223.228952
  0
ARC
  5
C8
330
1F
100
AcDbEntity
  8
1
  6
________________
 62
     7
370
     9
100
AcDbCircle
 10
-72.4097532766
 20
215.0
 30
0.0
 40
22.2
100
AcDbArc
 50
236.771786
 51
243.228214
  0
ARC
  5
C9
330
1F
100
AcDbEntity
  8
1
  6
________________
 62
     7
370
     9
100
AcDbCircle
 10
-72.4097532766
 20
215.0
 30
0.0
 40
22.2
100
AcDbArc
 50
256.7710480000001
 51
263.22854
  0
CIRCLE
  5
CA
330
1F
100
AcDbEntity
  8
1
  6
________________
 62
     7
370
     9
100
AcDbCircle
 10
-72.4097532766
 20
215.0
 30
0.0
 40
17.0
  0
LINE
  5
CB
330
1F
100
AcDbEntity
  8
1
  6
________________
 62
     7
370
     9
100
AcDbLine
 10
-67.1398482766
 20
192.311344
 30
0.0
 11
-67.4516226147
 21
194.0795091167
 31
0.0
  0
LINE
  5
CC
330
1F
100
AcDbEntity
  8
1
  6
________________
 62
     7
370
     9
100
AcDbLine
 10
-69.6017742766
 20
191.876699
 30
0.0
 11
-69.9136431973
 21
193.6453888377
 31
0.0
  0
LINE
  5
CD
330
1F
100
AcDbEntity
  8
1
  6
________________
 62
     7
370
     9
100
AcDbLine
 10
-50.1258322766
 20
208.219538
 30
0.0
 11
-51.3744996022
 21
208.6740151055
 31
0.0
  0
LINE
  5
CE
330
1F
100
AcDbEntity
  8
1
  6
________________
 62
     7
370
     9
100
AcDbLine
 10
-52.2295491032
 20
206.3247844765
 30
0.0
 11
-50.9803742766
 21
205.870122
 31
0.0
  0
LINE
  5
CF
330
1F
100
AcDbEntity
  8
1
  6
________________
 62
     7
370
     9
100
AcDbLine
 10
-50.9803742766
 20
224.129878
 30
0.0
 11
-52.2295491032
 21
223.6752155235
 31
0.0
  0
LINE
  5
D0
330
1F
100
AcDbEntity
  8
1
  6
________________
 62
     7
370
     9
100
AcDbLine
 10
-53.7883572766
 20
201.006552
 30
0.0
 11
-54.8066921437
 21
201.8610415418
 31
0.0
  0
LINE
  5
D1
330
1F
100
AcDbEntity
  8
1
  6
________________
 62
     7
370
     9
100
AcDbLine
 10
-51.3744996022
 20
221.3259848945
 30
0.0
 11
-50.1258322766
 21
221.780462
 31
0.0
  0
LINE
  5
D2
330
1F
100
AcDbEntity
  8
1
  6
________________
 62
     7
370
     9
100
AcDbLine
 10
-56.4136605409
 20
199.9459312603
 30
0.0
 11
-55.3957412766
 21
199.091789
 31
0.0
  0
LINE
  5
D3
330
1F
100
AcDbEntity
  8
1
  6
________________
 62
     7
370
     9
100
AcDbLine
 10
-55.3957412766
 20
230.908211
 30
0.0
 11
-56.4136605409
 21
230.0540687397
 31
0.0
  0
LINE
  5
D4
330
1F
100
AcDbEntity
  8
1
  6
________________
 62
     7
370
     9
100
AcDbLine
 10
-49.1440892766
 20
216.25
 30
0.0
 11
-50.4794662766
 21
216.25
 31
0.0
  0
LINE
  5
D5
330
1F
100
AcDbEntity
  8
1
  6
________________
 62
     7
370
     9
100
AcDbLine
 10
-50.4794662766
 20
213.75
 30
0.0
 11
-49.1440892766
 21
213.75
 31
0.0
  0
LINE
  5
D6
330
1F
100
AcDbEntity
  8
1
  6
________________
 62
     7
370
     9
100
AcDbLine
 10
-54.8066921437
 20
228.1389584582
 30
0.0
 11
-53.7883572766
 21
228.993448
 31
0.0
  0
LINE
  5
D7
330
1F
100
AcDbEntity
  8
1
  6
________________
 62
     7
370
     9
100
AcDbLine
 10
-60.362077176
 20
233.3671853646
 30
0.0
 11
-59.6943892766
 21
234.523656
 31
0.0
  0
LINE
  5
D8
330
1F
100
AcDbEntity
  8
1
  6
________________
 62
     7
370
     9
100
AcDbLine
 10
-84.4574293772
 20
196.6328146354
 30
0.0
 11
-85.1251172766
 21
195.476344
 31
0.0
  0
LINE
  5
D9
330
1F
100
AcDbEntity
  8
1
  6
________________
 62
     7
370
     9
100
AcDbLine
 10
-82.2923656272
 20
234.6171857976
 30
0.0
 11
-82.9600532766
 21
235.773656
 31
0.0
  0
LINE
  5
DA
330
1F
100
AcDbEntity
  8
1
  6
________________
 62
     7
370
     9
100
AcDbLine
 10
-85.1251172766
 20
234.523656
 30
0.0
 11
-84.4574293772
 21
233.3671853646
 31
0.0
  0
LINE
  5
DB
330
1F
100
AcDbEntity
  8
1
  6
________________
 62
     7
370
     9
100
AcDbLine
 10
-67.3705884456
 20
236.3800568535
 30
0.0
 11
-67.1398452766
 21
237.688672
 31
0.0
  0
LINE
  5
DC
330
1F
100
AcDbEntity
  8
1
  6
________________
 62
     7
370
     9
100
AcDbLine
 10
-75.2177362766
 20
191.876674
 30
0.0
 11
-74.9868988427
 21
193.1858230998
 31
0.0
  0
LINE
  5
DD
330
1F
100
AcDbEntity
  8
1
  6
________________
 62
     7
370
     9
100
AcDbLine
 10
-69.6017702766
 20
238.123326
 30
0.0
 11
-69.8326077105
 21
236.8141769002
 31
0.0
  0
LINE
  5
DE
330
1F
100
AcDbEntity
  8
1
  6
________________
 62
     7
370
     9
100
AcDbLine
 10
-74.9868988427
 20
236.8141769002
 30
0.0
 11
-75.2177362766
 21
238.123326
 31
0.0
  0
LINE
  5
DF
330
1F
100
AcDbEntity
  8
1
  6
________________
 62
     7
370
     9
100
AcDbLine
 10
-61.8594532766
 20
235.773656
 30
0.0
 11
-62.52714092600001
 21
234.6171857976
 31
0.0
  0
LINE
  5
E0
330
1F
100
AcDbEntity
  8
1
  6
________________
 62
     7
370
     9
100
AcDbLine
 10
-77.4489181076
 20
193.6199431465
 30
0.0
 11
-77.6796612766
 21
192.311328
 31
0.0
  0
LINE
  5
E1
330
1F
100
AcDbEntity
  8
1
  6
________________
 62
     7
370
     9
100
AcDbLine
 10
-77.6796612766
 20
237.688672
 30
0.0
 11
-77.4489181076
 21
236.3800568535
 31
0.0
  0
LINE
  5
E2
330
1F
100
AcDbEntity
  8
1
  6
________________
 62
     7
370
     9
100
AcDbLine
 10
-59.6943892766
 20
195.476344
 30
0.0
 11
-60.362077176
 21
196.6328146354
 31
0.0
  0
LINE
  5
E3
330
1F
100
AcDbEntity
  8
1
  6
________________
 62
     7
370
     9
100
AcDbLine
 10
-62.52714092600001
 20
195.3828142024
 30
0.0
 11
-61.8594532766
 21
194.226344
 31
0.0
  0
LINE
  5
E4
330
1F
100
AcDbEntity
  8
1
  6
________________
 62
     7
370
     9
100
AcDbLine
 10
-82.9600532766
 20
194.226344
 30
0.0
 11
-82.2923656272
 21
195.3828142024
 31
0.0
  0
LINE
  5
E5
330
1F
100
AcDbEntity
  8
1
  6
________________
 62
     7
370
     9
100
AcDbLine
 10
-94.6936742766
 20
221.780462
 30
0.0
 11
-93.445006951
 21
221.3259848945
 31
0.0
  0
LINE
  5
E6
330
1F
100
AcDbEntity
  8
1
  6
________________
 62
     7
370
     9
100
AcDbLine
 10
-93.8391322766
 20
205.870122
 30
0.0
 11
-92.58995745
 21
206.3247844765
 31
0.0
  0
LINE
  5
E7
330
1F
100
AcDbEntity
  8
1
  6
________________
 62
     7
370
     9
100
AcDbLine
 10
-89.4237652766
 20
199.091789
 30
0.0
 11
-88.4058460123
 21
199.9459312603
 31
0.0
  0
LINE
  5
E8
330
1F
100
AcDbEntity
  8
1
  6
________________
 62
     7
370
     9
100
AcDbLine
 10
-92.58995745
 20
223.6752155235
 30
0.0
 11
-93.8391322766
 21
224.129878
 31
0.0
  0
LINE
  5
E9
330
1F
100
AcDbEntity
  8
1
  6
________________
 62
     7
370
     9
100
AcDbLine
 10
-90.0128144095
 20
201.8610415418
 30
0.0
 11
-91.0311492766
 21
201.006552
 31
0.0
  0
LINE
  5
EA
330
1F
100
AcDbEntity
  8
1
  6
________________
 62
     7
370
     9
100
AcDbLine
 10
-88.4058460123
 20
230.0540687397
 30
0.0
 11
-89.4237652766
 21
230.908211
 31
0.0
  0
LINE
  5
EB
330
1F
100
AcDbEntity
  8
1
  6
________________
 62
     7
370
     9
100
AcDbLine
 10
-95.6754172766
 20
213.75
 30
0.0
 11
-94.3400402766
 21
213.75
 31
0.0
  0
LINE
  5
EC
330
1F
100
AcDbEntity
  8
1
  6
________________
 62
     7
370
     9
100
AcDbLine
 10
-93.445006951
 20
208.6740151055
 30
0.0
 11
-94.6936742766
 21
208.219538
 31
0.0
  0
LINE
  5
ED
330
1F
100
AcDbEntity
  8
1
  6
________________
 62
     7
370
     9
100
AcDbLine
 10
-91.0311492766
 20
228.993448
 30
0.0
 11
-90.0128144095
 21
228.1389584582
 31
0.0
  0
LINE
  5
EE
330
1F
100
AcDbEntity
  8
1
  6
________________
 62
     7
370
     9
100
AcDbLine
 10
-94.3400402766
 20
216.25
 30
0.0
 11
-95.6754172766
 21
216.25
 31
0.0
  0
ARC
  5
EF
330
1F
100
AcDbEntity
  8
1
  6
________________
 62
     7
370
     9
100
AcDbCircle
 10
-72.4097532766
 20
215.0
 30
0.0
 40
21.5
100
AcDbArc
 50
44.562439
 51
55.437561
  0
ARC
  5
F0
330
1F
100
AcDbEntity
  8
1
  6
________________
 62
     7
370
     9
100
AcDbCircle
 10
-56.7350572766
 20
230.437095
 30
0.0
 40
0.5
100
AcDbArc
 50
224.562439
 51
310.0
  0
ARC
  5
F1
330
1F
100
AcDbEntity
  8
1
  6
________________
 62
     7
370
     9
100
AcDbCircle
 10
-72.4097532766
 20
215.0
 30
0.0
 40
21.5
100
AcDbArc
 50
4.562439
 51
15.437561
  0
ARC
  5
F2
330
1F
100
AcDbEntity
  8
1
  6
________________
 62
     7
370
     9
100
AcDbCircle
 10
-52.4005592766
 20
224.145062
 30
0.0
 40
0.5
100
AcDbArc
 50
204.562439
 51
289.9999999999999
  0
ARC
  5
F3
330
1F
100
AcDbEntity
  8
1
  6
________________
 62
     7
370
     9
100
AcDbCircle
 10
-51.2034892766
 20
209.143862
 30
0.0
 40
0.5
100
AcDbArc
 50
164.562439
 51
250.0
  0
ARC
  5
F4
330
1F
100
AcDbEntity
  8
1
  6
________________
 62
     7
370
     9
100
AcDbCircle
 10
-72.4097532766
 20
215.0
 30
0.0
 40
21.5
100
AcDbArc
 50
344.5624389999999
 51
355.437561
  0
ARC
  5
F5
330
1F
100
AcDbEntity
  8
1
  6
________________
 62
     7
370
     9
100
AcDbCircle
 10
-54.4853002766
 20
202.244061
 30
0.0
 40
0.5
100
AcDbArc
 50
144.562439
 51
230.0
  0
ARC
  5
F6
330
1F
100
AcDbEntity
  8
1
  6
________________
 62
     7
370
     9
100
AcDbCircle
 10
-72.4097532766
 20
215.0
 30
0.0
 40
21.5
100
AcDbArc
 50
24.562439
 51
35.437561
  0
ARC
  5
F7
330
1F
100
AcDbEntity
  8
1
  6
________________
 62
     7
370
     9
100
AcDbCircle
 10
-56.7350572766
 20
199.562905
 30
0.0
 40
0.5
100
AcDbArc
 50
50.0
 51
135.437561
  0
ARC
  5
F8
330
1F
100
AcDbEntity
  8
1
  6
________________
 62
     7
370
     9
100
AcDbCircle
 10
-72.4097532766
 20
215.0
 30
0.0
 40
21.5
100
AcDbArc
 50
304.562439
 51
315.437561
  0
ARC
  5
F9
330
1F
100
AcDbEntity
  8
1
  6
________________
 62
     7
370
     9
100
AcDbCircle
 10
-72.4097532766
 20
215.0
 30
0.0
 40
21.5
100
AcDbArc
 50
324.562439
 51
335.437561
  0
ARC
  5
FA
330
1F
100
AcDbEntity
  8
1
  6
________________
 62
     7
370
     9
100
AcDbCircle
 10
-50.4794662766
 20
216.75
 30
0.0
 40
0.5
100
AcDbArc
 50
184.562439
 51
270.0
  0
ARC
  5
FB
330
1F
100
AcDbEntity
  8
1
  6
________________
 62
     7
370
     9
100
AcDbCircle
 10
-52.4005592766
 20
205.854938
 30
0.0
 40
0.5
100
AcDbArc
 50
70.0
 51
155.437561
  0
ARC
  5
FC
330
1F
100
AcDbEntity
  8
1
  6
________________
 62
     7
370
     9
100
AcDbCircle
 10
-54.4853002766
 20
227.755939
 30
0.0
 40
0.5
100
AcDbArc
 50
130.0
 51
215.437561
  0
ARC
  5
FD
330
1F
100
AcDbEntity
  8
1
  6
________________
 62
     7
370
     9
100
AcDbCircle
 10
-50.4794662766
 20
213.25
 30
0.0
 40
0.5
100
AcDbArc
 50
90.0
 51
175.437561
  0
ARC
  5
FE
330
1F
100
AcDbEntity
  8
1
  6
________________
 62
     7
370
     9
100
AcDbCircle
 10
-51.2034892766
 20
220.856138
 30
0.0
 40
0.5
100
AcDbArc
 50
110.0
 51
195.437561
  0
ARC
  5
FF
330
1F
100
AcDbEntity
  8
1
  6
________________
 62
     7
370
     9
100
AcDbCircle
 10
-72.4097532766
 20
215.0
 30
0.0
 40
21.5
100
AcDbArc
 50
124.562439
 51
135.437561
  0
ARC
  5
100
330
1F
100
AcDbEntity
  8
1
  6
________________
 62
     7
370
     9
100
AcDbCircle
 10
-81.8593522766
 20
234.867186
 30
0.0
 40
0.5
100
AcDbArc
 50
210.0
 51
295.437561
  0
ARC
  5
101
330
1F
100
AcDbEntity
  8
1
  6
________________
 62
     7
370
     9
100
AcDbCircle
 10
-74.4944942766
 20
193.098999
 30
0.0
 40
0.5
100
AcDbArc
 50
84.56243900000001
 51
170.0
  0
ARC
  5
102
330
1F
100
AcDbEntity
  8
1
  6
________________
 62
     7
370
     9
100
AcDbCircle
 10
-62.96015427659999
 20
195.132814
 30
0.0
 40
0.5
100
AcDbArc
 50
30.0
 51
115.437561
  0
ARC
  5
103
330
1F
100
AcDbEntity
  8
1
  6
________________
 62
     7
370
     9
100
AcDbCircle
 10
-77.9413212766
 20
236.293233
 30
0.0
 40
0.5
100
AcDbArc
 50
284.5624389999999
 51
9.999999999999945
  0
ARC
  5
104
330
1F
100
AcDbEntity
  8
1
  6
________________
 62
     7
370
     9
100
AcDbCircle
 10
-62.96015427659999
 20
234.867186
 30
0.0
 40
0.5
100
AcDbArc
 50
244.562439
 51
330.0
  0
ARC
  5
105
330
1F
100
AcDbEntity
  8
1
  6
________________
 62
     7
370
     9
100
AcDbCircle
 10
-84.8904412766
 20
196.882814
 30
0.0
 40
0.5
100
AcDbArc
 50
330.0
 51
55.43756100000002
  0
ARC
  5
106
330
1F
100
AcDbEntity
  8
1
  6
________________
 62
     7
370
     9
100
AcDbCircle
 10
-81.8593522766
 20
195.132814
 30
0.0
 40
0.5
100
AcDbArc
 50
64.56243900000001
 51
150.0
  0
ARC
  5
107
330
1F
100
AcDbEntity
  8
1
  6
________________
 62
     7
370
     9
100
AcDbCircle
 10
-72.4097532766
 20
215.0
 30
0.0
 40
21.5
100
AcDbArc
 50
224.562439
 51
235.437561
  0
ARC
  5
108
330
1F
100
AcDbEntity
  8
1
  6
________________
 62
     7
370
     9
100
AcDbCircle
 10
-72.4097532766
 20
215.0
 30
0.0
 40
21.5
100
AcDbArc
 50
264.562439
 51
276.666971
  0
ARC
  5
109
330
1F
100
AcDbEntity
  8
1
  6
________________
 62
     7
370
     9
100
AcDbCircle
 10
-72.4097532766
 20
215.0
 30
0.0
 40
21.5
100
AcDbArc
 50
283.333029
 51
295.437561
  0
ARC
  5
10A
330
1F
100
AcDbEntity
  8
1
  6
________________
 62
     7
370
     9
100
AcDbCircle
 10
-74.4944942766
 20
236.901001
 30
0.0
 40
0.5
100
AcDbArc
 50
190.0
 51
275.437561
  0
ARC
  5
10B
330
1F
100
AcDbEntity
  8
1
  6
________________
 62
     7
370
     9
100
AcDbCircle
 10
-72.4097532766
 20
215.0
 30
0.0
 40
21.5
100
AcDbArc
 50
64.56243900000001
 51
75.437561
  0
ARC
  5
10C
330
1F
100
AcDbEntity
  8
1
  6
________________
 62
     7
370
     9
100
AcDbCircle
 10
-70.3250122766
 20
236.901001
 30
0.0
 40
0.5
100
AcDbArc
 50
264.562439
 51
349.9999999999999
  0
ARC
  5
10D
330
1F
100
AcDbEntity
  8
1
  6
________________
 62
     7
370
     9
100
AcDbCircle
 10
-77.9413212766
 20
193.706767
 30
0.0
 40
0.5
100
AcDbArc
 50
349.9999999999999
 51
75.43756099999996
  0
ARC
  5
10E
330
1F
100
AcDbEntity
  8
1
  6
________________
 62
     7
370
     9
100
AcDbCircle
 10
-66.8781852766
 20
236.293233
 30
0.0
 40
0.5
100
AcDbArc
 50
170.0
 51
255.437561
  0
ARC
  5
10F
330
1F
100
AcDbEntity
  8
1
  6
________________
 62
     7
370
     9
100
AcDbCircle
 10
-59.9290652766
 20
233.117186
 30
0.0
 40
0.5
100
AcDbArc
 50
150.0
 51
235.437561
  0
ARC
  5
110
330
1F
100
AcDbEntity
  8
1
  6
________________
 62
     7
370
     9
100
AcDbCircle
 10
-72.4097532766
 20
215.0
 30
0.0
 40
21.5
100
AcDbArc
 50
104.562439
 51
115.437561
  0
ARC
  5
111
330
1F
100
AcDbEntity
  8
1
  6
________________
 62
     7
370
     9
100
AcDbCircle
 10
-59.9290652766
 20
196.882814
 30
0.0
 40
0.5
100
AcDbArc
 50
124.562439
 51
210.0
  0
ARC
  5
112
330
1F
100
AcDbEntity
  8
1
  6
________________
 62
     7
370
     9
100
AcDbCircle
 10
-72.4097532766
 20
215.0
 30
0.0
 40
21.5
100
AcDbArc
 50
244.562439
 51
255.437561
  0
ARC
  5
113
330
1F
100
AcDbEntity
  8
1
  6
________________
 62
     7
370
     9
100
AcDbCircle
 10
-84.8904412766
 20
233.117186
 30
0.0
 40
0.5
100
AcDbArc
 50
304.562439
 51
30.0
  0
ARC
  5
114
330
1F
100
AcDbEntity
  8
1
  6
________________
 62
     7
370
     9
100
AcDbCircle
 10
-72.4097532766
 20
215.0
 30
0.0
 40
21.5
100
AcDbArc
 50
84.56243900000001
 51
95.437561
  0
ARC
  5
115
330
1F
100
AcDbEntity
  8
1
  6
________________
 62
     7
370
     9
100
AcDbCircle
 10
-72.4097532766
 20
215.0
 30
0.0
 40
21.5
100
AcDbArc
 50
144.562439
 51
155.437561
  0
ARC
  5
116
330
1F
100
AcDbEntity
  8
1
  6
________________
 62
     7
370
     9
100
AcDbCircle
 10
-72.4097532766
 20
215.0
 30
0.0
 40
21.5
100
AcDbArc
 50
164.562439
 51
175.437561
  0
ARC
  5
117
330
1F
100
AcDbEntity
  8
1
  6
________________
 62
     7
370
     9
100
AcDbCircle
 10
-88.0844492766
 20
230.437095
 30
0.0
 40
0.5
100
AcDbArc
 50
230.0
 51
315.437561
  0
ARC
  5
118
330
1F
100
AcDbEntity
  8
1
  6
________________
 62
     7
370
     9
100
AcDbCircle
 10
-92.4189472766
 20
205.854938
 30
0.0
 40
0.5
100
AcDbArc
 50
24.562439
 51
110.0
  0
ARC
  5
119
330
1F
100
AcDbEntity
  8
1
  6
________________
 62
     7
370
     9
100
AcDbCircle
 10
-90.3342062766
 20
227.755939
 30
0.0
 40
0.5
100
AcDbArc
 50
324.562439
 51
50.0
  0
ARC
  5
11A
330
1F
100
AcDbEntity
  8
1
  6
________________
 62
     7
370
     9
100
AcDbCircle
 10
-94.3400402766
 20
213.25
 30
0.0
 40
0.5
100
AcDbArc
 50
4.562439
 51
90.0
  0
ARC
  5
11B
330
1F
100
AcDbEntity
  8
1
  6
________________
 62
     7
370
     9
100
AcDbCircle
 10
-93.6160172766
 20
220.856138
 30
0.0
 40
0.5
100
AcDbArc
 50
344.5624389999999
 51
70.0
  0
ARC
  5
11C
330
1F
100
AcDbEntity
  8
1
  6
________________
 62
     7
370
     9
100
AcDbCircle
 10
-92.4189472766
 20
224.145062
 30
0.0
 40
0.5
100
AcDbArc
 50
250.0
 51
335.437561
  0
ARC
  5
11D
330
1F
100
AcDbEntity
  8
1
  6
________________
 62
     7
370
     9
100
AcDbCircle
 10
-88.0844492766
 20
199.562905
 30
0.0
 40
0.5
100
AcDbArc
 50
44.562439
 51
130.0
  0
ARC
  5
11E
330
1F
100
AcDbEntity
  8
1
  6
________________
 62
     7
370
     9
100
AcDbCircle
 10
-90.3342062766
 20
202.244061
 30
0.0
 40
0.5
100
AcDbArc
 50
310.0
 51
35.43756099999996
  0
ARC
  5
11F
330
1F
100
AcDbEntity
  8
1
  6
________________
 62
     7
370
     9
100
AcDbCircle
 10
-93.6160172766
 20
209.143862
 30
0.0
 40
0.5
100
AcDbArc
 50
289.9999999999999
 51
15.43756099999996
  0
ARC
  5
120
330
1F
100
AcDbEntity
  8
1
  6
________________
 62
     7
370
     9
100
AcDbCircle
 10
-94.3400402766
 20
216.75
 30
0.0
 40
0.5
100
AcDbArc
 50
270.0
 51
355.437561
  0
ARC
  5
121
330
1F
100
AcDbEntity
  8
1
  6
________________
 62
     7
370
     9
100
AcDbCircle
 10
-72.4097532766
 20
215.0
 30
0.0
 40
21.5
100
AcDbArc
 50
204.562439
 51
215.437561
  0
ARC
  5
122
330
1F
100
AcDbEntity
  8
1
  6
________________
 62
     7
370
     9
100
AcDbCircle
 10
-72.4097532766
 20
215.0
 30
0.0
 40
21.5
100
AcDbArc
 50
184.562439
 51
195.437561
  0
CIRCLE
  5
123
330
1F
100
AcDbEntity
  8
1
  6
________________
 62
     7
370
     9
100
AcDbCircle
 10
125.0902467234
 20
215.0
 30
0.0
 40
30.75
  0
LINE
  5
124
330
1F
100
AcDbEntity
  8
1
  6
________________
 62
     7
370
     9
100
AcDbLine
 10
5.8797767234
 20
245.27122
 30
0.0
 11
5.8797767234
 21
245.057948
 31
0.0
  0
LINE
  5
125
330
1F
100
AcDbEntity
  8
1
  6
________________
 62
     7
370
     9
100
AcDbLine
 10
5.8797767234
 20
218.586994
 30
0.0
 11
5.8797767234
 21
211.413006
 31
0.0
  0
ARC
  5
126
330
1F
100
AcDbEntity
  8
1
  6
________________
 62
     7
370
     9
100
AcDbCircle
 10
4.0697587234
 20
218.595429
 30
0.0
 40
1.810038
100
AcDbArc
 50
359.732982
 51
87.69374699999997
  0
LINE
  5
127
330
1F
100
AcDbEntity
  8
1
  6
________________
 62
     7
370
     9
100
AcDbLine
 10
-6.0724712766
 20
220.764985
 30
0.0
 11
4.142595723400001
 21
220.404001
 31
0.0
  0
LINE
  5
128
330
1F
100
AcDbEntity
  8
1
  6
________________
 62
     7
370
     9
100
AcDbLine
 10
4.1425957234
 20
232.19634
 30
0.0
 11
-6.072471276599999
 21
231.636055
 31
0.0
  0
ARC
  5
129
330
1F
100
AcDbEntity
  8
1
  6
________________
 62
     7
370
     9
100
AcDbCircle
 10
4.1568297234
 20
233.950554
 30
0.0
 40
1.754272
100
AcDbArc
 50
269.5351199999999
 51
347.818183
  0
LINE
  5
12A
330
1F
100
AcDbEntity
  8
1
  6
________________
 62
     7
370
     9
100
AcDbLine
 10
5.8797767234
 20
238.790566
 30
0.0
 11
5.8797767234
 21
233.717791
 31
0.0
  0
ARC
  5
12B
330
1F
100
AcDbEntity
  8
1
  6
________________
 62
     7
370
     9
100
AcDbCircle
 10
4.2853287234
 20
237.822054
 30
0.0
 40
2.021743
100
AcDbArc
 50
44.844081
 51
94.04838200000002
  0
LINE
  5
12C
330
1F
100
AcDbEntity
  8
1
  6
________________
 62
     7
370
     9
100
AcDbLine
 10
-6.0724712766
 20
239.788976
 30
0.0
 11
4.142595723400001
 21
239.838752
 31
0.0
  0
LINE
  5
12D
330
1F
100
AcDbEntity
  8
1
  6
________________
 62
     7
370
     9
100
AcDbLine
 10
5.8797767234
 20
245.057948
 30
0.0
 11
5.7904697234
 21
244.981903
 31
0.0
  0
ARC
  5
12E
330
1F
100
AcDbEntity
  8
1
  6
________________
 62
     7
370
     9
100
AcDbCircle
 10
-5.9045732766
 20
227.74077
 30
0.0
 40
3.898902
100
AcDbArc
 50
92.468072
 51
120.862908
  0
LINE
  5
12F
330
1F
100
AcDbEntity
  8
1
  6
________________
 62
     7
370
     9
100
AcDbLine
 10
-7.904654276600001
 20
220.810341
 30
0.0
 11
-6.0724712766
 21
220.764985
 31
0.0
  0
ARC
  5
130
330
1F
100
AcDbEntity
  8
1
  6
________________
 62
     7
370
     9
100
AcDbCircle
 10
-6.0929062766
 20
236.158645
 30
0.0
 40
3.630388
100
AcDbArc
 50
89.67748300000002
 51
119.937221
  0
LINE
  5
131
330
1F
100
AcDbEntity
  8
1
  6
________________
 62
     7
370
     9
100
AcDbLine
 10
-10.1562702766
 20
188.514487
 30
0.0
 11
-10.1562702766
 21
241.485513
 31
0.0
  0
ARC
  5
132
330
1F
100
AcDbEntity
  8
1
  6
________________
 62
     7
370
     9
100
AcDbCircle
 10
5.0189563533
 20
232.3389773657
 30
0.0
 40
0.8822575633
100
AcDbArc
 50
180.892299075
 51
182.9496906037
  0
ARC
  5
133
330
1F
100
AcDbEntity
  8
1
  6
________________
 62
     7
370
     9
100
AcDbCircle
 10
5.8901953904
 20
244.7564292914
 30
0.0
 40
0.3016986884
100
AcDbArc
 50
91.9789801138
 51
116.392981304
  0
ARC
  5
134
330
1F
100
AcDbEntity
  8
1
  6
________________
 62
     7
370
     9
100
AcDbCircle
 10
5.8894207066
 20
244.7580003182
 30
0.0
 40
0.299947049
100
AcDbArc
 50
116.3938267094
 51
134.7873664492
  0
ARC
  5
135
330
1F
100
AcDbEntity
  8
1
  6
________________
 62
     7
370
     9
100
AcDbCircle
 10
5.7328369573
 20
244.9015408935
 30
0.0
 40
0.0883318549
100
AcDbArc
 50
128.2801963924
 51
146.7558083321
  0
LINE
  5
136
330
1F
100
AcDbEntity
  8
1
  6
________________
 62
     7
370
     9
100
AcDbLine
 10
23.3973607234
 20
186.549886
 30
0.0
 11
23.3973607234
 21
243.450114
 31
0.0
  0
LINE
  5
137
330
1F
100
AcDbEntity
  8
1
  6
________________
 62
     7
370
     9
100
AcDbLine
 10
64.8575737234
 20
243.5
 30
0.0
 11
64.8575737234
 21
186.5
 31
0.0
  0
LINE
  5
138
330
1F
100
AcDbEntity
  8
1
  6
________________
 62
     7
370
     9
100
AcDbLine
 10
63.8916477234
 20
187.241181
 30
0.0
 11
63.8916477234
 21
242.758819
 31
0.0
  0
LINE
  5
139
330
1F
100
AcDbEntity
  8
1
  6
________________
 62
     7
370
     9
100
AcDbLine
 10
63.14769872339999
 20
239.719868
 30
0.0
 11
63.14769872339999
 21
216.25
 31
0.0
  0
LINE
  5
13A
330
1F
100
AcDbEntity
  8
1
  6
________________
 62
     7
370
     9
100
AcDbLine
 10
47.2028347234
 20
188.557109
 30
0.0
 11
47.2028347234
 21
241.442891
 31
0.0
  0
LINE
  5
13B
330
1F
100
AcDbEntity
  8
1
  6
________________
 62
     7
370
     9
100
AcDbLine
 10
61.2158467234
 20
216.25
 30
0.0
 11
61.2158467234
 21
238.4676327695
 31
0.0
  0
LINE
  5
13C
330
1F
100
AcDbEntity
  8
1
  6
________________
 62
     7
370
     9
100
AcDbLine
 10
50.2516767234
 20
238.466732
 30
0.0
 11
50.2516767234
 21
216.25
 31
0.0
  0
MTEXT
  5
13D
330
1F
100
AcDbEntity
  8
1
 62
     7
100
AcDbMText
 10
19.57936263636363
 20
172.4296137272727
 30
0.0
 40
5.0
 41
0.0
 46
0.0
 71
     1
 72
     1
  1
{\FＭＳ ゴシック;\W0.873966;MFK-36B}
 73
     1
 44
1.0
  0
LINE
  5
13E
330
1F
100
AcDbEntity
  8
1
  6
________...._...
 62
     5
420
      255
370
     9
100
AcDbLine
 10
-102.9097532766
 20
215.0
 30
0.0
 11
-41.90975327660001
 21
215.0
 31
0.0
  0
LINE
  5
140
330
1F
100
AcDbEntity
  8
1
  6
________...._...
 62
     5
420
      255
370
     9
100
AcDbLine
 10
-72.4097532766
 20
178.5
 30
0.0
 11
-72.4097532766
 21
251.5
 31
0.0
  0
LINE
  5
141
330
1F
100
AcDbEntity
  8
1
  6
________...._...
 62
     5
420
      255
370
     9
100
AcDbLine
 10
76.4829560339
 20
215.0
 30
0.0
 11
-22.6633320708
 21
215.0
 31
0.0
  0
LINE
  5
142
330
1F
100
AcDbEntity
  8
1
  6
________...._...
 62
     5
420
      255
370
     9
100
AcDbLine
 10
94.5902467234
 20
215.0
 30
0.0
 11
155.5902467234
 21
215.0
 31
0.0
  0
LINE
  5
143
330
1F
100
AcDbEntity
  8
1
  6
________...._...
 62
     5
420
      255
370
     9
100
AcDbLine
 10
125.0902467234
 20
178.5
 30
0.0
 11
125.0902467234
 21
251.5
 31
0.0
  0
CIRCLE
  5
144
330
1F
100
AcDbEntity
  8
1
  6
________________
 62
     7
370
     9
100
AcDbCircle
 10
125.0902467234
 20
215.0
 30
0.0
 40
28.5
  0
CIRCLE
  5
145
330
1F
100
AcDbEntity
  8
1
  6
________________
 62
     7
370
     9
100
AcDbCircle
 10
125.0902467234
 20
215.0
 30
0.0
 40
15.0
  0
CIRCLE
  5
146
330
1F
100
AcDbEntity
  8
1
  6
________________
 62
     7
370
     9
100
AcDbCircle
 10
125.0902467234
 20
215.0
 30
0.0
 40
17.0
  0
LINE
  5
147
330
1F
100
AcDbEntity
  8
1
  6
________________
 62
     7
370
     9
100
AcDbLine
 10
104.4724437234
 20
232.466677
 30
0.0
 11
104.4711217234
 21
232.498853
 31
0.0
  0
LINE
  5
148
330
1F
100
AcDbEntity
  8
1
  6
________________
 62
     7
370
     9
100
AcDbLine
 10
103.4238250749
 20
233.5152956485
 30
0.0
 11
107.2358277234
 21
229.703293
 31
0.0
  0
LINE
  5
149
330
1F
100
AcDbEntity
  8
1
  6
________________
 62
     7
370
     9
100
AcDbLine
 10
110.3869537234
 20
232.854419
 30
0.0
 11
106.5749510749
 21
236.6664216485
 31
0.0
  0
LINE
  5
14A
330
1F
100
AcDbEntity
  8
1
  6
________________
 62
     7
370
     9
100
AcDbLine
 10
107.6235697234
 20
235.617803
 30
0.0
 11
107.5913937234
 21
235.619125
 31
0.0
  0
ARC
  5
14B
330
1F
100
AcDbEntity
  8
1
  6
________________
 62
     7
370
     9
100
AcDbCircle
 10
109.6798470839
 20
232.1473688137
 30
0.0
 40
1.0000024111
100
AcDbArc
 50
314.99989547
 51
333.4331037787999
  0
ARC
  5
14C
330
1F
100
AcDbEntity
  8
1
  6
________________
 62
     7
370
     9
100
AcDbCircle
 10
109.6799048738
 20
232.1473403767
 30
0.0
 40
0.9999380049
100
AcDbArc
 50
333.4330801911
 51
26.56677870319999
  0
ARC
  5
14D
330
1F
100
AcDbEntity
  8
1
  6
________________
 62
     7
370
     9
100
AcDbCircle
 10
109.679943497
 20
232.1473786795
 30
0.0
 40
0.9998850979
100
AcDbArc
 50
26.5658054414
 51
45.00119530980001
  0
ARC
  5
14E
330
1F
100
AcDbEntity
  8
1
  6
________________
 62
     7
370
     9
100
AcDbCircle
 10
107.9429375371
 20
230.4103996395
 30
0.0
 40
1.0000024111
100
AcDbArc
 50
224.9998954699
 51
243.4331037788
  0
ARC
  5
14F
330
1F
100
AcDbEntity
  8
1
  6
________________
 62
     7
370
     9
100
AcDbCircle
 10
107.9429091001
 20
230.4103418496
 30
0.0
 40
0.9999380049
100
AcDbArc
 50
243.4330801911
 51
296.5667787033
  0
ARC
  5
150
330
1F
100
AcDbEntity
  8
1
  6
________________
 62
     7
370
     9
100
AcDbCircle
 10
107.9429474029
 20
230.4103032264
 30
0.0
 40
0.9998850979
100
AcDbArc
 50
296.5658054414
 51
315.0011953098
  0
LINE
  5
151
330
1F
100
AcDbEntity
  8
1
  6
________________
 62
     7
370
     9
100
AcDbLine
 10
108.6499867234
 20
229.703293
 30
0.0
 11
110.3869537234
 21
231.44026
 31
0.0
  0
ARC
  5
152
330
1F
100
AcDbEntity
  8
1
  6
________________
 62
     7
370
     9
100
AcDbCircle
 10
125.0902467234
 20
215.0
 30
0.0
 40
27.021817
100
AcDbArc
 50
130.270096
 51
139.729904
  0
LINE
  5
153
330
1F
100
AcDbEntity
  8
1
  6
________________
 62
     7
370
     9
100
AcDbLine
 10
107.6235697234
 20
194.382197
 30
0.0
 11
107.5913937234
 21
194.380875
 31
0.0
  0
LINE
  5
154
330
1F
100
AcDbEntity
  8
1
  6
________________
 62
     7
370
     9
100
AcDbLine
 10
106.5749510749
 20
193.3335783515
 30
0.0
 11
110.3869537234
 21
197.145581
 31
0.0
  0
LINE
  5
155
330
1F
100
AcDbEntity
  8
1
  6
________________
 62
     7
370
     9
100
AcDbLine
 10
107.2358277234
 20
200.296707
 30
0.0
 11
103.4238250749
 21
196.4847043515
 31
0.0
  0
LINE
  5
156
330
1F
100
AcDbEntity
  8
1
  6
________________
 62
     7
370
     9
100
AcDbLine
 10
104.4724437234
 20
197.533323
 30
0.0
 11
104.4711217234
 21
197.501147
 31
0.0
  0
ARC
  5
157
330
1F
100
AcDbEntity
  8
1
  6
________________
 62
     7
370
     9
100
AcDbCircle
 10
107.9428779097
 20
199.5896003605
 30
0.0
 40
1.0000024111
100
AcDbArc
 50
44.9998954699
 51
63.43310377879999
  0
ARC
  5
158
330
1F
100
AcDbEntity
  8
1
  6
________________
 62
     7
370
     9
100
AcDbCircle
 10
107.9429063467
 20
199.5896581504
 30
0.0
 40
0.9999380049
100
AcDbArc
 50
63.4330801911
 51
116.5667787033
  0
ARC
  5
159
330
1F
100
AcDbEntity
  8
1
  6
________________
 62
     7
370
     9
100
AcDbCircle
 10
107.942868044
 20
199.5896967739
 30
0.0
 40
0.9998850977
100
AcDbArc
 50
116.5658054519
 51
135.0011953202
  0
ARC
  5
15A
330
1F
100
AcDbEntity
  8
1
  6
________________
 62
     7
370
     9
100
AcDbCircle
 10
109.679847084
 20
197.852690814
 30
0.0
 40
1.0000024113
100
AcDbArc
 50
314.9998954555
 51
333.4331037642999
  0
ARC
  5
15B
330
1F
100
AcDbEntity
  8
1
  6
________________
 62
     7
370
     9
100
AcDbCircle
 10
109.6799048738
 20
197.8526623764
 30
0.0
 40
0.9999380049
100
AcDbArc
 50
333.4330802033
 51
26.56677871280004
  0
ARC
  5
15C
330
1F
100
AcDbEntity
  8
1
  6
________________
 62
     7
370
     9
100
AcDbCircle
 10
109.6799434971
 20
197.8527006792
 30
0.0
 40
0.9998850980999999
100
AcDbArc
 50
26.5658054559
 51
45.0011953243
  0
LINE
  5
15D
330
1F
100
AcDbEntity
  8
1
  6
________________
 62
     7
370
     9
100
AcDbLine
 10
110.3869537234
 20
198.55974
 30
0.0
 11
108.6499867234
 21
200.296707
 31
0.0
  0
ARC
  5
15E
330
1F
100
AcDbEntity
  8
1
  6
________________
 62
     7
370
     9
100
AcDbCircle
 10
125.0902467234
 20
215.0
 30
0.0
 40
27.021817
100
AcDbArc
 50
220.270096
 51
229.7299039999999
  0
LINE
  5
15F
330
1F
100
AcDbEntity
  8
1
  6
________________
 62
     7
370
     9
100
AcDbLine
 10
145.7080497234
 20
197.533323
 30
0.0
 11
145.7093717234
 21
197.501147
 31
0.0
  0
LINE
  5
160
330
1F
100
AcDbEntity
  8
1
  6
________________
 62
     7
370
     9
100
AcDbLine
 10
146.7566683719
 20
196.4847043516
 30
0.0
 11
142.9446657234
 21
200.296707
 31
0.0
  0
LINE
  5
161
330
1F
100
AcDbEntity
  8
1
  6
________________
 62
     7
370
     9
100
AcDbLine
 10
139.7935397234
 20
197.145581
 30
0.0
 11
143.6055423719
 21
193.3335783516
 31
0.0
  0
LINE
  5
162
330
1F
100
AcDbEntity
  8
1
  6
________________
 62
     7
370
     9
100
AcDbLine
 10
142.5569237234
 20
194.382197
 30
0.0
 11
142.5890997234
 21
194.380875
 31
0.0
  0
ARC
  5
163
330
1F
100
AcDbEntity
  8
1
  6
________________
 62
     7
370
     9
100
AcDbCircle
 10
140.5006463629
 20
197.8526311863
 30
0.0
 40
1.0000024111
100
AcDbArc
 50
134.99989547
 51
153.4331037788
  0
ARC
  5
164
330
1F
100
AcDbEntity
  8
1
  6
________________
 62
     7
370
     9
100
AcDbCircle
 10
140.500588573
 20
197.8526596233
 30
0.0
 40
0.9999380049
100
AcDbArc
 50
153.4330801911
 51
206.5667787032
  0
ARC
  5
165
330
1F
100
AcDbEntity
  8
1
  6
________________
 62
     7
370
     9
100
AcDbCircle
 10
140.5005499495
 20
197.8526213206
 30
0.0
 40
0.9998850977
100
AcDbArc
 50
206.5658054519
 51
225.0011953202
  0
ARC
  5
166
330
1F
100
AcDbEntity
  8
1
  6
________________
 62
     7
370
     9
100
AcDbCircle
 10
142.2375559094
 20
199.5896003606
 30
0.0
 40
1.0000024113
100
AcDbArc
 50
44.9998954554
 51
63.43310376439999
  0
ARC
  5
167
330
1F
100
AcDbEntity
  8
1
  6
________________
 62
     7
370
     9
100
AcDbCircle
 10
142.2375843467
 20
199.5896581505
 30
0.0
 40
0.9999380049
100
AcDbArc
 50
63.4330801911
 51
116.5667787033
  0
ARC
  5
168
330
1F
100
AcDbEntity
  8
1
  6
________________
 62
     7
370
     9
100
AcDbCircle
 10
142.2375460443
 20
199.589696774
 30
0.0
 40
0.9998850979
100
AcDbArc
 50
116.5658054664
 51
135.0011953348
  0
LINE
  5
169
330
1F
100
AcDbEntity
  8
1
  6
________________
 62
     7
370
     9
100
AcDbLine
 10
141.5305067234
 20
200.296707
 30
0.0
 11
139.7935397234
 21
198.55974
 31
0.0
  0
ARC
  5
16A
330
1F
100
AcDbEntity
  8
1
  6
________________
 62
     7
370
     9
100
AcDbCircle
 10
125.0902467234
 20
215.0
 30
0.0
 40
27.021817
100
AcDbArc
 50
310.270096
 51
319.729904
  0
LINE
  5
16B
330
1F
100
AcDbEntity
  8
1
  6
________________
 62
     7
370
     9
100
AcDbLine
 10
142.5569237234
 20
235.617803
 30
0.0
 11
142.5890997234
 21
235.619125
 31
0.0
  0
LINE
  5
16C
330
1F
100
AcDbEntity
  8
1
  6
________________
 62
     7
370
     9
100
AcDbLine
 10
143.6055423719
 20
236.6664216485
 30
0.0
 11
139.7935397234
 21
232.854419
 31
0.0
  0
LINE
  5
16D
330
1F
100
AcDbEntity
  8
1
  6
________________
 62
     7
370
     9
100
AcDbLine
 10
142.9446657234
 20
229.703293
 30
0.0
 11
146.7566683719
 21
233.5152956485
 31
0.0
  0
LINE
  5
16E
330
1F
100
AcDbEntity
  8
1
  6
________________
 62
     7
370
     9
100
AcDbLine
 10
145.7080497234
 20
232.466677
 30
0.0
 11
145.7093717234
 21
232.498853
 31
0.0
  0
ARC
  5
16F
330
1F
100
AcDbEntity
  8
1
  6
________________
 62
     7
370
     9
100
AcDbCircle
 10
142.2376155371
 20
230.4103996395
 30
0.0
 40
1.0000024111
100
AcDbArc
 50
224.9998954699
 51
243.4331037788
  0
ARC
  5
170
330
1F
100
AcDbEntity
  8
1
  6
________________
 62
     7
370
     9
100
AcDbCircle
 10
142.2375871001
 20
230.4103418496
 30
0.0
 40
0.9999380049
100
AcDbArc
 50
243.4330801911
 51
296.5667787033
  0
ARC
  5
171
330
1F
100
AcDbEntity
  8
1
  6
________________
 62
     7
370
     9
100
AcDbCircle
 10
142.2376254029
 20
230.4103032264
 30
0.0
 40
0.9998850979
100
AcDbArc
 50
296.5658054414
 51
315.0011953098
  0
ARC
  5
172
330
1F
100
AcDbEntity
  8
1
  6
________________
 62
     7
370
     9
100
AcDbCircle
 10
140.5006463629
 20
232.1473091863
 30
0.0
 40
1.0000024111
100
AcDbArc
 50
134.99989547
 51
153.4331037788
  0
ARC
  5
173
330
1F
100
AcDbEntity
  8
1
  6
________________
 62
     7
370
     9
100
AcDbCircle
 10
140.500588573
 20
232.1473376233
 30
0.0
 40
0.9999380049
100
AcDbArc
 50
153.4330801911
 51
206.5667787032
  0
ARC
  5
174
330
1F
100
AcDbEntity
  8
1
  6
________________
 62
     7
370
     9
100
AcDbCircle
 10
140.5005499495
 20
232.1472993206
 30
0.0
 40
0.9998850977
100
AcDbArc
 50
206.5658054519
 51
225.0011953202
  0
LINE
  5
175
330
1F
100
AcDbEntity
  8
1
  6
________________
 62
     7
370
     9
100
AcDbLine
 10
139.7935397234
 20
231.44026
 30
0.0
 11
141.5305067234
 21
229.703293
 31
0.0
  0
ARC
  5
176
330
1F
100
AcDbEntity
  8
1
  6
________________
 62
     7
370
     9
100
AcDbCircle
 10
125.0902467234
 20
215.0
 30
0.0
 40
27.021817
100
AcDbArc
 50
40.27009600000001
 51
49.72990399999999
  0
LINE
  5
177
330
1F
100
AcDbEntity
  8
1
  6
________________
 62
     7
370
     9
100
AcDbLine
 10
70.0902467234
 20
186.5
 30
0.0
 11
70.0902467234
 21
243.5
 31
0.0
  0
LINE
  5
178
330
1F
100
AcDbEntity
  8
1
  6
________________
 62
     7
370
     9
100
AcDbLine
 10
75.0902467234
 20
187.534946
 30
0.0
 11
75.0902467234
 21
242.465054
 31
0.0
  0
ARC
  5
179
330
1F
100
AcDbEntity
  8
1
  6
________________
 62
     7
370
     9
100
AcDbCircle
 10
74.0902467234
 20
242.465054
 30
0.0
 40
1.0
100
AcDbArc
 50
0.0
 51
89.5
  0
ARC
  5
17A
330
1F
100
AcDbEntity
  8
1
  6
________________
 62
     7
370
     9
100
AcDbCircle
 10
61.2758656079
 20
240.466732
 30
0.0
 40
2.0
100
AcDbArc
 50
270.0
 51
345.3199988998
  0
LINE
  5
17B
330
1F
100
AcDbEntity
  8
1
  6
________________
 62
     7
370
     9
100
AcDbLine
 10
4.1425957234
 20
185.276701
 30
0.0
 11
-6.072471276600001
 21
185.70808
 31
0.0
  0
LINE
  5
17C
330
1F
100
AcDbEntity
  8
1
  6
________________
 62
     7
370
     9
100
AcDbLine
 10
-7.904654276600001
 20
198.912423
 30
0.0
 11
-7.904654276600001
 21
190.69536
 31
0.0
  0
LINE
  5
17D
330
1F
100
AcDbEntity
  8
1
  6
________________
 62
     7
370
     9
100
AcDbLine
 10
-7.904654276600001
 20
186.438389
 30
0.0
 11
-7.904654276600001
 21
185.853376
 31
0.0
  0
ARC
  5
17E
330
1F
100
AcDbEntity
  8
1
  6
________________
 62
     7
370
     9
100
AcDbCircle
 10
-6.0835584942
 20
185.7093488344
 30
0.0
 40
0.0111597284
100
AcDbArc
 50
322.2983649205
 51
353.4714953725
  0
LINE
  5
17F
330
1F
100
AcDbEntity
  8
1
  6
________________
 62
     7
370
     9
100
AcDbLine
 10
-7.904654276600001
 20
186.438389
 30
0.0
 11
-7.8920952766
 21
186.424081
 31
0.0
  0
LINE
  5
180
330
1F
100
AcDbEntity
  8
1
  6
________________
 62
     7
370
     9
100
AcDbLine
 10
63.3634877234
 20
189.456422
 30
0.0
 11
63.14769872339999
 21
190.280132
 31
0.0
  0
LINE
  5
181
330
1F
100
AcDbEntity
  8
1
  6
________________
 62
     7
370
     9
100
AcDbLine
 10
63.46788972340001
 20
189.0
 30
0.0
 11
63.3634877234
 21
189.456422
 31
0.0
  0
LINE
  5
182
330
1F
100
AcDbEntity
  8
1
  6
________________
 62
     7
370
     9
100
AcDbLine
 10
48.0836757234
 20
189.0
 30
0.0
 11
48.3200657234
 21
189.476359
 31
0.0
  0
LINE
  5
183
330
1F
100
AcDbEntity
  8
1
  6
________________
 62
     7
370
     9
100
AcDbLine
 10
63.29460372339999
 20
213.75
 30
0.0
 11
48.0836757234
 21
213.75
 31
0.0
  0
LINE
  5
184
330
1F
100
AcDbEntity
  8
1
  6
________________
 62
     7
370
     9
100
AcDbLine
 10
48.3200657234
 20
189.476359
 30
0.0
 11
48.3263857234
 21
189.5
 31
0.0
  0
LINE
  5
185
330
1F
100
AcDbEntity
  8
1
  6
________________
 62
     7
370
     9
100
AcDbLine
 10
48.3263857234
 20
189.5
 30
0.0
 11
48.5130107234
 21
190.197353
 31
0.0
  0
ARC
  5
186
330
1F
100
AcDbEntity
  8
1
  6
________________
 62
     7
370
     9
100
AcDbCircle
 10
50.2526067234
 20
189.732682
 30
0.0
 40
1.800587
100
AcDbArc
 50
90.029572
 51
165.044627
  0
LINE
  5
187
330
1F
100
AcDbEntity
  8
1
  6
________________
 62
     7
370
     9
100
AcDbLine
 10
61.2758656079
 20
191.533268
 30
0.0
 11
50.2516767234
 21
191.533268
 31
0.0
  0
LINE
  5
188
330
1F
100
AcDbEntity
  8
1
  6
________________
 62
     7
370
     9
100
AcDbLine
 10
48.0836757234
 20
189.0
 30
0.0
 11
63.46788972340001
 21
189.0
 31
0.0
  0
LINE
  5
189
330
1F
100
AcDbEntity
  8
1
  6
________________
 62
     7
370
     9
100
AcDbLine
 10
19.5902467234
 20
184.25
 30
0.0
 11
5.879776723399999
 21
184.72878
 31
0.0
  0
ARC
  5
18A
330
1F
100
AcDbEntity
  8
1
  6
________________
 62
     7
370
     9
100
AcDbCircle
 10
-5.9677722766
 20
188.144334
 30
0.0
 40
3.0
100
AcDbArc
 50
205.0
 51
229.787273
  0
LINE
  5
18B
330
1F
100
AcDbEntity
  8
1
  6
________________
 62
     7
370
     9
100
AcDbLine
 10
-8.6866952766
 20
186.87648
 30
0.0
 11
-9.0572812766
 21
187.671202
 31
0.0
  0
ARC
  5
18C
330
1F
100
AcDbEntity
  8
1
  6
________________
 62
     7
370
     9
100
AcDbCircle
 10
-10.4167422766
 20
187.037275
 30
0.0
 40
1.5
100
AcDbArc
 50
25.0
 51
80.0
  0
LINE
  5
18D
330
1F
100
AcDbEntity
  8
1
  6
________________
 62
     7
370
     9
100
AcDbLine
 10
-10.1562702766
 20
188.514487
 30
0.0
 11
-12.9097532766
 21
189.0
 31
0.0
  0
ARC
  5
18E
330
1F
100
AcDbEntity
  8
1
  6
________________
 62
     7
370
     9
100
AcDbCircle
 10
-5.9445812766
 20
188.68159
 30
0.0
 40
2.980104
100
AcDbArc
 50
228.578012
 51
267.47641
  0
LINE
  5
18F
330
1F
100
AcDbEntity
  8
1
  6
________________
 62
     7
370
     9
100
AcDbLine
 10
-6.7913832766
 20
185.824224
 30
0.0
 11
-7.904654276600001
 21
185.853376
 31
0.0
  0
ARC
  5
190
330
1F
100
AcDbEntity
  8
1
  6
________________
 62
     7
370
     9
100
AcDbCircle
 10
4.0149767234
 20
179.215773
 30
0.0
 40
6.059508
100
AcDbArc
 50
74.091244
 51
88.823427
  0
ARC
  5
191
330
1F
100
AcDbEntity
  8
1
  6
________________
 62
     7
370
     9
100
AcDbCircle
 10
5.8902467234
 20
185.028597
 30
0.0
 40
0.3
100
AcDbArc
 50
180.0
 51
267.9999999999999
  0
ARC
  5
192
330
1F
100
AcDbEntity
  8
1
  6
________________
 62
     7
370
     9
100
AcDbCircle
 10
21.4921707234
 20
185.25
 30
0.0
 40
1.0
100
AcDbArc
 50
270.0
 51
330.0
  0
LINE
  5
193
330
1F
100
AcDbEntity
  8
1
  6
________________
 62
     7
370
     9
100
AcDbLine
 10
21.4921707234
 20
184.25
 30
0.0
 11
19.5902467234
 21
184.25
 31
0.0
  0
LINE
  5
194
330
1F
100
AcDbEntity
  8
1
  6
________________
 62
     7
370
     9
100
AcDbLine
 10
23.3973607234
 20
186.549886
 30
0.0
 11
22.3581957234
 21
184.75
 31
0.0
  0
LINE
  5
195
330
1F
100
AcDbEntity
  8
1
  6
________________
 62
     7
370
     9
100
AcDbLine
 10
70.0902467234
 20
186.5
 30
0.0
 11
64.8575737234
 21
186.5
 31
0.0
  0
ARC
  5
196
330
1F
100
AcDbEntity
  8
1
  6
________________
 62
     7
370
     9
100
AcDbCircle
 10
64.8575737234
 20
187.5
 30
0.0
 40
1.0
100
AcDbArc
 50
195.0
 51
270.0
  0
ARC
  5
197
330
1F
100
AcDbEntity
  8
1
  6
________________
 62
     7
370
     9
100
AcDbCircle
 10
25.5624237234
 20
185.299886
 30
0.0
 40
2.5
100
AcDbArc
 50
92.0
 51
150.0
  0
LINE
  5
198
330
1F
100
AcDbEntity
  8
1
  6
________________
 62
     7
370
     9
100
AcDbLine
 10
63.8916477234
 20
187.241181
 30
0.0
 11
63.4205627234
 21
188.999295
 31
0.0
  0
LINE
  5
199
330
1F
100
AcDbEntity
  8
1
  6
________________
 62
     7
370
     9
100
AcDbLine
 10
47.2028347234
 20
188.557109
 30
0.0
 11
25.4751747234
 21
187.798363
 31
0.0
  0
ARC
  5
19A
330
1F
100
AcDbEntity
  8
1
  6
________________
 62
     7
370
     9
100
AcDbCircle
 10
47.1609547234
 20
189.756378
 30
0.0
 40
1.2
100
AcDbArc
 50
272.0000000000001
 51
320.9266280000001
  0
LINE
  5
19B
330
1F
100
AcDbEntity
  8
1
  6
________________
 62
     7
370
     9
100
AcDbLine
 10
5.8797767234
 20
184.72878
 30
0.0
 11
5.8797767234
 21
184.942052
 31
0.0
  0
ARC
  5
19C
330
1F
100
AcDbEntity
  8
1
  6
________________
 62
     7
370
     9
100
AcDbCircle
 10
4.0697587234
 20
211.404571
 30
0.0
 40
1.810038
100
AcDbArc
 50
272.306253
 51
0.2670180000000073
  0
LINE
  5
19D
330
1F
100
AcDbEntity
  8
1
  6
________________
 62
     7
370
     9
100
AcDbLine
 10
-6.0724712766
 20
209.235015
 30
0.0
 11
4.142595723400001
 21
209.595999
 31
0.0
  0
LINE
  5
19E
330
1F
100
AcDbEntity
  8
1
  6
________________
 62
     7
370
     9
100
AcDbLine
 10
4.1425957234
 20
197.80366
 30
0.0
 11
-6.072471276599999
 21
198.363945
 31
0.0
  0
ARC
  5
19F
330
1F
100
AcDbEntity
  8
1
  6
________________
 62
     7
370
     9
100
AcDbCircle
 10
4.1568297234
 20
196.049446
 30
0.0
 40
1.754272
100
AcDbArc
 50
12.181817
 51
90.46488
  0
LINE
  5
1A0
330
1F
100
AcDbEntity
  8
1
  6
________________
 62
     7
370
     9
100
AcDbLine
 10
5.8797767234
 20
191.209434
 30
0.0
 11
5.8797767234
 21
196.282209
 31
0.0
  0
ARC
  5
1A1
330
1F
100
AcDbEntity
  8
1
  6
________________
 62
     7
370
     9
100
AcDbCircle
 10
4.2853287234
 20
192.177946
 30
0.0
 40
2.021743
100
AcDbArc
 50
265.951618
 51
315.155919
  0
LINE
  5
1A2
330
1F
100
AcDbEntity
  8
1
  6
________________
 62
     7
370
     9
100
AcDbLine
 10
-6.0724712766
 20
190.211024
 30
0.0
 11
4.142595723400001
 21
190.161248
 31
0.0
  0
LINE
  5
1A3
330
1F
100
AcDbEntity
  8
1
  6
________________
 62
     7
370
     9
100
AcDbLine
 10
5.8797767234
 20
184.942052
 30
0.0
 11
5.7904697234
 21
185.018097
 31
0.0
  0
ARC
  5
1A4
330
1F
100
AcDbEntity
  8
1
  6
________________
 62
     7
370
     9
100
AcDbCircle
 10
-5.9045732766
 20
202.25923
 30
0.0
 40
3.898902
100
AcDbArc
 50
239.137092
 51
267.531928
  0
LINE
  5
1A5
330
1F
100
AcDbEntity
  8
1
  6
________________
 62
     7
370
     9
100
AcDbLine
 10
-7.904654276600001
 20
209.189659
 30
0.0
 11
-6.0724712766
 21
209.235015
 31
0.0
  0
ARC
  5
1A6
330
1F
100
AcDbEntity
  8
1
  6
________________
 62
     7
370
     9
100
AcDbCircle
 10
-6.0929062766
 20
193.841355
 30
0.0
 40
3.630388
100
AcDbArc
 50
240.062779
 51
270.3225170000001
  0
ARC
  5
1A7
330
1F
100
AcDbEntity
  8
1
  6
________________
 62
     7
370
     9
100
AcDbCircle
 10
5.0189563533
 20
197.6610226343
 30
0.0
 40
0.8822575633
100
AcDbArc
 50
177.0503093963
 51
179.107700925
  0
ARC
  5
1A8
330
1F
100
AcDbEntity
  8
1
  6
________________
 62
     7
370
     9
100
AcDbCircle
 10
5.8901953904
 20
185.2435707086
 30
0.0
 40
0.3016986884
100
AcDbArc
 50
243.6070186960001
 51
268.0210198862
  0
ARC
  5
1A9
330
1F
100
AcDbEntity
  8
1
  6
________________
 62
     7
370
     9
100
AcDbCircle
 10
5.8894207066
 20
185.2419996818
 30
0.0
 40
0.299947049
100
AcDbArc
 50
225.2126335508
 51
243.6061732906
  0
ARC
  5
1AA
330
1F
100
AcDbEntity
  8
1
  6
________________
 62
     7
370
     9
100
AcDbCircle
 10
5.7328369573
 20
185.0984591065
 30
0.0
 40
0.0883318549
100
AcDbArc
 50
213.2441916679
 51
231.7198036076
  0
LINE
  5
1AB
330
1F
100
AcDbEntity
  8
1
  6
________________
 62
     7
370
     9
100
AcDbLine
 10
63.14769872339999
 20
190.280132
 30
0.0
 11
63.14769872339999
 21
213.75
 31
0.0
  0
LINE
  5
1AC
330
1F
100
AcDbEntity
  8
1
  6
________________
 62
     7
370
     9
100
AcDbLine
 10
61.2158467234
 20
213.75
 30
0.0
 11
61.2158467234
 21
191.5323672305
 31
0.0
  0
LINE
  5
1AD
330
1F
100
AcDbEntity
  8
1
  6
________________
 62
     7
370
     9
100
AcDbLine
 10
50.2516767234
 20
191.533268
 30
0.0
 11
50.2516767234
 21
213.75
 31
0.0
  0
ARC
  5
1AE
330
1F
100
AcDbEntity
  8
1
  6
________________
 62
     7
370
     9
100
AcDbCircle
 10
74.0902467234
 20
187.534946
 30
0.0
 40
1.0
100
AcDbArc
 50
270.5000000000001
 51
0.0
  0
ARC
  5
1AF
330
1F
100
AcDbEntity
  8
1
  6
________________
 62
     7
370
     9
100
AcDbCircle
 10
61.2758656079
 20
189.533268
 30
0.0
 40
2.0
100
AcDbArc
 50
14.6800011002
 51
90.0
  0
LINE
  5
1B0
330
1F
100
AcDbEntity
  8
1
  6
________________
 62
     7
370
     9
100
AcDbLine
 10
74.0989732589
 20
243.4650159231
 30
0.0
 11
70.0902467234
 21
243.5
 31
0.0
  0
LINE
  5
1B1
330
1F
100
AcDbEntity
  8
1
  6
________________
 62
     7
370
     9
100
AcDbLine
 10
74.0989732589
 20
186.5349840769
 30
0.0
 11
70.0902467234
 21
186.5
 31
0.0
  0
ENDSEC
  0
SECTION
  2
OBJECTS
  0
DICTIONARY
  5
C
330
0
100
AcDbDictionary
281
     1
  3
ACAD_GROUP
350
D
  3
ACAD_LAYOUT
350
1A
  3
ACAD_MLEADERSTYLE
350
1B3
  3
ACAD_MLINESTYLE
350
17
  3
ACAD_PLOTSETTINGS
350
19
  3
ACAD_PLOTSTYLENAME
350
E
  3
ACAD_TABLESTYLE
350
1B2
  3
ACAD_VISUALSTYLE
350
2A
  0
DICTIONARY
  5
D
102
{ACAD_REACTORS
330
C
102
}
330
C
100
AcDbDictionary
281
     1
  0
DICTIONARY
  5
1A
102
{ACAD_REACTORS
330
C
102
}
330
C
100
AcDbDictionary
281
     1
  3
Layout1
350
1E
  3
Layout2
350
26
  3
Model
350
22
  0
DICTIONARY
  5
1B3
102
{ACAD_REACTORS
330
C
102
}
330
C
100
AcDbDictionary
281
     1
  0
DICTIONARY
  5
17
102
{ACAD_REACTORS
330
C
102
}
330
C
100
AcDbDictionary
281
     1
  3
Standard
350
18
  0
DICTIONARY
  5
19
102
{ACAD_REACTORS
330
C
102
}
330
C
100
AcDbDictionary
281
     1
  0
ACDBDICTIONARYWDFLT
  5
E
102
{ACAD_REACTORS
330
C
102
}
330
C
100
AcDbDictionary
281
     1
  3
Normal
350
F
100
AcDbDictionaryWithDefault
340
F
  0
DICTIONARY
  5
1B2
102
{ACAD_REACTORS
330
C
102
}
330
C
100
AcDbDictionary
281
     1
  0
DICTIONARY
  5
2A
102
{ACAD_REACTORS
330
C
102
}
330
C
100
AcDbDictionary
281
     1
  3
2dWireframe
350
2F
  3
3D Hidden
350
31
  3
3dWireframe
350
30
  3
Basic
350
32
  3
Brighten
350
36
  3
ColorChange
350
3A
  3
Conceptual
350
34
  3
Dim
350
35
  3
Facepattern
350
39
  3
Flat
350
2B
  3
FlatWithEdges
350
2C
  3
Gouraud
350
2D
  3
GouraudWithEdges
350
2E
  3
Linepattern
350
38
  3
Realistic
350
33
  3
Thicken
350
37
  0
LAYOUT
  5
1E
102
{ACAD_REACTORS
330
1A
102
}
330
1A
100
AcDbPlotSettings
  1

  2
none_device
  4

  6

 40
0.0
 41
0.0
 42
0.0
 43
0.0
 44
0.0
 45
0.0
 46
0.0
 47
0.0
 48
0.0
 49
0.0
140
0.0
141
0.0
142
1.0
143
1.0
 70
   688
 72
     0
 73
     0
 74
     5
  7

 75
    16
 76
     0
 77
     2
 78
   300
147
1.0
148
0.0
149
0.0
100
AcDbLayout
  1
Layout1
 70
     1
 71
     1
 10
0.0
 20
0.0
 11
12.0
 21
9.0
 12
0.0
 22
0.0
 32
0.0
 14
1.000000000000000E+20
 24
1.000000000000000E+20
 34
1.000000000000000E+20
 15
-1.000000000000000E+20
 25
-1.000000000000000E+20
 35
-1.000000000000000E+20
146
0.0
 13
0.0
 23
0.0
 33
0.0
 16
1.0
 26
0.0
 36
0.0
 17
0.0
 27
1.0
 37
0.0
 76
     0
330
1B
  0
LAYOUT
  5
26
102
{ACAD_REACTORS
330
1A
102
}
330
1A
100
AcDbPlotSettings
  1

  2
none_device
  4

  6

 40
0.0
 41
0.0
 42
0.0
 43
0.0
 44
0.0
 45
0.0
 46
0.0
 47
0.0
 48
0.0
 49
0.0
140
0.0
141
0.0
142
1.0
143
1.0
 70
   688
 72
     0
 73
     0
 74
     5
  7

 75
    16
 76
     0
 77
     2
 78
   300
147
1.0
148
0.0
149
0.0
100
AcDbLayout
  1
Layout2
 70
     1
 71
     2
 10
0.0
 20
0.0
 11
0.0
 21
0.0
 12
0.0
 22
0.0
 32
0.0
 14
0.0
 24
0.0
 34
0.0
 15
0.0
 25
0.0
 35
0.0
146
0.0
 13
0.0
 23
0.0
 33
0.0
 16
1.0
 26
0.0
 36
0.0
 17
0.0
 27
1.0
 37
0.0
 76
     0
330
23
  0
LAYOUT
  5
22
102
{ACAD_REACTORS
330
1A
102
}
330
1A
100
AcDbPlotSettings
  1

  2
none_device
  4

  6

 40
0.0
 41
0.0
 42
0.0
 43
0.0
 44
0.0
 45
0.0
 46
0.0
 47
0.0
 48
0.0
 49
0.0
140
0.0
141
0.0
142
1.0
143
1.0
 70
  1712
 72
     0
 73
     0
 74
     0
  7

 75
     0
 76
     0
 77
     2
 78
   300
147
1.0
148
0.0
149
0.0
100
AcDbLayout
  1
Model
 70
     1
 71
     0
 10
0.0
 20
0.0
 11
12.0
 21
9.0
 12
0.0
 22
0.0
 32
0.0
 14
-103.1597532766
 24
0.0
 34
0.0
 15
155.8402467234
 25
251.5
 35
10.0
146
0.0
 13
0.0
 23
0.0
 33
0.0
 16
1.0
 26
0.0
 36
0.0
 17
0.0
 27
1.0
 37
0.0
 76
     0
330
1F
331
29
  0
MLINESTYLE
  5
18
102
{ACAD_REACTORS
330
17
102
}
330
17
100
AcDbMlineStyle
  2
Standard
 70
     0
  3

 62
   256
 51
90.0
 52
90.0
 71
     2
 49
0.5
 62
   256
  6
BYLAYER
 49
-0.5
 62
   256
  6
BYLAYER
  0
ACDBPLACEHOLDER
  5
F
102
{ACAD_REACTORS
330
E
102
}
330
E
  0
VISUALSTYLE
  5
2F
102
{ACAD_REACTORS
330
2A
102
}
330
2A
100
AcDbVisualStyle
  2
2dWireframe
 70
     4
 71
     0
 72
     2
 73
     0
 90
        0
 40
-0.6
 41
-30.0
 62
     5
 63
     7
421
 16777215
 74
     1
 91
        4
 64
     7
 65
   257
 75
     1
175
     1
 42
1.0
 92
        0
 66
   257
 43
1.0
 76
     1
 77
     6
 78
     2
 67
     7
 79
     5
170
     0
171
     0
290
     0
174
     0
 93
        1
 44
0.0
173
     0
291
     0
 45
0.0
  0
VISUALSTYLE
  5
31
102
{ACAD_REACTORS
330
2A
102
}
330
2A
100
AcDbVisualStyle
  2
3D Hidden
 70
     6
 71
     1
 72
     2
 73
     2
 90
        0
 40
-0.6
 41
-30.0
 62
     5
 63
     7
421
 16777215
 74
     2
 91
        2
 64
     7
 65
   257
 75
     2
175
     1
 42
40.0
 92
        0
 66
   257
 43
1.0
 76
     1
 77
     6
 78
     2
 67
     7
 79
     3
170
     0
171
     0
290
     0
174
     0
 93
        1
 44
0.0
173
     0
291
     0
 45
0.0
  0
VISUALSTYLE
  5
30
102
{ACAD_REACTORS
330
2A
102
}
330
2A
100
AcDbVisualStyle
  2
3dWireframe
 70
     5
 71
     0
 72
     2
 73
     0
 90
        0
 40
-0.6
 41
-30.0
 62
     5
 63
     7
421
 16777215
 74
     1
 91
        4
 64
     7
 65
   257
 75
     1
175
     1
 42
1.0
 92
        0
 66
   257
 43
1.0
 76
     1
 77
     6
 78
     2
 67
     7
 79
     5
170
     0
171
     0
290
     0
174
     0
 93
        1
 44
0.0
173
     0
291
     0
 45
0.0
  0
VISUALSTYLE
  5
32
102
{ACAD_REACTORS
330
2A
102
}
330
2A
100
AcDbVisualStyle
  2
Basic
 70
     7
 71
     1
 72
     0
 73
     1
 90
        0
 40
-0.6
 41
-30.0
 62
     5
 63
     7
421
 16777215
 74
     0
 91
        4
 64
     7
 65
   257
 75
     1
175
     1
 42
1.0
 92
        8
 66
     7
 43
1.0
 76
     1
 77
     6
 78
     2
 67
     7
 79
     5
170
     0
171
     0
290
     0
174
     0
 93
        1
 44
0.0
173
     0
291
     1
 45
0.0
  0
VISUALSTYLE
  5
36
102
{ACAD_REACTORS
330
2A
102
}
330
2A
100
AcDbVisualStyle
  2
Brighten
 70
    12
 71
     2
 72
     2
 73
     0
 90
        0
 40
-0.6
 41
-30.0
 62
     5
 63
     7
421
 16777215
 74
     1
 91
        4
 64
     7
 65
   257
 75
     1
175
     1
 42
1.0
 92
        8
 66
     7
 43
1.0
 76
     1
 77
     6
 78
     2
 67
     7
 79
     5
170
     0
171
     0
290
     0
174
     0
 93
        1
 44
50.0
173
     0
291
     1
 45
0.0
  0
VISUALSTYLE
  5
3A
102
{ACAD_REACTORS
330
2A
102
}
330
2A
100
AcDbVisualStyle
  2
ColorChange
 70
    16
 71
     2
 72
     2
 73
     3
 90
        0
 40
-0.6
 41
-30.0
 62
     5
 63
     8
421
  8421504
 74
     1
 91
        4
 64
     7
 65
   257
 75
     1
175
     1
 42
1.0
 92
        8
 66
     8
424
  8421504
 43
1.0
 76
     1
 77
     6
 78
     2
 67
     7
 79
     5
170
     0
171
     0
290
     0
174
     0
 93
        1
 44
0.0
173
     0
291
     1
 45
0.0
  0
VISUALSTYLE
  5
34
102
{ACAD_REACTORS
330
2A
102
}
330
2A
100
AcDbVisualStyle
  2
Conceptual
 70
     9
 71
     3
 72
     2
 73
     0
 90
        0
 40
-0.6
 41
-30.0
 62
     5
 63
     7
421
 16777215
 74
     2
 91
        2
 64
     7
 65
   257
 75
     1
175
     1
 42
40.0
 92
        8
 66
     7
 43
1.0
 76
     1
 77
     6
 78
     2
 67
     7
 79
     3
170
     0
171
     0
290
     0
174
     0
 93
        1
 44
0.0
173
     0
291
     0
 45
0.0
  0
VISUALSTYLE
  5
35
102
{ACAD_REACTORS
330
2A
102
}
330
2A
100
AcDbVisualStyle
  2
Dim
 70
    11
 71
     2
 72
     2
 73
     0
 90
        0
 40
-0.6
 41
-30.0
 62
     5
 63
     7
421
 16777215
 74
     1
 91
        4
 64
     7
 65
   257
 75
     1
175
     1
 42
1.0
 92
        8
 66
     7
 43
1.0
 76
     1
 77
     6
 78
     2
 67
     7
 79
     5
170
     0
171
     0
290
     0
174
     0
 93
        1
 44
-50.0
173
     0
291
     1
 45
0.0
  0
VISUALSTYLE
  5
39
102
{ACAD_REACTORS
330
2A
102
}
330
2A
100
AcDbVisualStyle
  2
Facepattern
 70
    15
 71
     2
 72
     2
 73
     0
 90
        0
 40
-0.6
 41
-30.0
 62
     5
 63
     7
421
 16777215
 74
     1
 91
        4
 64
     7
 65
   257
 75
     1
175
     1
 42
1.0
 92
        8
 66
     7
 43
1.0
 76
     1
 77
     6
 78
     2
 67
     7
 79
     5
170
     0
171
     0
290
     0
174
     0
 93
        1
 44
0.0
173
     0
291
     1
 45
0.0
  0
VISUALSTYLE
  5
2B
102
{ACAD_REACTORS
330
2A
102
}
330
2A
100
AcDbVisualStyle
  2
Flat
 70
     0
 71
     2
 72
     1
 73
     1
 90
        2
 40
-0.6
 41
30.0
 62
     5
 63
     7
421
 16777215
 74
     0
 91
        4
 64
     7
 65
   257
 75
     1
175
     1
 42
1.0
 92
        8
 66
     7
 43
1.0
 76
     1
 77
     6
 78
     2
 67
     7
 79
     5
170
     0
171
     0
290
     0
174
     0
 93
       13
 44
0.0
173
     0
291
     1
 45
0.0
  0
VISUALSTYLE
  5
2C
102
{ACAD_REACTORS
330
2A
102
}
330
2A
100
AcDbVisualStyle
  2
FlatWithEdges
 70
     1
 71
     2
 72
     1
 73
     1
 90
        2
 40
-0.6
 41
30.0
 62
     5
 63
     7
421
 16777215
 74
     1
 91
        4
 64
     7
 65
   257
 75
     1
175
     1
 42
1.0
 92
        0
 66
   257
 43
1.0
 76
     1
 77
     6
 78
     2
 67
     7
 79
     5
170
     0
171
     0
290
     0
174
     0
 93
       13
 44
0.0
173
     0
291
     1
 45
0.0
  0
VISUALSTYLE
  5
2D
102
{ACAD_REACTORS
330
2A
102
}
330
2A
100
AcDbVisualStyle
  2
Gouraud
 70
     2
 71
     2
 72
     2
 73
     1
 90
        2
 40
-0.6
 41
30.0
 62
     5
 63
     7
421
 16777215
 74
     0
 91
        4
 64
     7
 65
   257
 75
     1
175
     1
 42
1.0
 92
        0
 66
     7
 43
1.0
 76
     1
 77
     6
 78
     2
 67
     7
 79
     5
170
     0
171
     0
290
     0
174
     0
 93
       13
 44
0.0
173
     0
291
     1
 45
0.0
  0
VISUALSTYLE
  5
2E
102
{ACAD_REACTORS
330
2A
102
}
330
2A
100
AcDbVisualStyle
  2
GouraudWithEdges
 70
     3
 71
     2
 72
     2
 73
     1
 90
        2
 40
-0.6
 41
30.0
 62
     5
 63
     7
421
 16777215
 74
     1
 91
        4
 64
     7
 65
   257
 75
     1
175
     1
 42
1.0
 92
        0
 66
   257
 43
1.0
 76
     1
 77
     6
 78
     2
 67
     7
 79
     5
170
     0
171
     0
290
     0
174
     0
 93
       13
 44
0.0
173
     0
291
     1
 45
0.0
  0
VISUALSTYLE
  5
38
102
{ACAD_REACTORS
330
2A
102
}
330
2A
100
AcDbVisualStyle
  2
Linepattern
 70
    14
 71
     2
 72
     2
 73
     0
 90
        0
 40
-0.6
 41
-30.0
 62
     5
 63
     7
421
 16777215
 74
     1
 91
        4
 64
     7
 65
   257
 75
     7
175
     7
 42
1.0
 92
        8
 66
     7
 43
1.0
 76
     1
 77
     6
 78
     2
 67
     7
 79
     5
170
     0
171
     0
290
     0
174
     0
 93
        1
 44
0.0
173
     0
291
     1
 45
0.0
  0
VISUALSTYLE
  5
33
102
{ACAD_REACTORS
330
2A
102
}
330
2A
100
AcDbVisualStyle
  2
Realistic
 70
     8
 71
     2
 72
     2
 73
     0
 90
        0
 40
-0.6
 41
-30.0
 62
     5
 63
     7
421
 16777215
 74
     1
 91
        0
 64
     7
 65
   257
 75
     1
175
     1
 42
1.0
 92
        8
 66
     8
424
  7895160
 43
1.0
 76
     1
 77
     6
 78
     2
 67
     7
 79
     5
170
     0
171
     0
290
     0
174
     0
 93
       13
 44
0.0
173
     0
291
     0
 45
0.0
  0
VISUALSTYLE
  5
37
102
{ACAD_REACTORS
330
2A
102
}
330
2A
100
AcDbVisualStyle
  2
Thicken
 70
    13
 71
     2
 72
     2
 73
     0
 90
        0
 40
-0.6
 41
-30.0
 62
     5
 63
     7
421
 16777215
 74
     1
 91
        4
 64
     7
 65
   257
 75
     1
175
     1
 42
1.0
 92
       12
 66
     7
 43
1.0
 76
     1
 77
     6
 78
     2
 67
     7
 79
     5
170
     0
171
     0
290
     0
174
     0
 93
        1
 44
0.0
173
     0
291
     1
 45
0.0
  0
ENDSEC
  0
EOF
