  0
SECTION
  2
HEADER
  9
$ACADVER
  1
AC1021
  9
$ACADMAINTVER
 70
    25
  9
$DWGCODEPAGE
  3
ANSI_932
  9
$INSBASE
 10
0.0
 20
0.0
 30
0.0
  9
$EXTMIN
 10
-107.2495058782
 20
0.0
 30
0.0
  9
$EXTMAX
 10
189.9609849952
 20
124.6003273322
 30
10.0
  9
$LIMMIN
 10
0.0
 20
0.0
  9
$LIMMAX
 10
12.0
 20
9.0
  9
$ORTHOMODE
 70
     0
  9
$REGENMODE
 70
     1
  9
$FILLMODE
 70
     1
  9
$QTEXTMODE
 70
     0
  9
$MIRRTEXT
 70
     1
  9
$LTSCALE
 40
1.0
  9
$ATTMODE
 70
     1
  9
$TEXTSIZE
 40
0.2
  9
$TRACEWID
 40
0.05
  9
$TEXTSTYLE
  7
Standard
  9
$CLAYER
  8
0
  9
$CELTYPE
  6
ByLayer
  9
$CECOLOR
 62
   256
  9
$CELTSCALE
 40
1.0
  9
$DISPSILH
 70
     0
  9
$DIMSCALE
 40
1.0
  9
$DIMASZ
 40
0.9
  9
$DIMEXO
 40
0.0625
  9
$DIMDLI
 40
0.38
  9
$DIMRND
 40
0.0
  9
$DIMDLE
 40
0.0
  9
$DIMEXE
 40
0.18
  9
$DIMTP
 40
0.0
  9
$DIMTM
 40
0.0
  9
$DIMTXT
 40
3.0
  9
$DIMCEN
 40
0.09
  9
$DIMTSZ
 40
0.0
  9
$DIMTOL
 70
     0
  9
$DIMLIM
 70
     0
  9
$DIMTIH
 70
     1
  9
$DIMTOH
 70
     1
  9
$DIMSE1
 70
     0
  9
$DIMSE2
 70
     0
  9
$DIMTAD
 70
     1
  9
$DIMZIN
 70
     0
  9
$DIMBLK
  1

  9
$DIMASO
 70
     1
  9
$DIMSHO
 70
     1
  9
$DIMPOST
  1

  9
$DIMAPOST
  1

  9
$DIMALT
 70
     0
  9
$DIMALTD
 70
     2
  9
$DIMALTF
 40
25.4
  9
$DIMLFAC
 40
1.0
  9
$DIMTOFL
 70
     0
  9
$DIMTVP
 40
0.0
  9
$DIMTIX
 70
     0
  9
$DIMSOXD
 70
     0
  9
$DIMSAH
 70
     0
  9
$DIMBLK1
  1

  9
$DIMBLK2
  1

  9
$DIMSTYLE
  2
Standard
  9
$DIMCLRD
 70
     0
  9
$DIMCLRE
 70
     0
  9
$DIMCLRT
 70
     0
  9
$DIMTFAC
 40
1.0
  9
$DIMGAP
 40
0.09
  9
$DIMJUST
 70
     0
  9
$DIMSD1
 70
     0
  9
$DIMSD2
 70
     0
  9
$DIMTOLJ
 70
     1
  9
$DIMTZIN
 70
     0
  9
$DIMALTZ
 70
     0
  9
$DIMALTTZ
 70
     0
  9
$DIMUPT
 70
     0
  9
$DIMDEC
 70
     2
  9
$DIMTDEC
 70
     4
  9
$DIMALTU
 70
     2
  9
$DIMALTTD
 70
     2
  9
$DIMTXSTY
  7
Standard
  9
$DIMAUNIT
 70
     0
  9
$DIMADEC
 70
     2
  9
$DIMALTRND
 40
0.0
  9
$DIMAZIN
 70
     0
  9
$DIMDSEP
 70
    46
  9
$DIMATFIT
 70
     3
  9
$DIMFRAC
 70
     0
  9
$DIMLDRBLK
  1

  9
$DIMLUNIT
 70
     2
  9
$DIMLWD
 70
    -2
  9
$DIMLWE
 70
    -2
  9
$DIMTMOVE
 70
     0
  9
$DIMFXL
 40
1.0
  9
$DIMFXLON
 70
     0
  9
$DIMJOGANG
 40
0.7853981633974483
  9
$DIMTFILL
 70
     0
  9
$DIMTFILLCLR
 70
     0
  9
$DIMARCSYM
 70
     0
  9
$DIMLTYPE
  6

  9
$DIMLTEX1
  6

  9
$DIMLTEX2
  6

  9
$LUNITS
 70
     2
  9
$LUPREC
 70
     4
  9
$SKETCHINC
 40
0.1
  9
$FILLETRAD
 40
0.5
  9
$AUNITS
 70
     0
  9
$AUPREC
 70
     0
  9
$MENU
  1
.
  9
$ELEVATION
 40
0.0
  9
$PELEVATION
 40
0.0
  9
$THICKNESS
 40
0.0
  9
$LIMCHECK
 70
     0
  9
$CHAMFERA
 40
0.5
  9
$CHAMFERB
 40
0.5
  9
$CHAMFERC
 40
1.0
  9
$CHAMFERD
 40
0.0
  9
$SKPOLY
 70
     0
  9
$TDCREATE
 40
2459070.609950382
  9
$TDUCREATE
 40
2459070.234950382
  9
$TDUPDATE
 40
2459070.609950393
  9
$TDUUPDATE
 40
2459070.234950393
  9
$TDINDWG
 40
0.0000000116
  9
$TDUSRTIMER
 40
0.0000000116
  9
$USRTIMER
 70
     1
  9
$ANGBASE
 50
0.0
  9
$ANGDIR
 70
     0
  9
$PDMODE
 70
     0
  9
$PDSIZE
 40
0.0
  9
$PLINEWID
 40
0.0
  9
$SPLFRAME
 70
     0
  9
$SPLINETYPE
 70
     6
  9
$SPLINESEGS
 70
     8
  9
$HANDSEED
  5
1AD
  9
$SURFTAB1
 70
     6
  9
$SURFTAB2
 70
     6
  9
$SURFTYPE
 70
     6
  9
$SURFU
 70
     6
  9
$SURFV
 70
     6
  9
$UCSBASE
  2

  9
$UCSNAME
  2

  9
$UCSORG
 10
0.0
 20
0.0
 30
0.0
  9
$UCSXDIR
 10
1.0
 20
0.0
 30
0.0
  9
$UCSYDIR
 10
0.0
 20
1.0
 30
0.0
  9
$UCSORTHOREF
  2

  9
$UCSORTHOVIEW
 70
     0
  9
$UCSORGTOP
 10
0.0
 20
0.0
 30
0.0
  9
$UCSORGBOTTOM
 10
0.0
 20
0.0
 30
0.0
  9
$UCSORGLEFT
 10
0.0
 20
0.0
 30
0.0
  9
$UCSORGRIGHT
 10
0.0
 20
0.0
 30
0.0
  9
$UCSORGFRONT
 10
0.0
 20
0.0
 30
0.0
  9
$UCSORGBACK
 10
0.0
 20
0.0
 30
0.0
  9
$PUCSBASE
  2

  9
$PUCSNAME
  2

  9
$PUCSORG
 10
0.0
 20
0.0
 30
0.0
  9
$PUCSXDIR
 10
1.0
 20
0.0
 30
0.0
  9
$PUCSYDIR
 10
0.0
 20
1.0
 30
0.0
  9
$PUCSORTHOREF
  2

  9
$PUCSORTHOVIEW
 70
     0
  9
$PUCSORGTOP
 10
0.0
 20
0.0
 30
0.0
  9
$PUCSORGBOTTOM
 10
0.0
 20
0.0
 30
0.0
  9
$PUCSORGLEFT
 10
0.0
 20
0.0
 30
0.0
  9
$PUCSORGRIGHT
 10
0.0
 20
0.0
 30
0.0
  9
$PUCSORGFRONT
 10
0.0
 20
0.0
 30
0.0
  9
$PUCSORGBACK
 10
0.0
 20
0.0
 30
0.0
  9
$USERI1
 70
     0
  9
$USERI2
 70
     0
  9
$USERI3
 70
     0
  9
$USERI4
 70
     0
  9
$USERI5
 70
     0
  9
$USERR1
 40
0.0
  9
$USERR2
 40
0.0
  9
$USERR3
 40
0.0
  9
$USERR4
 40
0.0
  9
$USERR5
 40
0.0
  9
$WORLDVIEW
 70
     1
  9
$SHADEDGE
 70
     3
  9
$SHADEDIF
 70
    70
  9
$TILEMODE
 70
     1
  9
$MAXACTVP
 70
    64
  9
$PINSBASE
 10
0.0
 20
0.0
 30
0.0
  9
$PLIMCHECK
 70
     0
  9
$PEXTMIN
 10
1.000000000000000E+20
 20
1.000000000000000E+20
 30
1.000000000000000E+20
  9
$PEXTMAX
 10
-1.000000000000000E+20
 20
-1.000000000000000E+20
 30
-1.000000000000000E+20
  9
$PLIMMIN
 10
0.0
 20
0.0
  9
$PLIMMAX
 10
12.0
 20
9.0
  9
$UNITMODE
 70
     0
  9
$VISRETAIN
 70
     1
  9
$PLINEGEN
 70
     0
  9
$PSLTSCALE
 70
     1
  9
$TREEDEPTH
 70
  3020
  9
$CMLSTYLE
  2
Standard
  9
$CMLJUST
 70
     0
  9
$CMLSCALE
 40
1.0
  9
$PROXYGRAPHICS
 70
     1
  9
$MEASUREMENT
 70
     1
  9
$CELWEIGHT
370
    -1
  9
$ENDCAPS
280
     0
  9
$JOINSTYLE
280
     0
  9
$LWDISPLAY
290
     1
  9
$INSUNITS
 70
     4
  9
$HYPERLINKBASE
  1

  9
$STYLESHEET
  1

  9
$XEDIT
290
     1
  9
$CEPSNTYPE
380
     0
  9
$PSTYLEMODE
290
     1
  9
$FINGERPRINTGUID
  2
{E17DD0A0-648D-4268-9F9A-32A4D3F03517}
  9
$VERSIONGUID
  2
{FAEB1C32-E019-11D5-929B-00C0DF256EC4}
  9
$EXTNAMES
290
     1
  9
$PSVPSCALE
 40
0.0
  9
$OLESTARTUP
290
     0
  9
$SORTENTS
280
   127
  9
$INDEXCTL
280
     0
  9
$HIDETEXT
280
     1
  9
$XCLIPFRAME
290
     0
  9
$HALOGAP
280
     0
  9
$OBSCOLOR
 70
   257
  9
$OBSLTYPE
280
     0
  9
$INTERSECTIONDISPLAY
280
     0
  9
$INTERSECTIONCOLOR
 70
   257
  9
$DIMASSOC
280
     2
  9
$PROJECTNAME
  1

  9
$CAMERADISPLAY
290
     0
  9
$LENSLENGTH
 40
50.0
  9
$CAMERAHEIGHT
 40
0.0
  9
$STEPSPERSEC
 40
2.0
  9
$STEPSIZE
 40
6.0
  9
$3DDWFPREC
 40
2.0
  9
$PSOLWIDTH
 40
0.25
  9
$PSOLHEIGHT
 40
4.0
  9
$LOFTANG1
 40
1.570796326794897
  9
$LOFTANG2
 40
1.570796326794897
  9
$LOFTMAG1
 40
0.0
  9
$LOFTMAG2
 40
0.0
  9
$LOFTPARAM
 70
     7
  9
$LOFTNORMALS
280
     1
  9
$LATITUDE
 40
37.795
  9
$LONGITUDE
 40
-122.394
  9
$NORTHDIRECTION
 40
0.0
  9
$TIMEZONE
 70
 -8000
  9
$LIGHTGLYPHDISPLAY
280
     1
  9
$TILEMODELIGHTSYNCH
280
     1
  9
$SOLIDHIST
280
     1
  9
$SHOWHIST
280
     1
  9
$DWFFRAME
280
     2
  9
$DGNFRAME
280
     2
  9
$REALWORLDSCALE
290
     1
  9
$INTERFERECOLOR
 62
   256
  9
$CSHADOW
280
     0
  9
$SHADOWPLANELOCATION
 40
0.0
  0
ENDSEC
  0
SECTION
  2
CLASSES
  0
CLASS
  1
ACDBDICTIONARYWDFLT
  2
AcDbDictionaryWithDefault
  3
ObjectDBX Classes
 90
        0
 91
        4
280
     0
281
     0
  0
CLASS
  1
VISUALSTYLE
  2
AcDbVisualStyle
  3
ObjectDBX Classes
 90
     4095
 91
        4
280
     0
281
     0
  0
ENDSEC
  0
SECTION
  2
TABLES
  0
TABLE
  2
VPORT
  5
8
330
0
100
AcDbSymbolTable
 70
     1
  0
VPORT
  5
29
330
8
100
AcDbSymbolTableRecord
100
AcDbViewportTableRecord
  2
*Active
 70
     0
 10
0.0
 20
0.0
 11
1.0
 21
1.0
 12
41.3557395585
 22
62.3001636661
 13
0.0
 23
0.0
 14
0.5
 24
0.5
 15
0.5
 25
0.5
 16
0.0
 26
0.0
 36
1.0
 17
0.0
 27
0.0
 37
0.0
 40
124.6003273322
 41
1.6
 42
50.0
 43
0.0
 44
0.0
 50
0.0
 51
0.0
 71
     0
 72
   100
 73
     1
 74
     3
 75
     0
 76
     0
 77
     0
 78
     0
281
     0
 65
     1
110
0.0
120
0.0
130
0.0
111
1.0
121
0.0
131
0.0
112
0.0
122
1.0
132
0.0
 79
     0
146
0.0
 60
     3
 61
     5
292
     1
282
     1
141
0.0
142
0.0
 63
   250
  0
ENDTAB
  0
TABLE
  2
LTYPE
  5
5
330
0
100
AcDbSymbolTable
 70
     3
  0
LTYPE
  5
14
330
5
100
AcDbSymbolTableRecord
100
AcDbLinetypeTableRecord
  2
ByBlock
 70
     0
  3

 72
    65
 73
     0
 40
0.0
  0
LTYPE
  5
15
330
5
100
AcDbSymbolTableRecord
100
AcDbLinetypeTableRecord
  2
ByLayer
 70
     0
  3

 72
    65
 73
     0
 40
0.0
  0
LTYPE
  5
16
330
5
100
AcDbSymbolTableRecord
100
AcDbLinetypeTableRecord
  2
Continuous
 70
     0
  3
Solid line
 72
    65
 73
     0
 40
0.0
  0
LTYPE
  5
3D
330
5
100
AcDbSymbolTableRecord
100
AcDbLinetypeTableRecord
  2
________________
 70
     0
  3

 72
    65
 73
     0
 40
0.0
  0
LTYPE
  5
140
330
5
100
AcDbSymbolTableRecord
100
AcDbLinetypeTableRecord
  2
________...._...
 70
     0
  3

 72
    65
 73
     4
 40
6.0000000300003
 49
3.0
 74
     0
 49
-1.5
 74
     0
 49
0.0000000300003
 74
     0
 49
-1.5
 74
     0
  0
ENDTAB
  0
TABLE
  2
LAYER
  5
2
330
0
100
AcDbSymbolTable
 70
     2
  0
LAYER
  5
10
330
2
100
AcDbSymbolTableRecord
100
AcDbLayerTableRecord
  2
0
 70
     0
 62
     7
  6
Continuous
370
    -3
390
F
347
0
  0
LAYER
  5
3B
330
2
100
AcDbSymbolTableRecord
100
AcDbLayerTableRecord
  2
1
 70
     0
 62
     7
  6
Continuous
370
    -3
390
F
347
0
  0
ENDTAB
  0
TABLE
  2
STYLE
  5
3
330
0
100
AcDbSymbolTable
 70
     1
  0
STYLE
  5
11
330
3
100
AcDbSymbolTableRecord
100
AcDbTextStyleTableRecord
  2
Standard
 70
     0
 40
0.0
 41
1.0
 50
0.0
 71
     0
 42
0.2
  3
txt
  4

  0
ENDTAB
  0
TABLE
  2
VIEW
  5
6
330
0
100
AcDbSymbolTable
 70
     0
  0
ENDTAB
  0
TABLE
  2
UCS
  5
7
330
0
100
AcDbSymbolTable
 70
     0
  0
ENDTAB
  0
TABLE
  2
APPID
  5
9
330
0
100
AcDbSymbolTable
 70
     1
  0
APPID
  5
12
330
9
100
AcDbSymbolTableRecord
100
AcDbRegAppTableRecord
  2
ACAD
 70
     0
  0
ENDTAB
  0
TABLE
  2
DIMSTYLE
  5
A
330
0
100
AcDbSymbolTable
 70
     1
100
AcDbDimStyleTable
  0
DIMSTYLE
105
27
330
A
100
AcDbSymbolTableRecord
100
AcDbDimStyleTableRecord
  2
Standard
 70
     0
340
11
  0
ENDTAB
  0
TABLE
  2
BLOCK_RECORD
  5
1
330
0
100
AcDbSymbolTable
 70
     1
  0
BLOCK_RECORD
  5
1F
330
1
100
AcDbSymbolTableRecord
100
AcDbBlockTableRecord
  2
*Model_Space
340
22
 70
     0
280
     1
281
     0
  0
BLOCK_RECORD
  5
1B
330
1
100
AcDbSymbolTableRecord
100
AcDbBlockTableRecord
  2
*Paper_Space
340
1E
 70
     0
280
     1
281
     0
  0
BLOCK_RECORD
  5
23
330
1
100
AcDbSymbolTableRecord
100
AcDbBlockTableRecord
  2
*Paper_Space0
340
26
 70
     0
280
     1
281
     0
  0
ENDTAB
  0
ENDSEC
  0
SECTION
  2
BLOCKS
  0
BLOCK
  5
20
330
1F
100
AcDbEntity
  8
0
100
AcDbBlockBegin
  2
*Model_Space
 70
     0
 10
0.0
 20
0.0
 30
0.0
  3
*Model_Space
  1

  0
ENDBLK
  5
21
330
1F
100
AcDbEntity
  8
0
100
AcDbBlockEnd
  0
BLOCK
  5
1C
330
1B
100
AcDbEntity
 67
     1
  8
0
100
AcDbBlockBegin
  2
*Paper_Space
 70
     0
 10
0.0
 20
0.0
 30
0.0
  3
*Paper_Space
  1

  0
ENDBLK
  5
1D
330
1B
100
AcDbEntity
 67
     1
  8
0
100
AcDbBlockEnd
  0
BLOCK
  5
24
330
23
100
AcDbEntity
  8
0
100
AcDbBlockBegin
  2
*Paper_Space0
 70
     0
 10
0.0
 20
0.0
 30
0.0
  3
*Paper_Space0
  1

  0
ENDBLK
  5
25
330
23
100
AcDbEntity
  8
0
100
AcDbBlockEnd
  0
ENDSEC
  0
SECTION
  2
ENTITIES
  0
LINE
  5
3C
330
1F
100
AcDbEntity
  8
1
  6
________________
 62
     7
370
     9
100
AcDbLine
 10
84.471538
 20
117.5
 30
0.0
 11
84.471538
 21
52.50000000000001
 31
0.0
  0
LINE
  5
3E
330
1F
100
AcDbEntity
  8
1
  6
________________
 62
     7
370
     9
100
AcDbLine
 10
86.471538
 20
117.5
 30
0.0
 11
86.471538
 21
52.50000000000001
 31
0.0
  0
LINE
  5
3F
330
1F
100
AcDbEntity
  8
1
  6
________________
 62
     7
370
     9
100
AcDbLine
 10
12.236974
 20
118.885698
 30
0.0
 11
-0.0538420000000019
 21
118.468548
 31
0.0
  0
LINE
  5
40
330
1F
100
AcDbEntity
  8
1
  6
________________
 62
     7
370
     9
100
AcDbLine
 10
29.971538
 20
50.0
 30
0.0
 11
29.971538
 21
120.0
 31
0.0
  0
LINE
  5
41
330
1F
100
AcDbEntity
  8
1
  6
________________
 62
     7
370
     9
100
AcDbLine
 10
-1.968889
 20
77.846816
 30
0.0
 11
-1.968889
 21
92.153184
 31
0.0
  0
LINE
  5
42
330
1F
100
AcDbEntity
  8
1
  6
________________
 62
     7
370
     9
100
AcDbLine
 10
-1.968889
 20
103.143465
 30
0.0
 11
-1.968889
 21
113.259595
 31
0.0
  0
LINE
  5
43
330
1F
100
AcDbEntity
  8
1
  6
________________
 62
     7
370
     9
100
AcDbLine
 10
-1.968889
 20
117.811918
 30
0.0
 11
-1.968889
 21
118.582585
 31
0.0
  0
LINE
  5
44
330
1F
100
AcDbEntity
  8
1
  6
________________
 62
     7
370
     9
100
AcDbLine
 10
-8.028462
 20
55.5
 30
0.0
 11
-8.028462
 21
114.5
 31
0.0
  0
ARC
  5
45
330
1F
100
AcDbEntity
  8
1
  6
________________
 62
     7
370
     9
100
AcDbCircle
 10
-0.0673699273
 20
118.4672071069
 30
0.0
 40
0.0135941398
100
AcDbArc
 50
5.661305809999999
 51
35.0181998772
  0
LINE
  5
46
330
1F
100
AcDbEntity
  8
1
  6
________________
 62
     7
370
     9
100
AcDbLine
 10
-1.968889
 20
117.811918
 30
0.0
 11
-1.953836
 21
117.827734
 31
0.0
  0
ARC
  5
47
330
1F
100
AcDbEntity
  8
1
  6
________________
 62
     7
370
     9
100
AcDbCircle
 10
12.2258734048
 20
118.8845279704
 30
0.0
 40
0.011162073
100
AcDbArc
 50
6.020029234199999
 51
37.1977403152
  0
LINE
  5
48
330
1F
100
AcDbEntity
  8
1
  6
________________
 62
     7
370
     9
100
AcDbLine
 10
13.971538
 20
119.145123
 30
0.0
 11
13.971538
 21
119.288778
 31
0.0
  0
LINE
  5
49
330
1F
100
AcDbEntity
  8
1
  6
________________
 62
     7
370
     9
100
AcDbLine
 10
79.494315
 20
113.823234
 30
0.0
 11
79.553065
 21
114.043578
 31
0.0
  0
LINE
  5
4A
330
1F
100
AcDbEntity
  8
1
  6
________________
 62
     7
370
     9
100
AcDbLine
 10
79.670538
 20
114.5
 30
0.0
 11
79.553065
 21
114.043578
 31
0.0
  0
LINE
  5
4B
330
1F
100
AcDbEntity
  8
1
  6
________________
 62
     7
370
     9
100
AcDbLine
 10
79.670538
 20
84.208166
 30
0.0
 11
79.670538
 21
85.791834
 31
0.0
  0
LINE
  5
4C
330
1F
100
AcDbEntity
  8
1
  6
________________
 62
     7
370
     9
100
AcDbLine
 10
79.553065
 20
86.289932
 30
0.0
 11
79.670538
 21
85.791834
 31
0.0
  0
LINE
  5
4D
330
1F
100
AcDbEntity
  8
1
  6
________________
 62
     7
370
     9
100
AcDbLine
 10
79.553065
 20
86.289932
 30
0.0
 11
79.494315
 21
86.309209
 31
0.0
  0
LINE
  5
4E
330
1F
100
AcDbEntity
  8
1
  6
________________
 62
     7
370
     9
100
AcDbLine
 10
59.179137
 20
114.500064
 30
0.0
 11
59.593549
 21
114.043578
 31
0.0
  0
LINE
  5
4F
330
1F
100
AcDbEntity
  8
1
  6
________________
 62
     7
370
     9
100
AcDbLine
 10
59.593549
 20
114.043578
 30
0.0
 11
59.701358
 21
113.774241
 31
0.0
  0
LINE
  5
50
330
1F
100
AcDbEntity
  8
1
  6
________________
 62
     7
370
     9
100
AcDbLine
 10
59.179195
 20
85.791834
 30
0.0
 11
59.179195
 21
84.208166
 31
0.0
  0
ARC
  5
51
330
1F
100
AcDbEntity
  8
1
  6
________________
 62
     7
370
     9
100
AcDbCircle
 10
77.316684
 20
72.019379
 30
0.0
 40
14.454803
100
AcDbArc
 50
81.335342
 51
90.94018600000003
  0
LINE
  5
52
330
1F
100
AcDbEntity
  8
1
  6
________________
 62
     7
370
     9
100
AcDbLine
 10
61.719447
 20
86.472236
 30
0.0
 11
59.787595
 21
86.341798
 31
0.0
  0
LINE
  5
53
330
1F
100
AcDbEntity
  8
1
  6
________________
 62
     7
370
     9
100
AcDbLine
 10
61.719447
 20
86.472236
 30
0.0
 11
77.0795
 21
86.472236
 31
0.0
  0
ARC
  5
54
330
1F
100
AcDbEntity
  8
1
  6
________________
 62
     7
370
     9
100
AcDbCircle
 10
77.074162
 20
114.463151
 30
0.0
 40
2.503325
100
AcDbArc
 50
270.122193
 51
345.18928
  0
LINE
  5
55
330
1F
100
AcDbEntity
  8
1
  6
________________
 62
     7
370
     9
100
AcDbLine
 10
59.787595
 20
113.450738
 30
0.0
 11
59.701358
 21
113.774241
 31
0.0
  0
ARC
  5
56
330
1F
100
AcDbEntity
  8
1
  6
________________
 62
     7
370
     9
100
AcDbCircle
 10
61.724023
 20
113.962819
 30
0.0
 40
2.002992
100
AcDbArc
 50
194.81256
 51
269.8690999999999
  0
LINE
  5
57
330
1F
100
AcDbEntity
  8
1
  6
________________
 62
     7
370
     9
100
AcDbLine
 10
77.0795
 20
111.959832
 30
0.0
 11
61.719447
 21
111.959832
 31
0.0
  0
LINE
  5
58
330
1F
100
AcDbEntity
  8
1
  6
________________
 62
     7
370
     9
100
AcDbLine
 10
59.179195
 20
114.5
 30
0.0
 11
79.670538
 21
114.5
 31
0.0
  0
LINE
  5
59
330
1F
100
AcDbEntity
  8
1
  6
________________
 62
     7
370
     9
100
AcDbLine
 10
81.392331
 20
117.5
 30
0.0
 11
93.471538
 21
117.5
 31
0.0
  0
LINE
  5
5A
330
1F
100
AcDbEntity
  8
1
  6
________________
 62
     7
370
     9
100
AcDbLine
 10
29.971538
 20
120.0
 30
0.0
 11
14.263685
 21
119.588675
 31
0.0
  0
ARC
  5
5B
330
1F
100
AcDbEntity
  8
1
  6
________________
 62
     7
370
     9
100
AcDbCircle
 10
0.037777
 20
115.714957
 30
0.0
 40
3.5
100
AcDbArc
 50
124.982987
 51
150.0
  0
LINE
  5
5C
330
1F
100
AcDbEntity
  8
1
  6
________________
 62
     7
370
     9
100
AcDbLine
 10
-2.993312
 20
117.464957
 30
0.0
 11
-3.862154
 21
115.960078
 31
0.0
  0
ARC
  5
5D
330
1F
100
AcDbEntity
  8
1
  6
________________
 62
     7
370
     9
100
AcDbCircle
 10
-5.594205
 20
116.960078
 30
0.0
 40
2.0
100
AcDbArc
 50
280.0
 51
330.0
  0
LINE
  5
5E
330
1F
100
AcDbEntity
  8
1
  6
________________
 62
     7
370
     9
100
AcDbLine
 10
-5.246908
 20
114.990463
 30
0.0
 11
-8.028462
 21
114.5
 31
0.0
  0
ARC
  5
5F
330
1F
100
AcDbEntity
  8
1
  6
________________
 62
     7
370
     9
100
AcDbCircle
 10
0.065639
 20
115.011358
 30
0.0
 40
3.464182
100
AcDbArc
 50
92.033193
 51
125.955851
  0
LINE
  5
60
330
1F
100
AcDbEntity
  8
1
  6
________________
 62
     7
370
     9
100
AcDbLine
 10
13.284091
 20
118.981999
 30
0.0
 11
-1.968888999999998
 21
118.582585
 31
0.0
  0
ARC
  5
61
330
1F
100
AcDbEntity
  8
1
  6
________________
 62
     7
370
     9
100
AcDbCircle
 10
14.271538
 20
119.288778
 30
0.0
 40
0.3
100
AcDbArc
 50
91.5
 51
180.0
  0
LINE
  5
62
330
1F
100
AcDbEntity
  8
1
  6
________________
 62
     7
370
     9
100
AcDbLine
 10
32.180642
 20
120.0
 30
0.0
 11
29.971538
 21
120.0
 31
0.0
  0
ARC
  5
63
330
1F
100
AcDbEntity
  8
1
  6
________________
 62
     7
370
     9
100
AcDbCircle
 10
32.180642
 20
118.8
 30
0.0
 40
1.2
100
AcDbArc
 50
30.0
 51
90.0
  0
LINE
  5
64
330
1F
100
AcDbEntity
  8
1
  6
________________
 62
     7
370
     9
100
AcDbLine
 10
34.778652
 20
116.700114
 30
0.0
 11
33.219872
 21
119.4
 31
0.0
  0
ARC
  5
65
330
1F
100
AcDbEntity
  8
1
  6
________________
 62
     7
370
     9
100
AcDbCircle
 10
81.392331
 20
116.3
 30
0.0
 40
1.2
100
AcDbArc
 50
90.0
 51
165.0
  0
ARC
  5
66
330
1F
100
AcDbEntity
  8
1
  6
________________
 62
     7
370
     9
100
AcDbCircle
 10
36.943716
 20
117.950114
 30
0.0
 40
2.5
100
AcDbArc
 50
210.0
 51
267.9999999999999
  0
LINE
  5
67
330
1F
100
AcDbEntity
  8
1
  6
________________
 62
     7
370
     9
100
AcDbLine
 10
80.23322
 20
116.610583
 30
0.0
 11
79.667882
 21
114.500712
 31
0.0
  0
LINE
  5
68
330
1F
100
AcDbEntity
  8
1
  6
________________
 62
     7
370
     9
100
AcDbLine
 10
58.584126
 20
114.692891
 30
0.0
 11
36.856467
 21
115.451637
 31
0.0
  0
ARC
  5
69
330
1F
100
AcDbEntity
  8
1
  6
________________
 62
     7
370
     9
100
AcDbCircle
 10
58.542247
 20
113.493622
 30
0.0
 40
1.2
100
AcDbArc
 50
56.998282
 51
88.0
  0
CIRCLE
  5
6A
330
1F
100
AcDbEntity
  8
1
  6
________________
 62
     7
370
     9
100
AcDbCircle
 10
-67.5
 20
85.0
 30
0.0
 40
29.5
  0
CIRCLE
  5
6B
330
1F
100
AcDbEntity
  8
1
  6
________________
 62
     7
370
     9
100
AcDbCircle
 10
-67.5
 20
85.0
 30
0.0
 40
26.55
  0
ARC
  5
6C
330
1F
100
AcDbEntity
  8
1
  6
________________
 62
     7
370
     9
100
AcDbCircle
 10
-67.5
 20
85.0
 30
0.0
 40
33.582585
100
AcDbArc
 50
32.70161900000001
 51
57.298381
  0
ARC
  5
6D
330
1F
100
AcDbEntity
  8
1
  6
________________
 62
     7
370
     9
100
AcDbCircle
 10
-67.5
 20
85.0
 30
0.0
 40
33.582585
100
AcDbArc
 50
347.701619
 51
12.29838099999995
  0
ARC
  5
6E
330
1F
100
AcDbEntity
  8
1
  6
________________
 62
     7
370
     9
100
AcDbCircle
 10
-67.5
 20
85.0
 30
0.0
 40
33.582585
100
AcDbArc
 50
302.701619
 51
327.298381
  0
ARC
  5
6F
330
1F
100
AcDbEntity
  8
1
  6
________________
 62
     7
370
     9
100
AcDbCircle
 10
-67.5
 20
85.0
 30
0.0
 40
33.582585
100
AcDbArc
 50
257.701619
 51
282.298381
  0
ARC
  5
70
330
1F
100
AcDbEntity
  8
1
  6
________________
 62
     7
370
     9
100
AcDbCircle
 10
-67.5
 20
85.0
 30
0.0
 40
33.582585
100
AcDbArc
 50
212.701619
 51
237.298381
  0
ARC
  5
71
330
1F
100
AcDbEntity
  8
1
  6
________________
 62
     7
370
     9
100
AcDbCircle
 10
-67.5
 20
85.0
 30
0.0
 40
33.582585
100
AcDbArc
 50
167.701619
 51
192.298381
  0
ARC
  5
72
330
1F
100
AcDbEntity
  8
1
  6
________________
 62
     7
370
     9
100
AcDbCircle
 10
-67.5
 20
85.0
 30
0.0
 40
33.582585
100
AcDbArc
 50
122.701619
 51
147.298381
  0
ARC
  5
73
330
1F
100
AcDbEntity
  8
1
  6
________________
 62
     7
370
     9
100
AcDbCircle
 10
-67.5
 20
85.0
 30
0.0
 40
33.582585
100
AcDbArc
 50
77.701619
 51
102.298381
  0
ARC
  5
74
330
1F
100
AcDbEntity
  8
1
  6
________________
 62
     7
370
     9
100
AcDbCircle
 10
-71.0248059379
 20
114.9967384488
 30
0.0
 40
4.369460005
100
AcDbArc
 50
129.6112208314
 51
138.1642131167
  0
LINE
  5
75
330
1F
100
AcDbEntity
  8
1
  6
________________
 62
     7
370
     9
100
AcDbLine
 10
-72.01176
 20
118.699318
 30
0.0
 11
-73.810664
 21
118.362918
 31
0.0
  0
ARC
  5
76
330
1F
100
AcDbEntity
  8
1
  6
________________
 62
     7
370
     9
100
AcDbCircle
 10
-67.5
 20
85.0
 30
0.0
 40
34.0
100
AcDbArc
 50
82.374425
 51
97.62557499999998
  0
LINE
  5
77
330
1F
100
AcDbEntity
  8
1
  6
________________
 62
     7
370
     9
100
AcDbLine
 10
-61.189336
 20
118.362918
 30
0.0
 11
-62.98824
 21
118.699318
 31
0.0
  0
ARC
  5
78
330
1F
100
AcDbEntity
  8
1
  6
________________
 62
     7
370
     9
100
AcDbCircle
 10
-62.9876646687
 20
116.0233737359
 30
0.0
 40
2.9508407151
100
AcDbArc
 50
39.7728085703
 51
52.4517574816
  0
LINE
  5
79
330
1F
100
AcDbEntity
  8
1
  6
________________
 62
     7
370
     9
100
AcDbLine
 10
-85.977297
 20
56.933892
 30
0.0
 11
-85.643465
 21
56.740405
 31
0.0
  0
LINE
  5
7A
330
1F
100
AcDbEntity
  8
1
  6
________________
 62
     7
370
     9
100
AcDbLine
 10
-100.411158
 20
78.219686
 30
0.0
 11
-100.311918
 21
77.846816
 31
0.0
  0
ARC
  5
7B
330
1F
100
AcDbEntity
  8
1
  6
________________
 62
     7
370
     9
100
AcDbCircle
 10
-97.4967384488
 20
81.4751940621
 30
0.0
 40
4.369460005
100
AcDbArc
 50
219.6112208314
 51
228.1642131167
  0
LINE
  5
7C
330
1F
100
AcDbEntity
  8
1
  6
________________
 62
     7
370
     9
100
AcDbLine
 10
-101.199318
 20
80.48824
 30
0.0
 11
-100.862918
 21
78.689336
 31
0.0
  0
ARC
  5
7D
330
1F
100
AcDbEntity
  8
1
  6
________________
 62
     7
370
     9
100
AcDbCircle
 10
-67.5
 20
85.0
 30
0.0
 40
34.0
100
AcDbArc
 50
172.3744249999999
 51
187.625575
  0
LINE
  5
7E
330
1F
100
AcDbEntity
  8
1
  6
________________
 62
     7
370
     9
100
AcDbLine
 10
-100.862918
 20
91.310664
 30
0.0
 11
-101.199318
 21
89.51176
 31
0.0
  0
ARC
  5
7F
330
1F
100
AcDbEntity
  8
1
  6
________________
 62
     7
370
     9
100
AcDbCircle
 10
-98.5233737359
 20
89.5123353313
 30
0.0
 40
2.9508407151
100
AcDbArc
 50
129.7728085703
 51
142.4517574816
  0
LINE
  5
80
330
1F
100
AcDbEntity
  8
1
  6
________________
 62
     7
370
     9
100
AcDbLine
 10
-100.311918
 20
92.153184
 30
0.0
 11
-100.411158
 21
91.780314
 31
0.0
  0
ARC
  5
81
330
1F
100
AcDbEntity
  8
1
  6
________________
 62
     7
370
     9
100
AcDbCircle
 10
-86.2184830216
 20
61.2966886807
 30
0.0
 40
4.3694600052
100
AcDbArc
 50
264.6112208301
 51
273.1642131153999
  0
LINE
  5
82
330
1F
100
AcDbEntity
  8
1
  6
________________
 62
     7
370
     9
100
AcDbLine
 10
-88.13872
 20
57.980688
 30
0.0
 11
-86.628832
 21
56.946541
 31
0.0
  0
ARC
  5
83
330
1F
100
AcDbEntity
  8
1
  6
________________
 62
     7
370
     9
100
AcDbCircle
 10
-67.5
 20
85.0
 30
0.0
 40
34.0
100
AcDbArc
 50
217.374425
 51
232.6255750000001
  0
LINE
  5
84
330
1F
100
AcDbEntity
  8
1
  6
________________
 62
     7
370
     9
100
AcDbLine
 10
-95.553459
 20
65.871168
 30
0.0
 11
-94.519312
 21
64.36128
 31
0.0
  0
ARC
  5
85
330
1F
100
AcDbEntity
  8
1
  6
________________
 62
     7
370
     9
100
AcDbCircle
 10
-92.6275408234
 20
66.2538649358
 30
0.0
 40
2.9508407152
100
AcDbArc
 50
174.7728085716
 51
187.4517574829
  0
LINE
  5
86
330
1F
100
AcDbEntity
  8
1
  6
________________
 62
     7
370
     9
100
AcDbLine
 10
-95.759595
 20
66.856535
 30
0.0
 11
-95.566108
 21
66.522703
 31
0.0
  0
LINE
  5
87
330
1F
100
AcDbEntity
  8
1
  6
________________
 62
     7
370
     9
100
AcDbLine
 10
-95.566108
 20
103.477297
 30
0.0
 11
-95.759595
 21
103.143465
 31
0.0
  0
ARC
  5
88
330
1F
100
AcDbEntity
  8
1
  6
________________
 62
     7
370
     9
100
AcDbCircle
 10
-91.2033113193
 20
103.7184830216
 30
0.0
 40
4.3694600052
100
AcDbArc
 50
174.6112208301
 51
183.1642131154
  0
LINE
  5
89
330
1F
100
AcDbEntity
  8
1
  6
________________
 62
     7
370
     9
100
AcDbLine
 10
-94.519312
 20
105.63872
 30
0.0
 11
-95.553459
 21
104.128832
 31
0.0
  0
ARC
  5
8A
330
1F
100
AcDbEntity
  8
1
  6
________________
 62
     7
370
     9
100
AcDbCircle
 10
-67.5
 20
85.0
 30
0.0
 40
34.0
100
AcDbArc
 50
127.374425
 51
142.625575
  0
LINE
  5
8B
330
1F
100
AcDbEntity
  8
1
  6
________________
 62
     7
370
     9
100
AcDbLine
 10
-86.628832
 20
113.053459
 30
0.0
 11
-88.13872
 21
112.019312
 31
0.0
  0
ARC
  5
8C
330
1F
100
AcDbEntity
  8
1
  6
________________
 62
     7
370
     9
100
AcDbCircle
 10
-86.2461350642
 20
110.1275408234
 30
0.0
 40
2.9508407152
100
AcDbArc
 50
84.77280857160001
 51
97.45175748290002
  0
LINE
  5
8D
330
1F
100
AcDbEntity
  8
1
  6
________________
 62
     7
370
     9
100
AcDbLine
 10
-39.433892
 20
66.522703
 30
0.0
 11
-39.240405
 21
66.856535
 31
0.0
  0
ARC
  5
8E
330
1F
100
AcDbEntity
  8
1
  6
________________
 62
     7
370
     9
100
AcDbCircle
 10
-43.7966886807
 20
66.2815169784
 30
0.0
 40
4.3694600052
100
AcDbArc
 50
354.6112208301
 51
3.164213115399946
  0
LINE
  5
8F
330
1F
100
AcDbEntity
  8
1
  6
________________
 62
     7
370
     9
100
AcDbLine
 10
-40.480688
 20
64.36128
 30
0.0
 11
-39.446541
 21
65.871168
 31
0.0
  0
ARC
  5
90
330
1F
100
AcDbEntity
  8
1
  6
________________
 62
     7
370
     9
100
AcDbCircle
 10
-67.5
 20
85.0
 30
0.0
 40
34.0
100
AcDbArc
 50
307.374425
 51
322.625575
  0
LINE
  5
91
330
1F
100
AcDbEntity
  8
1
  6
________________
 62
     7
370
     9
100
AcDbLine
 10
-48.371168
 20
56.946541
 30
0.0
 11
-46.86128
 21
57.980688
 31
0.0
  0
ARC
  5
92
330
1F
100
AcDbEntity
  8
1
  6
________________
 62
     7
370
     9
100
AcDbCircle
 10
-48.7538649358
 20
59.8724591766
 30
0.0
 40
2.9508407152
100
AcDbArc
 50
264.7728085716
 51
277.4517574829
  0
LINE
  5
93
330
1F
100
AcDbEntity
  8
1
  6
________________
 62
     7
370
     9
100
AcDbLine
 10
-49.356535
 20
56.740405
 30
0.0
 11
-49.022703
 21
56.933892
 31
0.0
  0
ARC
  5
94
330
1F
100
AcDbEntity
  8
1
  6
________________
 62
     7
370
     9
100
AcDbCircle
 10
-48.7815169784
 20
108.7033113193
 30
0.0
 40
4.3694600052
100
AcDbArc
 50
84.6112208301
 51
93.16421311540003
  0
LINE
  5
95
330
1F
100
AcDbEntity
  8
1
  6
________________
 62
     7
370
     9
100
AcDbLine
 10
-46.86128
 20
112.019312
 30
0.0
 11
-48.371168
 21
113.053459
 31
0.0
  0
ARC
  5
96
330
1F
100
AcDbEntity
  8
1
  6
________________
 62
     7
370
     9
100
AcDbCircle
 10
-67.5
 20
85.0
 30
0.0
 40
34.0
100
AcDbArc
 50
37.374425
 51
52.625575
  0
LINE
  5
97
330
1F
100
AcDbEntity
  8
1
  6
________________
 62
     7
370
     9
100
AcDbLine
 10
-39.446541
 20
104.128832
 30
0.0
 11
-40.480688
 21
105.63872
 31
0.0
  0
ARC
  5
98
330
1F
100
AcDbEntity
  8
1
  6
________________
 62
     7
370
     9
100
AcDbCircle
 10
-42.3724591766
 20
103.7461350642
 30
0.0
 40
2.9508407152
100
AcDbArc
 50
354.7728085716
 51
7.451757482900007
  0
LINE
  5
99
330
1F
100
AcDbEntity
  8
1
  6
________________
 62
     7
370
     9
100
AcDbLine
 10
-39.240405
 20
103.143465
 30
0.0
 11
-39.433892
 21
103.477297
 31
0.0
  0
LINE
  5
9A
330
1F
100
AcDbEntity
  8
1
  6
________________
 62
     7
370
     9
100
AcDbLine
 10
-60.719686
 20
52.088842
 30
0.0
 11
-60.346816
 21
52.188082
 31
0.0
  0
ARC
  5
9B
330
1F
100
AcDbEntity
  8
1
  6
________________
 62
     7
370
     9
100
AcDbCircle
 10
-63.9751940621
 20
55.0032615512
 30
0.0
 40
4.369460005
100
AcDbArc
 50
309.6112208314
 51
318.1642131167
  0
LINE
  5
9C
330
1F
100
AcDbEntity
  8
1
  6
________________
 62
     7
370
     9
100
AcDbLine
 10
-62.98824
 20
51.300682
 30
0.0
 11
-61.189336
 21
51.637082
 31
0.0
  0
ARC
  5
9D
330
1F
100
AcDbEntity
  8
1
  6
________________
 62
     7
370
     9
100
AcDbCircle
 10
-67.5
 20
85.0
 30
0.0
 40
34.0
100
AcDbArc
 50
262.374425
 51
277.625575
  0
LINE
  5
9E
330
1F
100
AcDbEntity
  8
1
  6
________________
 62
     7
370
     9
100
AcDbLine
 10
-73.810664
 20
51.637082
 30
0.0
 11
-72.01176
 21
51.300682
 31
0.0
  0
ARC
  5
9F
330
1F
100
AcDbEntity
  8
1
  6
________________
 62
     7
370
     9
100
AcDbCircle
 10
-72.0123353313
 20
53.9766262641
 30
0.0
 40
2.9508407151
100
AcDbArc
 50
219.7728085703
 51
232.4517574816
  0
LINE
  5
A0
330
1F
100
AcDbEntity
  8
1
  6
________________
 62
     7
370
     9
100
AcDbLine
 10
-74.653184
 20
52.188082
 30
0.0
 11
-74.280314
 21
52.088842
 31
0.0
  0
LINE
  5
A1
330
1F
100
AcDbEntity
  8
1
  6
________________
 62
     7
370
     9
100
AcDbLine
 10
-34.588842
 20
91.780314
 30
0.0
 11
-34.688082
 21
92.153184
 31
0.0
  0
ARC
  5
A2
330
1F
100
AcDbEntity
  8
1
  6
________________
 62
     7
370
     9
100
AcDbCircle
 10
-37.5032615512
 20
88.5248059379
 30
0.0
 40
4.369460005
100
AcDbArc
 50
39.6112208314
 51
48.16421311669999
  0
LINE
  5
A3
330
1F
100
AcDbEntity
  8
1
  6
________________
 62
     7
370
     9
100
AcDbLine
 10
-33.800682
 20
89.51176
 30
0.0
 11
-34.137082
 21
91.310664
 31
0.0
  0
ARC
  5
A4
330
1F
100
AcDbEntity
  8
1
  6
________________
 62
     7
370
     9
100
AcDbCircle
 10
-67.5
 20
85.0
 30
0.0
 40
34.0
100
AcDbArc
 50
352.374425
 51
7.625575000000026
  0
LINE
  5
A5
330
1F
100
AcDbEntity
  8
1
  6
________________
 62
     7
370
     9
100
AcDbLine
 10
-34.137082
 20
78.689336
 30
0.0
 11
-33.800682
 21
80.48824
 31
0.0
  0
ARC
  5
A6
330
1F
100
AcDbEntity
  8
1
  6
________________
 62
     7
370
     9
100
AcDbCircle
 10
-36.4766262641
 20
80.4876646687
 30
0.0
 40
2.9508407151
100
AcDbArc
 50
309.7728085703
 51
322.4517574815999
  0
LINE
  5
A7
330
1F
100
AcDbEntity
  8
1
  6
________________
 62
     7
370
     9
100
AcDbLine
 10
-34.688082
 20
77.846816
 30
0.0
 11
-34.588842
 21
78.219686
 31
0.0
  0
CIRCLE
  5
A8
330
1F
100
AcDbEntity
  8
1
  6
________________
 62
     7
370
     9
100
AcDbCircle
 10
-67.5
 20
85.0
 30
0.0
 40
35.0
  0
LINE
  5
A9
330
1F
100
AcDbEntity
  8
1
  6
________________
 62
     7
370
     9
100
AcDbLine
 10
-41.25
 20
85.0
 30
0.0
 11
-41.292911
 21
83.499664
 31
0.0
  0
LINE
  5
AA
330
1F
100
AcDbEntity
  8
1
  6
________________
 62
     7
370
     9
100
AcDbLine
 10
-42.360247
 20
77.446504
 30
0.0
 11
-43.386566
 21
74.626727
 31
0.0
  0
LINE
  5
AB
330
1F
100
AcDbEntity
  8
1
  6
________________
 62
     7
370
     9
100
AcDbLine
 10
-46.459966
 20
69.303521
 30
0.0
 11
-48.388686
 21
67.004996
 31
0.0
  0
LINE
  5
AC
330
1F
100
AcDbEntity
  8
1
  6
________________
 62
     7
370
     9
100
AcDbLine
 10
-53.097236
 20
63.05409199999999
 30
0.0
 11
-55.695889
 21
61.553775
 31
0.0
  0
LINE
  5
AD
330
1F
100
AcDbEntity
  8
1
  6
________________
 62
     7
370
     9
100
AcDbLine
 10
-61.471662
 20
59.451582
 30
0.0
 11
-64.426796
 21
58.930517
 31
0.0
  0
LINE
  5
AE
330
1F
100
AcDbEntity
  8
1
  6
________________
 62
     7
370
     9
100
AcDbLine
 10
-70.573257
 20
58.930524
 30
0.0
 11
-73.52833
 21
59.451581
 31
0.0
  0
LINE
  5
AF
330
1F
100
AcDbEntity
  8
1
  6
________________
 62
     7
370
     9
100
AcDbLine
 10
-79.304111
 20
61.553775
 30
0.0
 11
-81.902764
 21
63.05409199999999
 31
0.0
  0
LINE
  5
B0
330
1F
100
AcDbEntity
  8
1
  6
________________
 62
     7
370
     9
100
AcDbLine
 10
-86.611392
 20
67.005079
 30
0.0
 11
-88.540187
 21
69.303726
 31
0.0
  0
LINE
  5
B1
330
1F
100
AcDbEntity
  8
1
  6
________________
 62
     7
370
     9
100
AcDbLine
 10
-91.613465
 20
74.626799
 30
0.0
 11
-92.639689
 21
77.446291
 31
0.0
  0
LINE
  5
B2
330
1F
100
AcDbEntity
  8
1
  6
________________
 62
     7
370
     9
100
AcDbLine
 10
-93.707091
 20
83.499703
 30
0.0
 11
-93.707089
 21
86.500336
 31
0.0
  0
LINE
  5
B3
330
1F
100
AcDbEntity
  8
1
  6
________________
 62
     7
370
     9
100
AcDbLine
 10
-92.639753
 20
92.553496
 30
0.0
 11
-91.613434
 21
95.373273
 31
0.0
  0
LINE
  5
B4
330
1F
100
AcDbEntity
  8
1
  6
________________
 62
     7
370
     9
100
AcDbLine
 10
-88.540034
 20
100.696479
 30
0.0
 11
-86.611314
 21
102.995004
 31
0.0
  0
LINE
  5
B5
330
1F
100
AcDbEntity
  8
1
  6
________________
 62
     7
370
     9
100
AcDbLine
 10
-81.902889
 20
106.945826
 30
0.0
 11
-79.304229
 21
108.446165
 31
0.0
  0
LINE
  5
B6
330
1F
100
AcDbEntity
  8
1
  6
________________
 62
     7
370
     9
100
AcDbLine
 10
-73.528372
 20
110.54841
 30
0.0
 11
-70.573291
 21
111.069472
 31
0.0
  0
LINE
  5
B7
330
1F
100
AcDbEntity
  8
1
  6
________________
 62
     7
370
     9
100
AcDbLine
 10
-64.426743
 20
111.069476
 30
0.0
 11
-61.47167
 21
110.548419
 31
0.0
  0
LINE
  5
B8
330
1F
100
AcDbEntity
  8
1
  6
________________
 62
     7
370
     9
100
AcDbLine
 10
-55.695794
 20
108.446177
 30
0.0
 11
-53.097137
 21
106.945843
 31
0.0
  0
LINE
  5
B9
330
1F
100
AcDbEntity
  8
1
  6
________________
 62
     7
370
     9
100
AcDbLine
 10
-48.388608
 20
102.994921
 30
0.0
 11
-46.459813
 21
100.696274
 31
0.0
  0
LINE
  5
BA
330
1F
100
AcDbEntity
  8
1
  6
________________
 62
     7
370
     9
100
AcDbLine
 10
-43.386535
 20
95.373201
 30
0.0
 11
-42.360248
 21
92.553501
 31
0.0
  0
LINE
  5
BB
330
1F
100
AcDbEntity
  8
1
  6
________________
 62
     7
370
     9
100
AcDbLine
 10
-41.292911
 20
86.500334
 30
0.0
 11
-41.25
 21
85.0
 31
0.0
  0
LINE
  5
BC
330
1F
100
AcDbEntity
  8
1
  6
________________
 62
     7
370
     9
100
AcDbLine
 10
-73.2410071173
 20
61.0792798444
 30
0.0
 11
-73.578672
 21
59.164292
 31
0.0
  0
LINE
  5
BD
330
1F
100
AcDbEntity
  8
1
  6
________________
 62
     7
370
     9
100
AcDbLine
 10
-70.2865836728
 20
60.558335766
 30
0.0
 11
-70.624586
 21
58.641436
 31
0.0
  0
LINE
  5
BE
330
1F
100
AcDbEntity
  8
1
  6
________________
 62
     7
370
     9
100
AcDbLine
 10
-90.498258754
 20
94.9669496758
 30
0.0
 11
-91.889748
 21
95.473409
 31
0.0
  0
LINE
  5
BF
330
1F
100
AcDbEntity
  8
1
  6
________________
 62
     7
370
     9
100
AcDbLine
 10
-92.520192
 20
86.5
 30
0.0
 11
-94.005178
 21
86.5
 31
0.0
  0
LINE
  5
C0
330
1F
100
AcDbEntity
  8
1
  6
________________
 62
     7
370
     9
100
AcDbLine
 10
-91.889731
 20
74.526597
 30
0.0
 11
-90.4982588676
 21
75.0330506363
 31
0.0
  0
LINE
  5
C1
330
1F
100
AcDbEntity
  8
1
  6
________________
 62
     7
370
     9
100
AcDbLine
 10
-91.5243200679
 20
77.8521291865
 30
0.0
 11
-92.913986
 21
77.346332
 31
0.0
  0
LINE
  5
C2
330
1F
100
AcDbEntity
  8
1
  6
________________
 62
     7
370
     9
100
AcDbLine
 10
-94.005188
 20
83.5
 30
0.0
 11
-92.520192
 21
83.5
 31
0.0
  0
LINE
  5
C3
330
1F
100
AcDbEntity
  8
1
  6
________________
 62
     7
370
     9
100
AcDbLine
 10
-85.7023976562
 20
102.2317364097
 30
0.0
 11
-86.835264
 21
103.182324
 31
0.0
  0
LINE
  5
C4
330
1F
100
AcDbEntity
  8
1
  6
________________
 62
     7
370
     9
100
AcDbLine
 10
-73.578717
 20
110.835961
 30
0.0
 11
-73.3219224598
 21
109.3796069189
 31
0.0
  0
LINE
  5
C5
330
1F
100
AcDbEntity
  8
1
  6
________________
 62
     7
370
     9
100
AcDbLine
 10
-78.7110583937
 20
107.4181217727
 30
0.0
 11
-79.453551
 21
108.704158
 31
0.0
  0
LINE
  5
C6
330
1F
100
AcDbEntity
  8
1
  6
________________
 62
     7
370
     9
100
AcDbLine
 10
-92.913957
 20
92.653657
 30
0.0
 11
-91.5243197973
 21
92.147871557
 31
0.0
  0
LINE
  5
C7
330
1F
100
AcDbEntity
  8
1
  6
________________
 62
     7
370
     9
100
AcDbLine
 10
-70.3674994248
 20
109.9005509251
 30
0.0
 11
-70.624636
 21
111.358846
 31
0.0
  0
LINE
  5
C8
330
1F
100
AcDbEntity
  8
1
  6
________________
 62
     7
370
     9
100
AcDbLine
 10
-88.765099
 20
100.885426
 30
0.0
 11
-87.6307613468
 21
99.933601395
 31
0.0
  0
LINE
  5
C9
330
1F
100
AcDbEntity
  8
1
  6
________________
 62
     7
370
     9
100
AcDbLine
 10
-79.453556
 20
61.295834
 30
0.0
 11
-78.7110578591
 21
62.58187791859999
 31
0.0
  0
LINE
  5
CA
330
1F
100
AcDbEntity
  8
1
  6
________________
 62
     7
370
     9
100
AcDbLine
 10
-48.16476
 20
103.182304
 30
0.0
 11
-49.2976022148
 21
102.231736256
 31
0.0
  0
LINE
  5
CB
330
1F
100
AcDbEntity
  8
1
  6
________________
 62
     7
370
     9
100
AcDbLine
 10
-81.3091343937
 20
64.0818782273
 30
0.0
 11
-82.051627
 21
62.795842
 31
0.0
  0
LINE
  5
CC
330
1F
100
AcDbEntity
  8
1
  6
________________
 62
     7
370
     9
100
AcDbLine
 10
-61.6780770082
 20
109.3796068251
 30
0.0
 11
-61.421278
 21
110.835991
 31
0.0
  0
LINE
  5
CD
330
1F
100
AcDbEntity
  8
1
  6
________________
 62
     7
370
     9
100
AcDbLine
 10
-53.6908656063
 20
105.9181217727
 30
0.0
 11
-52.948373
 21
107.204158
 31
0.0
  0
LINE
  5
CE
330
1F
100
AcDbEntity
  8
1
  6
________________
 62
     7
370
     9
100
AcDbLine
 10
-47.3692385681
 20
99.9336012936
 30
0.0
 11
-46.234888
 21
100.885437
 31
0.0
  0
LINE
  5
CF
330
1F
100
AcDbEntity
  8
1
  6
________________
 62
     7
370
     9
100
AcDbLine
 10
-86.83524
 20
66.817696
 30
0.0
 11
-85.7023977852
 21
67.768263744
 31
0.0
  0
LINE
  5
D0
330
1F
100
AcDbEntity
  8
1
  6
________________
 62
     7
370
     9
100
AcDbLine
 10
-87.6307614319
 20
70.0663987064
 30
0.0
 11
-88.765112
 21
69.114563
 31
0.0
  0
LINE
  5
D1
330
1F
100
AcDbEntity
  8
1
  6
________________
 62
     7
370
     9
100
AcDbLine
 10
-82.051632
 20
107.204166
 30
0.0
 11
-81.3091338591
 21
105.9181220814
 31
0.0
  0
LINE
  5
D2
330
1F
100
AcDbEntity
  8
1
  6
________________
 62
     7
370
     9
100
AcDbLine
 10
-64.375367
 20
111.358829
 30
0.0
 11
-64.6325005707
 21
109.9005509243
 31
0.0
  0
LINE
  5
D3
330
1F
100
AcDbEntity
  8
1
  6
________________
 62
     7
370
     9
100
AcDbLine
 10
-52.948368
 20
62.79583399999999
 30
0.0
 11
-53.6908661409
 21
64.0818779186
 31
0.0
  0
LINE
  5
D4
330
1F
100
AcDbEntity
  8
1
  6
________________
 62
     7
370
     9
100
AcDbLine
 10
-61.421283
 20
59.164039
 30
0.0
 11
-61.6780775402
 21
60.6203930811
 31
0.0
  0
LINE
  5
D5
330
1F
100
AcDbEntity
  8
1
  6
________________
 62
     7
370
     9
100
AcDbLine
 10
-42.086043
 20
77.346343
 30
0.0
 11
-43.4756802027
 21
77.852128443
 31
0.0
  0
LINE
  5
D6
330
1F
100
AcDbEntity
  8
1
  6
________________
 62
     7
370
     9
100
AcDbLine
 10
-55.546444
 20
108.704166
 30
0.0
 11
-56.2889421409
 21
107.4181220814
 31
0.0
  0
LINE
  5
D7
330
1F
100
AcDbEntity
  8
1
  6
________________
 62
     7
370
     9
100
AcDbLine
 10
-43.4756799321
 20
92.1478708135
 30
0.0
 11
-42.086014
 21
92.653668
 31
0.0
  0
LINE
  5
D8
330
1F
100
AcDbEntity
  8
1
  6
________________
 62
     7
370
     9
100
AcDbLine
 10
-42.479808
 20
83.5
 30
0.0
 11
-40.994822
 21
83.5
 31
0.0
  0
LINE
  5
D9
330
1F
100
AcDbEntity
  8
1
  6
________________
 62
     7
370
     9
100
AcDbLine
 10
-44.501741246
 20
75.0330503242
 30
0.0
 11
-43.110252
 21
74.526591
 31
0.0
  0
LINE
  5
DA
330
1F
100
AcDbEntity
  8
1
  6
________________
 62
     7
370
     9
100
AcDbLine
 10
-46.234901
 20
69.114574
 30
0.0
 11
-47.3692386532
 21
70.066398605
 31
0.0
  0
LINE
  5
DB
330
1F
100
AcDbEntity
  8
1
  6
________________
 62
     7
370
     9
100
AcDbLine
 10
-40.994812
 20
86.5
 30
0.0
 11
-42.479808
 21
86.5
 31
0.0
  0
LINE
  5
DC
330
1F
100
AcDbEntity
  8
1
  6
________________
 62
     7
370
     9
100
AcDbLine
 10
-49.2976023438
 20
67.7682635903
 30
0.0
 11
-48.164736
 21
66.817676
 31
0.0
  0
LINE
  5
DD
330
1F
100
AcDbEntity
  8
1
  6
________________
 62
     7
370
     9
100
AcDbLine
 10
-64.6325005752
 20
60.0994490749
 30
0.0
 11
-64.375364
 21
58.641154
 31
0.0
  0
LINE
  5
DE
330
1F
100
AcDbEntity
  8
1
  6
________________
 62
     7
370
     9
100
AcDbLine
 10
-43.110269
 20
95.473403
 30
0.0
 11
-44.5017411324
 21
94.9669493637
 31
0.0
  0
LINE
  5
DF
330
1F
100
AcDbEntity
  8
1
  6
________________
 62
     7
370
     9
100
AcDbLine
 10
-56.2889416063
 20
62.5818782273
 30
0.0
 11
-55.546449
 21
61.295842
 31
0.0
  0
ARC
  5
E0
330
1F
100
AcDbEntity
  8
1
  6
________________
 62
     7
370
     9
100
AcDbCircle
 10
-85.381004
 20
67.385242
 30
0.0
 40
0.5
100
AcDbArc
 50
44.570246
 51
130.0
  0
ARC
  5
E1
330
1F
100
AcDbEntity
  8
1
  6
________________
 62
     7
370
     9
100
AcDbCircle
 10
-67.5
 20
85.0
 30
0.0
 40
24.6
100
AcDbArc
 50
104.570246
 51
115.429754
  0
ARC
  5
E2
330
1F
100
AcDbEntity
  8
1
  6
________________
 62
     7
370
     9
100
AcDbCircle
 10
-87.952154
 20
99.55058
 30
0.0
 40
0.5
100
AcDbArc
 50
324.5702460000001
 51
50.00000000000006
  0
ARC
  5
E3
330
1F
100
AcDbEntity
  8
1
  6
________________
 62
     7
370
     9
100
AcDbCircle
 10
-90.327249
 20
95.436795
 30
0.0
 40
0.5
100
AcDbArc
 50
250.0
 51
335.4297539999999
  0
ARC
  5
E4
330
1F
100
AcDbEntity
  8
1
  6
________________
 62
     7
370
     9
100
AcDbCircle
 10
-78.278045
 20
107.668122
 30
0.0
 40
0.5
100
AcDbArc
 50
210.0
 51
295.429754
  0
ARC
  5
E5
330
1F
100
AcDbEntity
  8
1
  6
________________
 62
     7
370
     9
100
AcDbCircle
 10
-67.5
 20
85.0
 30
0.0
 40
24.6
100
AcDbArc
 50
144.570246
 51
155.429754
  0
ARC
  5
E6
330
1F
100
AcDbEntity
  8
1
  6
________________
 62
     7
370
     9
100
AcDbCircle
 10
-87.952154
 20
70.44942
 30
0.0
 40
0.5
100
AcDbArc
 50
310.0
 51
35.429754
  0
ARC
  5
E7
330
1F
100
AcDbEntity
  8
1
  6
________________
 62
     7
370
     9
100
AcDbCircle
 10
-67.5
 20
85.0
 30
0.0
 40
24.6
100
AcDbArc
 50
164.570246
 51
175.429754
  0
ARC
  5
E8
330
1F
100
AcDbEntity
  8
1
  6
________________
 62
     7
370
     9
100
AcDbCircle
 10
-92.520192
 20
83.0
 30
0.0
 40
0.5
100
AcDbArc
 50
4.570246000000001
 51
90.0
  0
ARC
  5
E9
330
1F
100
AcDbEntity
  8
1
  6
________________
 62
     7
370
     9
100
AcDbCircle
 10
-67.5
 20
85.0
 30
0.0
 40
24.6
100
AcDbArc
 50
184.570246
 51
195.429754
  0
ARC
  5
EA
330
1F
100
AcDbEntity
  8
1
  6
________________
 62
     7
370
     9
100
AcDbCircle
 10
-67.5
 20
85.0
 30
0.0
 40
24.6
100
AcDbArc
 50
204.5702460000001
 51
215.429754
  0
ARC
  5
EB
330
1F
100
AcDbEntity
  8
1
  6
________________
 62
     7
370
     9
100
AcDbCircle
 10
-91.69533
 20
78.321976
 30
0.0
 40
0.5
100
AcDbArc
 50
289.9999999999999
 51
15.42975399999994
  0
ARC
  5
EC
330
1F
100
AcDbEntity
  8
1
  6
________________
 62
     7
370
     9
100
AcDbCircle
 10
-85.381004
 20
102.614758
 30
0.0
 40
0.5
100
AcDbArc
 50
230.0
 51
315.429754
  0
ARC
  5
ED
330
1F
100
AcDbEntity
  8
1
  6
________________
 62
     7
370
     9
100
AcDbCircle
 10
-67.5
 20
85.0
 30
0.0
 40
24.6
100
AcDbArc
 50
124.570246
 51
135.429754
  0
ARC
  5
EE
330
1F
100
AcDbEntity
  8
1
  6
________________
 62
     7
370
     9
100
AcDbCircle
 10
-81.742147
 20
105.668122
 30
0.0
 40
0.5
100
AcDbArc
 50
304.570246
 51
30.0
  0
ARC
  5
EF
330
1F
100
AcDbEntity
  8
1
  6
________________
 62
     7
370
     9
100
AcDbCircle
 10
-67.5
 20
85.0
 30
0.0
 40
24.6
100
AcDbArc
 50
224.570246
 51
235.429754
  0
ARC
  5
F0
330
1F
100
AcDbEntity
  8
1
  6
________________
 62
     7
370
     9
100
AcDbCircle
 10
-90.327249
 20
74.563205
 30
0.0
 40
0.5
100
AcDbArc
 50
24.570246
 51
110.0
  0
ARC
  5
F1
330
1F
100
AcDbEntity
  8
1
  6
________________
 62
     7
370
     9
100
AcDbCircle
 10
-92.520192
 20
87.0
 30
0.0
 40
0.5
100
AcDbArc
 50
270.0
 51
355.429754
  0
ARC
  5
F2
330
1F
100
AcDbEntity
  8
1
  6
________________
 62
     7
370
     9
100
AcDbCircle
 10
-91.69533
 20
91.678024
 30
0.0
 40
0.5
100
AcDbArc
 50
344.5702459999999
 51
69.99999999999996
  0
ARC
  5
F3
330
1F
100
AcDbEntity
  8
1
  6
________________
 62
     7
370
     9
100
AcDbCircle
 10
-78.278045
 20
62.331878
 30
0.0
 40
0.5
100
AcDbArc
 50
64.570246
 51
150.0
  0
ARC
  5
F4
330
1F
100
AcDbEntity
  8
1
  6
________________
 62
     7
370
     9
100
AcDbCircle
 10
-61.185674
 20
109.292783
 30
0.0
 40
0.5
100
AcDbArc
 50
170.0
 51
255.429754
  0
ARC
  5
F5
330
1F
100
AcDbEntity
  8
1
  6
________________
 62
     7
370
     9
100
AcDbCircle
 10
-67.5
 20
85.0
 30
0.0
 40
24.6
100
AcDbArc
 50
64.570246
 51
75.42975399999999
  0
ARC
  5
F6
330
1F
100
AcDbEntity
  8
1
  6
________________
 62
     7
370
     9
100
AcDbCircle
 10
-65.124905
 20
60.012625
 30
0.0
 40
0.5
100
AcDbArc
 50
10.0
 51
95.42975399999999
  0
ARC
  5
F7
330
1F
100
AcDbEntity
  8
1
  6
________________
 62
     7
370
     9
100
AcDbCircle
 10
-67.5
 20
85.0
 30
0.0
 40
24.6
100
AcDbArc
 50
263.495814
 51
275.429754
  0
ARC
  5
F8
330
1F
100
AcDbEntity
  8
1
  6
________________
 62
     7
370
     9
100
AcDbCircle
 10
-56.721955
 20
107.668122
 30
0.0
 40
0.5
100
AcDbArc
 50
244.570246
 51
330.0
  0
ARC
  5
F9
330
1F
100
AcDbEntity
  8
1
  6
________________
 62
     7
370
     9
100
AcDbCircle
 10
-67.5
 20
85.0
 30
0.0
 40
24.6
100
AcDbArc
 50
84.570246
 51
95.42975399999999
  0
ARC
  5
FA
330
1F
100
AcDbEntity
  8
1
  6
________________
 62
     7
370
     9
100
AcDbCircle
 10
-53.257853
 20
105.668122
 30
0.0
 40
0.5
100
AcDbArc
 50
150.0
 51
235.429754
  0
ARC
  5
FB
330
1F
100
AcDbEntity
  8
1
  6
________________
 62
     7
370
     9
100
AcDbCircle
 10
-81.742147
 20
64.331878
 30
0.0
 40
0.5
100
AcDbArc
 50
330.0
 51
55.429754
  0
ARC
  5
FC
330
1F
100
AcDbEntity
  8
1
  6
________________
 62
     7
370
     9
100
AcDbCircle
 10
-69.875095
 20
109.987375
 30
0.0
 40
0.5
100
AcDbArc
 50
190.0
 51
275.429754
  0
ARC
  5
FD
330
1F
100
AcDbEntity
  8
1
  6
________________
 62
     7
370
     9
100
AcDbCircle
 10
-61.185674
 20
60.707217
 30
0.0
 40
0.5
100
AcDbArc
 50
104.570246
 51
190.0
  0
ARC
  5
FE
330
1F
100
AcDbEntity
  8
1
  6
________________
 62
     7
370
     9
100
AcDbCircle
 10
-67.5
 20
85.0
 30
0.0
 40
24.6
100
AcDbArc
 50
44.570246
 51
55.429754
  0
ARC
  5
FF
330
1F
100
AcDbEntity
  8
1
  6
________________
 62
     7
370
     9
100
AcDbCircle
 10
-67.5
 20
85.0
 30
0.0
 40
24.6
100
AcDbArc
 50
284.570246
 51
295.429754
  0
ARC
  5
100
330
1F
100
AcDbEntity
  8
1
  6
________________
 62
     7
370
     9
100
AcDbCircle
 10
-73.814326
 20
109.292783
 30
0.0
 40
0.5
100
AcDbArc
 50
284.570246
 51
10.0
  0
ARC
  5
101
330
1F
100
AcDbEntity
  8
1
  6
________________
 62
     7
370
     9
100
AcDbCircle
 10
-67.5
 20
85.0
 30
0.0
 40
24.6
100
AcDbArc
 50
244.570246
 51
256.504186
  0
ARC
  5
102
330
1F
100
AcDbEntity
  8
1
  6
________________
 62
     7
370
     9
100
AcDbCircle
 10
-65.124905
 20
109.987375
 30
0.0
 40
0.5
100
AcDbArc
 50
264.570246
 51
349.9999999999999
  0
ARC
  5
103
330
1F
100
AcDbEntity
  8
1
  6
________________
 62
     7
370
     9
100
AcDbCircle
 10
-67.5
 20
85.0
 30
0.0
 40
24.6
100
AcDbArc
 50
24.570246
 51
35.429754
  0
ARC
  5
104
330
1F
100
AcDbEntity
  8
1
  6
________________
 62
     7
370
     9
100
AcDbCircle
 10
-53.257853
 20
64.331878
 30
0.0
 40
0.5
100
AcDbArc
 50
124.570246
 51
210.0
  0
ARC
  5
105
330
1F
100
AcDbEntity
  8
1
  6
________________
 62
     7
370
     9
100
AcDbCircle
 10
-67.5
 20
85.0
 30
0.0
 40
24.6
100
AcDbArc
 50
344.5702459999999
 51
355.429754
  0
ARC
  5
106
330
1F
100
AcDbEntity
  8
1
  6
________________
 62
     7
370
     9
100
AcDbCircle
 10
-43.30467
 20
91.678024
 30
0.0
 40
0.5
100
AcDbArc
 50
110.0
 51
195.429754
  0
ARC
  5
107
330
1F
100
AcDbEntity
  8
1
  6
________________
 62
     7
370
     9
100
AcDbCircle
 10
-49.618996
 20
102.614758
 30
0.0
 40
0.5
100
AcDbArc
 50
224.570246
 51
310.0
  0
ARC
  5
108
330
1F
100
AcDbEntity
  8
1
  6
________________
 62
     7
370
     9
100
AcDbCircle
 10
-49.618996
 20
67.385242
 30
0.0
 40
0.5
100
AcDbArc
 50
50.0
 51
135.429754
  0
ARC
  5
109
330
1F
100
AcDbEntity
  8
1
  6
________________
 62
     7
370
     9
100
AcDbCircle
 10
-42.479808
 20
83.0
 30
0.0
 40
0.5
100
AcDbArc
 50
90.0
 51
175.429754
  0
ARC
  5
10A
330
1F
100
AcDbEntity
  8
1
  6
________________
 62
     7
370
     9
100
AcDbCircle
 10
-67.5
 20
85.0
 30
0.0
 40
24.6
100
AcDbArc
 50
4.570246000000001
 51
15.429754
  0
ARC
  5
10B
330
1F
100
AcDbEntity
  8
1
  6
________________
 62
     7
370
     9
100
AcDbCircle
 10
-43.30467
 20
78.321976
 30
0.0
 40
0.5
100
AcDbArc
 50
164.570246
 51
250.0
  0
ARC
  5
10C
330
1F
100
AcDbEntity
  8
1
  6
________________
 62
     7
370
     9
100
AcDbCircle
 10
-44.672751
 20
74.563205
 30
0.0
 40
0.5
100
AcDbArc
 50
70.0
 51
155.429754
  0
ARC
  5
10D
330
1F
100
AcDbEntity
  8
1
  6
________________
 62
     7
370
     9
100
AcDbCircle
 10
-67.5
 20
85.0
 30
0.0
 40
24.6
100
AcDbArc
 50
304.570246
 51
315.429754
  0
ARC
  5
10E
330
1F
100
AcDbEntity
  8
1
  6
________________
 62
     7
370
     9
100
AcDbCircle
 10
-56.721955
 20
62.331878
 30
0.0
 40
0.5
100
AcDbArc
 50
30.0
 51
115.429754
  0
ARC
  5
10F
330
1F
100
AcDbEntity
  8
1
  6
________________
 62
     7
370
     9
100
AcDbCircle
 10
-47.047846
 20
70.44942
 30
0.0
 40
0.5
100
AcDbArc
 50
144.570246
 51
230.0
  0
ARC
  5
110
330
1F
100
AcDbEntity
  8
1
  6
________________
 62
     7
370
     9
100
AcDbCircle
 10
-44.672751
 20
95.436795
 30
0.0
 40
0.5
100
AcDbArc
 50
204.5702460000001
 51
289.9999999999999
  0
ARC
  5
111
330
1F
100
AcDbEntity
  8
1
  6
________________
 62
     7
370
     9
100
AcDbCircle
 10
-47.047846
 20
99.55058
 30
0.0
 40
0.5
100
AcDbArc
 50
130.0
 51
215.429754
  0
ARC
  5
112
330
1F
100
AcDbEntity
  8
1
  6
________________
 62
     7
370
     9
100
AcDbCircle
 10
-42.479808
 20
87.0
 30
0.0
 40
0.5
100
AcDbArc
 50
184.570246
 51
270.0
  0
ARC
  5
113
330
1F
100
AcDbEntity
  8
1
  6
________________
 62
     7
370
     9
100
AcDbCircle
 10
-67.5
 20
85.0
 30
0.0
 40
24.6
100
AcDbArc
 50
324.5702460000001
 51
335.4297539999999
  0
ARC
  5
114
330
1F
100
AcDbEntity
  8
1
  6
________________
 62
     7
370
     9
100
AcDbCircle
 10
-67.5
 20
85.0
 30
0.0
 40
26.25
100
AcDbArc
 50
0.0
 51
2.768572
  0
ARC
  5
115
330
1F
100
AcDbEntity
  8
1
  6
________________
 62
     7
370
     9
100
AcDbCircle
 10
-67.5
 20
85.0
 30
0.0
 40
25.45
100
AcDbArc
 50
356.620455
 51
3.379545000000007
  0
ARC
  5
116
330
1F
100
AcDbEntity
  8
1
  6
________________
 62
     7
370
     9
100
AcDbCircle
 10
-67.5
 20
85.0
 30
0.0
 40
25.45
100
AcDbArc
 50
16.619901
 51
23.379549
  0
ARC
  5
117
330
1F
100
AcDbEntity
  8
1
  6
________________
 62
     7
370
     9
100
AcDbCircle
 10
-67.5
 20
85.0
 30
0.0
 40
25.45
100
AcDbArc
 50
36.620451
 51
43.380099
  0
ARC
  5
118
330
1F
100
AcDbEntity
  8
1
  6
________________
 62
     7
370
     9
100
AcDbCircle
 10
-67.5
 20
85.0
 30
0.0
 40
25.45
100
AcDbArc
 50
56.620455
 51
63.37954499999998
  0
ARC
  5
119
330
1F
100
AcDbEntity
  8
1
  6
________________
 62
     7
370
     9
100
AcDbCircle
 10
-67.5
 20
85.0
 30
0.0
 40
25.45
100
AcDbArc
 50
76.619901
 51
83.379549
  0
ARC
  5
11A
330
1F
100
AcDbEntity
  8
1
  6
________________
 62
     7
370
     9
100
AcDbCircle
 10
-67.5
 20
85.0
 30
0.0
 40
25.45
100
AcDbArc
 50
96.62045099999999
 51
103.380099
  0
ARC
  5
11B
330
1F
100
AcDbEntity
  8
1
  6
________________
 62
     7
370
     9
100
AcDbCircle
 10
-67.5
 20
85.0
 30
0.0
 40
25.45
100
AcDbArc
 50
116.620455
 51
123.379545
  0
ARC
  5
11C
330
1F
100
AcDbEntity
  8
1
  6
________________
 62
     7
370
     9
100
AcDbCircle
 10
-67.5
 20
85.0
 30
0.0
 40
25.45
100
AcDbArc
 50
136.619901
 51
143.379549
  0
ARC
  5
11D
330
1F
100
AcDbEntity
  8
1
  6
________________
 62
     7
370
     9
100
AcDbCircle
 10
-67.5
 20
85.0
 30
0.0
 40
25.45
100
AcDbArc
 50
156.620451
 51
163.380099
  0
ARC
  5
11E
330
1F
100
AcDbEntity
  8
1
  6
________________
 62
     7
370
     9
100
AcDbCircle
 10
-67.5
 20
85.0
 30
0.0
 40
25.45
100
AcDbArc
 50
176.620455
 51
183.379545
  0
ARC
  5
11F
330
1F
100
AcDbEntity
  8
1
  6
________________
 62
     7
370
     9
100
AcDbCircle
 10
-67.5
 20
85.0
 30
0.0
 40
25.45
100
AcDbArc
 50
196.619901
 51
203.3795489999999
  0
ARC
  5
120
330
1F
100
AcDbEntity
  8
1
  6
________________
 62
     7
370
     9
100
AcDbCircle
 10
-67.5
 20
85.0
 30
0.0
 40
25.45
100
AcDbArc
 50
216.620451
 51
223.380099
  0
ARC
  5
121
330
1F
100
AcDbEntity
  8
1
  6
________________
 62
     7
370
     9
100
AcDbCircle
 10
-67.5
 20
85.0
 30
0.0
 40
25.45
100
AcDbArc
 50
236.620455
 51
243.379545
  0
ARC
  5
122
330
1F
100
AcDbEntity
  8
1
  6
________________
 62
     7
370
     9
100
AcDbCircle
 10
-67.5
 20
85.0
 30
0.0
 40
25.45
100
AcDbArc
 50
256.619901
 51
263.379549
  0
ARC
  5
123
330
1F
100
AcDbEntity
  8
1
  6
________________
 62
     7
370
     9
100
AcDbCircle
 10
-67.5
 20
85.0
 30
0.0
 40
25.45
100
AcDbArc
 50
276.620451
 51
283.380099
  0
ARC
  5
124
330
1F
100
AcDbEntity
  8
1
  6
________________
 62
     7
370
     9
100
AcDbCircle
 10
-67.5
 20
85.0
 30
0.0
 40
25.45
100
AcDbArc
 50
296.620455
 51
303.379545
  0
ARC
  5
125
330
1F
100
AcDbEntity
  8
1
  6
________________
 62
     7
370
     9
100
AcDbCircle
 10
-67.5
 20
85.0
 30
0.0
 40
25.45
100
AcDbArc
 50
316.619901
 51
323.379549
  0
ARC
  5
126
330
1F
100
AcDbEntity
  8
1
  6
________________
 62
     7
370
     9
100
AcDbCircle
 10
-67.5
 20
85.0
 30
0.0
 40
25.45
100
AcDbArc
 50
336.6204510000001
 51
343.380099
  0
CIRCLE
  5
127
330
1F
100
AcDbEntity
  8
1
  6
________________
 62
     7
370
     9
100
AcDbCircle
 10
-67.5
 20
85.0
 30
0.0
 40
20.0
  0
CIRCLE
  5
128
330
1F
100
AcDbEntity
  8
1
  6
________________
 62
     7
370
     9
100
AcDbCircle
 10
150.0
 20
85.0
 30
0.0
 40
35.0
  0
LINE
  5
129
330
1F
100
AcDbEntity
  8
1
  6
________________
 62
     7
370
     9
100
AcDbLine
 10
14.263685
 20
119.588675
 30
0.0
 11
14.263685
 21
119.28794
 31
0.0
  0
LINE
  5
12A
330
1F
100
AcDbEntity
  8
1
  6
________________
 62
     7
370
     9
100
AcDbLine
 10
14.263685
 20
119.28794
 30
0.0
 11
14.183356
 21
119.203784
 31
0.0
  0
ARC
  5
12B
330
1F
100
AcDbEntity
  8
1
  6
________________
 62
     7
370
     9
100
AcDbCircle
 10
12.247164
 20
124.937401
 30
0.0
 40
6.051711
100
AcDbArc
 50
269.903523
 51
288.659371
  0
LINE
  5
12C
330
1F
100
AcDbEntity
  8
1
  6
________________
 62
     7
370
     9
100
AcDbLine
 10
14.263685
 20
89.551221
 30
0.0
 11
14.263685
 21
80.448779
 31
0.0
  0
ARC
  5
12D
330
1F
100
AcDbEntity
  8
1
  6
________________
 62
     7
370
     9
100
AcDbCircle
 10
12.153518
 20
89.559853
 30
0.0
 40
2.110185
100
AcDbArc
 50
359.7656299999999
 51
87.73339000000006
  0
LINE
  5
12E
330
1F
100
AcDbEntity
  8
1
  6
________________
 62
     7
370
     9
100
AcDbLine
 10
-0.053842
 20
92.101937
 30
0.0
 11
12.236974
 21
91.668387
 31
0.0
  0
LINE
  5
12F
330
1F
100
AcDbEntity
  8
1
  6
________________
 62
     7
370
     9
100
AcDbLine
 10
12.236974
 20
104.245545
 30
0.0
 11
-0.0538420000000019
 21
103.644009
 31
0.0
  0
ARC
  5
130
330
1F
100
AcDbEntity
  8
1
  6
________________
 62
     7
370
     9
100
AcDbCircle
 10
12.259895
 20
106.283295
 30
0.0
 40
2.037879
100
AcDbArc
 50
269.35556
 51
348.0790430000001
  0
LINE
  5
131
330
1F
100
AcDbEntity
  8
1
  6
________________
 62
     7
370
     9
100
AcDbLine
 10
14.263685
 20
112.6632846392
 30
0.0
 11
14.263685
 21
105.862346476
 31
0.0
  0
ARC
  5
132
330
1F
100
AcDbEntity
  8
1
  6
________________
 62
     7
370
     9
100
AcDbCircle
 10
12.390668
 20
111.282921
 30
0.0
 40
2.398078
100
AcDbArc
 50
35.142536255
 51
93.67463
  0
LINE
  5
133
330
1F
100
AcDbEntity
  8
1
  6
________________
 62
     7
370
     9
100
AcDbLine
 10
-0.053842
 20
113.687665
 30
0.0
 11
12.236974
 21
113.676069
 31
0.0
  0
ARC
  5
134
330
1F
100
AcDbEntity
  8
1
  6
________________
 62
     7
370
     9
100
AcDbCircle
 10
0.130161
 20
99.026337
 30
0.0
 40
4.621337
100
AcDbArc
 50
92.281895
 51
117.014013
  0
LINE
  5
135
330
1F
100
AcDbEntity
  8
1
  6
________________
 62
     7
370
     9
100
AcDbLine
 10
-1.968889
 20
92.153184
 30
0.0
 11
-0.0538420000000001
 21
92.101937
 31
0.0
  0
ARC
  5
136
330
1F
100
AcDbEntity
  8
1
  6
________________
 62
     7
370
     9
100
AcDbCircle
 10
0.066785
 20
114.995829
 30
0.0
 40
3.474813
100
AcDbArc
 50
91.989406
 51
125.86214
  0
ARC
  5
137
330
1F
100
AcDbEntity
  8
1
  6
________________
 62
     7
370
     9
100
AcDbCircle
 10
-0.085286
 20
109.330651
 30
0.0
 40
4.357128
100
AcDbArc
 50
89.586516
 51
115.61386
  0
LINE
  5
138
330
1F
100
AcDbEntity
  8
1
  6
________________
 62
     7
370
     9
100
AcDbLine
 10
-4.6455766602
 20
85.000007
 30
0.0
 11
-4.6455766602
 21
115.1993668612
 31
0.0
  0
LINE
  5
139
330
1F
100
AcDbEntity
  8
1
  6
________________
 62
     7
370
     9
100
AcDbLine
 10
32.180642
 20
50.0
 30
0.0
 11
32.180642
 21
120.0
 31
0.0
  0
LINE
  5
13A
330
1F
100
AcDbEntity
  8
1
  6
________________
 62
     7
370
     9
100
AcDbLine
 10
35.6345747076
 20
54.1797095472
 30
0.0
 11
35.6345747076
 21
115.8202904528
 31
0.0
  0
LINE
  5
13B
330
1F
100
AcDbEntity
  8
1
  6
________________
 62
     7
370
     9
100
AcDbLine
 10
80.23322
 20
53.389417
 30
0.0
 11
80.23322
 21
116.610583
 31
0.0
  0
LINE
  5
13C
330
1F
100
AcDbEntity
  8
1
  6
________________
 62
     7
370
     9
100
AcDbLine
 10
58.584126
 20
55.307109
 30
0.0
 11
58.584126
 21
114.692891
 31
0.0
  0
LINE
  5
13D
330
1F
100
AcDbEntity
  8
1
  6
________________
 62
     7
370
     9
100
AcDbLine
 10
77.0795
 20
86.472236
 30
0.0
 11
77.0795
 21
111.959832
 31
0.0
  0
LINE
  5
13E
330
1F
100
AcDbEntity
  8
1
  6
________________
 62
     7
370
     9
100
AcDbLine
 10
61.719447
 20
111.959832
 30
0.0
 11
61.719447
 21
86.472236
 31
0.0
  0
LINE
  5
13F
330
1F
100
AcDbEntity
  8
1
  6
________...._...
 62
     5
420
      255
370
     9
100
AcDbLine
 10
-107.2495058782
 20
85.0
 30
0.0
 11
-27.53901500480001
 21
85.0
 31
0.0
  0
LINE
  5
141
330
1F
100
AcDbEntity
  8
1
  6
________...._...
 62
     5
420
      255
370
     9
100
AcDbLine
 10
-67.5
 20
44.187541385
 30
0.0
 11
-67.5
 21
124.6003273322
 31
0.0
  0
LINE
  5
142
330
1F
100
AcDbEntity
  8
1
  6
________...._...
 62
     5
420
      255
370
     9
100
AcDbLine
 10
-17.7820407942
 20
85.0
 30
0.0
 11
189.9609849952
 21
85.0
 31
0.0
  0
LINE
  5
143
330
1F
100
AcDbEntity
  8
1
  6
________...._...
 62
     5
420
      255
370
     9
100
AcDbLine
 10
150.0
 20
44.187541385
 30
0.0
 11
150.0
 21
124.6003273322
 31
0.0
  0
CIRCLE
  5
144
330
1F
100
AcDbEntity
  8
1
  6
________________
 62
     7
370
     9
100
AcDbCircle
 10
150.0
 20
85.0
 30
0.0
 40
20.0
  0
LINE
  5
145
330
1F
100
AcDbEntity
  8
1
  6
________________
 62
     7
370
     9
100
AcDbLine
 10
125.3364462811
 20
106.1650447189
 30
0.0
 11
129.352514
 21
102.148977
 31
0.0
  0
LINE
  5
146
330
1F
100
AcDbEntity
  8
1
  6
________________
 62
     7
370
     9
100
AcDbLine
 10
132.851023
 20
105.647486
 30
0.0
 11
128.8349552811
 21
109.6635537189
 31
0.0
  0
ARC
  5
147
330
1F
100
AcDbEntity
  8
1
  6
________________
 62
     7
370
     9
100
AcDbCircle
 10
130.2010457765
 20
102.9975055673
 30
0.0
 40
1.2000028934
100
AcDbArc
 50
224.9998954633
 51
243.4331037723
  0
ARC
  5
148
330
1F
100
AcDbEntity
  8
1
  6
________________
 62
     7
370
     9
100
AcDbCircle
 10
130.201011652
 20
102.9974362196
 30
0.0
 40
1.199925606
100
AcDbArc
 50
243.4330801895999
 51
296.566778704
  0
ARC
  5
149
330
1F
100
AcDbEntity
  8
1
  6
________________
 62
     7
370
     9
100
AcDbCircle
 10
130.2010576152
 20
102.9973898716
 30
0.0
 40
1.1998621176
100
AcDbArc
 50
296.5658054479999
 51
315.0011953164
  0
ARC
  5
14A
330
1F
100
AcDbEntity
  8
1
  6
________________
 62
     7
370
     9
100
AcDbCircle
 10
132.0024944327
 20
104.7990257765
 30
0.0
 40
1.2000028934
100
AcDbArc
 50
314.9998954633
 51
333.4331037722999
  0
ARC
  5
14B
330
1F
100
AcDbEntity
  8
1
  6
________________
 62
     7
370
     9
100
AcDbCircle
 10
132.0025637804
 20
104.798991652
 30
0.0
 40
1.199925606
100
AcDbArc
 50
333.4330801896
 51
26.56677870400005
  0
ARC
  5
14C
330
1F
100
AcDbEntity
  8
1
  6
________________
 62
     7
370
     9
100
AcDbCircle
 10
132.0026101284
 20
104.7990376152
 30
0.0
 40
1.1998621176
100
AcDbArc
 50
26.565805448
 51
45.0011953164
  0
LINE
  5
14D
330
1F
100
AcDbEntity
  8
1
  6
________________
 62
     7
370
     9
100
AcDbLine
 10
131.049506
 20
102.148977
 30
0.0
 11
132.851023
 21
103.950494
 31
0.0
  0
CIRCLE
  5
14E
330
1F
100
AcDbEntity
  8
1
  6
________________
 62
     7
370
     9
100
AcDbCircle
 10
150.0
 20
85.0
 30
0.0
 40
32.5
  0
ARC
  5
14F
330
1F
100
AcDbEntity
  8
1
  6
________________
 62
     7
370
     9
100
AcDbCircle
 10
150.0
 20
85.0
 30
0.0
 40
31.0
100
AcDbArc
 50
130.422894
 51
139.577106
  0
LINE
  5
150
330
1F
100
AcDbEntity
  8
1
  6
________________
 62
     7
370
     9
100
AcDbLine
 10
128.8349552811
 20
60.3364462811
 30
0.0
 11
132.851023
 21
64.352514
 31
0.0
  0
LINE
  5
151
330
1F
100
AcDbEntity
  8
1
  6
________________
 62
     7
370
     9
100
AcDbLine
 10
129.352514
 20
67.851023
 30
0.0
 11
125.3364462811
 21
63.8349552811
 31
0.0
  0
ARC
  5
152
330
1F
100
AcDbEntity
  8
1
  6
________________
 62
     7
370
     9
100
AcDbCircle
 10
132.0024944327
 20
65.2010457765
 30
0.0
 40
1.2000028934
100
AcDbArc
 50
314.9998954633
 51
333.4331037722999
  0
ARC
  5
153
330
1F
100
AcDbEntity
  8
1
  6
________________
 62
     7
370
     9
100
AcDbCircle
 10
132.0025637804
 20
65.201011652
 30
0.0
 40
1.199925606
100
AcDbArc
 50
333.4330801896
 51
26.56677870400005
  0
ARC
  5
154
330
1F
100
AcDbEntity
  8
1
  6
________________
 62
     7
370
     9
100
AcDbCircle
 10
132.0026101284
 20
65.2010576152
 30
0.0
 40
1.1998621176
100
AcDbArc
 50
26.565805448
 51
45.0011953164
  0
ARC
  5
155
330
1F
100
AcDbEntity
  8
1
  6
________________
 62
     7
370
     9
100
AcDbCircle
 10
130.2009742235
 20
67.0024944327
 30
0.0
 40
1.2000028934
100
AcDbArc
 50
44.9998954633
 51
63.4331037723
  0
ARC
  5
156
330
1F
100
AcDbEntity
  8
1
  6
________________
 62
     7
370
     9
100
AcDbCircle
 10
130.201008348
 20
67.0025637804
 30
0.0
 40
1.199925606
100
AcDbArc
 50
63.4330801896
 51
116.566778704
  0
ARC
  5
157
330
1F
100
AcDbEntity
  8
1
  6
________________
 62
     7
370
     9
100
AcDbCircle
 10
130.2009623848
 20
67.0026101284
 30
0.0
 40
1.1998621176
100
AcDbArc
 50
116.565805448
 51
135.0011953164
  0
LINE
  5
158
330
1F
100
AcDbEntity
  8
1
  6
________________
 62
     7
370
     9
100
AcDbLine
 10
132.851023
 20
66.049506
 30
0.0
 11
131.049506
 21
67.851023
 31
0.0
  0
ARC
  5
159
330
1F
100
AcDbEntity
  8
1
  6
________________
 62
     7
370
     9
100
AcDbCircle
 10
150.0
 20
85.0
 30
0.0
 40
31.0
100
AcDbArc
 50
220.422894
 51
229.5771059999999
  0
LINE
  5
15A
330
1F
100
AcDbEntity
  8
1
  6
________________
 62
     7
370
     9
100
AcDbLine
 10
174.6635537189
 20
63.8349552811
 30
0.0
 11
170.647486
 21
67.851023
 31
0.0
  0
LINE
  5
15B
330
1F
100
AcDbEntity
  8
1
  6
________________
 62
     7
370
     9
100
AcDbLine
 10
167.148977
 20
64.352514
 30
0.0
 11
171.1650447189
 21
60.3364462811
 31
0.0
  0
ARC
  5
15C
330
1F
100
AcDbEntity
  8
1
  6
________________
 62
     7
370
     9
100
AcDbCircle
 10
169.7989542235
 20
67.0024944327
 30
0.0
 40
1.2000028934
100
AcDbArc
 50
44.9998954633
 51
63.4331037723
  0
ARC
  5
15D
330
1F
100
AcDbEntity
  8
1
  6
________________
 62
     7
370
     9
100
AcDbCircle
 10
169.798988348
 20
67.0025637804
 30
0.0
 40
1.199925606
100
AcDbArc
 50
63.4330801896
 51
116.566778704
  0
ARC
  5
15E
330
1F
100
AcDbEntity
  8
1
  6
________________
 62
     7
370
     9
100
AcDbCircle
 10
169.7989423848
 20
67.0026101284
 30
0.0
 40
1.1998621176
100
AcDbArc
 50
116.565805448
 51
135.0011953164
  0
ARC
  5
15F
330
1F
100
AcDbEntity
  8
1
  6
________________
 62
     7
370
     9
100
AcDbCircle
 10
167.9975055673
 20
65.2009742235
 30
0.0
 40
1.2000028934
100
AcDbArc
 50
134.9998954633
 51
153.4331037723
  0
ARC
  5
160
330
1F
100
AcDbEntity
  8
1
  6
________________
 62
     7
370
     9
100
AcDbCircle
 10
167.9974362196
 20
65.201008348
 30
0.0
 40
1.199925606
100
AcDbArc
 50
153.4330801896
 51
206.566778704
  0
ARC
  5
161
330
1F
100
AcDbEntity
  8
1
  6
________________
 62
     7
370
     9
100
AcDbCircle
 10
167.9973898716
 20
65.2009623848
 30
0.0
 40
1.1998621176
100
AcDbArc
 50
206.565805448
 51
225.0011953164
  0
LINE
  5
162
330
1F
100
AcDbEntity
  8
1
  6
________________
 62
     7
370
     9
100
AcDbLine
 10
168.950494
 20
67.851023
 30
0.0
 11
167.148977
 21
66.049506
 31
0.0
  0
ARC
  5
163
330
1F
100
AcDbEntity
  8
1
  6
________________
 62
     7
370
     9
100
AcDbCircle
 10
150.0
 20
85.0
 30
0.0
 40
31.0
100
AcDbArc
 50
310.422894
 51
319.577106
  0
LINE
  5
164
330
1F
100
AcDbEntity
  8
1
  6
________________
 62
     7
370
     9
100
AcDbLine
 10
171.1650447189
 20
109.6635537189
 30
0.0
 11
167.148977
 21
105.647486
 31
0.0
  0
LINE
  5
165
330
1F
100
AcDbEntity
  8
1
  6
________________
 62
     7
370
     9
100
AcDbLine
 10
170.647486
 20
102.148977
 30
0.0
 11
174.6635537189
 21
106.1650447189
 31
0.0
  0
ARC
  5
166
330
1F
100
AcDbEntity
  8
1
  6
________________
 62
     7
370
     9
100
AcDbCircle
 10
167.9975055673
 20
104.7989542235
 30
0.0
 40
1.2000028934
100
AcDbArc
 50
134.9998954633
 51
153.4331037723
  0
ARC
  5
167
330
1F
100
AcDbEntity
  8
1
  6
________________
 62
     7
370
     9
100
AcDbCircle
 10
167.9974362196
 20
104.798988348
 30
0.0
 40
1.199925606
100
AcDbArc
 50
153.4330801896
 51
206.566778704
  0
ARC
  5
168
330
1F
100
AcDbEntity
  8
1
  6
________________
 62
     7
370
     9
100
AcDbCircle
 10
167.9973898716
 20
104.7989423848
 30
0.0
 40
1.1998621176
100
AcDbArc
 50
206.565805448
 51
225.0011953164
  0
ARC
  5
169
330
1F
100
AcDbEntity
  8
1
  6
________________
 62
     7
370
     9
100
AcDbCircle
 10
169.7990257765
 20
102.9975055673
 30
0.0
 40
1.2000028934
100
AcDbArc
 50
224.9998954633
 51
243.4331037723
  0
ARC
  5
16A
330
1F
100
AcDbEntity
  8
1
  6
________________
 62
     7
370
     9
100
AcDbCircle
 10
169.798991652
 20
102.9974362196
 30
0.0
 40
1.199925606
100
AcDbArc
 50
243.4330801895999
 51
296.566778704
  0
ARC
  5
16B
330
1F
100
AcDbEntity
  8
1
  6
________________
 62
     7
370
     9
100
AcDbCircle
 10
169.7990376152
 20
102.9973898716
 30
0.0
 40
1.1998621176
100
AcDbArc
 50
296.5658054479999
 51
315.0011953164
  0
LINE
  5
16C
330
1F
100
AcDbEntity
  8
1
  6
________________
 62
     7
370
     9
100
AcDbLine
 10
167.148977
 20
103.950494
 30
0.0
 11
168.950494
 21
102.148977
 31
0.0
  0
ARC
  5
16D
330
1F
100
AcDbEntity
  8
1
  6
________________
 62
     7
370
     9
100
AcDbCircle
 10
150.0
 20
85.0
 30
0.0
 40
31.0
100
AcDbArc
 50
40.422894
 51
49.57710600000001
  0
LINE
  5
16E
330
1F
100
AcDbEntity
  8
1
  6
________________
 62
     7
370
     9
100
AcDbLine
 10
94.471538
 20
116.5
 30
0.0
 11
94.471538
 21
53.50000000000001
 31
0.0
  0
ARC
  5
16F
330
1F
100
AcDbEntity
  8
1
  6
________________
 62
     7
370
     9
100
AcDbCircle
 10
93.471538
 20
116.5
 30
0.0
 40
1.0
100
AcDbArc
 50
0.0
 51
90.0
  0
LINE
  5
170
330
1F
100
AcDbEntity
  8
1
  6
________________
 62
     7
370
     9
100
AcDbLine
 10
59.787595
 20
86.341798
 30
0.0
 11
59.179195
 21
85.791834
 31
0.0
  0
LINE
  5
171
330
1F
100
AcDbEntity
  8
1
  6
________________
 62
     7
370
     9
100
AcDbLine
 10
12.236974
 20
51.114302
 30
0.0
 11
-0.0538420000000019
 21
51.531452
 31
0.0
  0
LINE
  5
172
330
1F
100
AcDbEntity
  8
1
  6
________________
 62
     7
370
     9
100
AcDbLine
 10
-1.968889
 20
66.856535
 30
0.0
 11
-1.968889
 21
56.740405
 31
0.0
  0
LINE
  5
173
330
1F
100
AcDbEntity
  8
1
  6
________________
 62
     7
370
     9
100
AcDbLine
 10
-1.968889
 20
52.188082
 30
0.0
 11
-1.968889
 21
51.417415
 31
0.0
  0
ARC
  5
174
330
1F
100
AcDbEntity
  8
1
  6
________________
 62
     7
370
     9
100
AcDbCircle
 10
-0.0673699273
 20
51.5327928931
 30
0.0
 40
0.0135941398
100
AcDbArc
 50
324.9818001228
 51
354.3386941900001
  0
LINE
  5
175
330
1F
100
AcDbEntity
  8
1
  6
________________
 62
     7
370
     9
100
AcDbLine
 10
-1.968889
 20
52.188082
 30
0.0
 11
-1.953836
 21
52.172266
 31
0.0
  0
ARC
  5
176
330
1F
100
AcDbEntity
  8
1
  6
________________
 62
     7
370
     9
100
AcDbCircle
 10
12.2258734048
 20
51.1154720296
 30
0.0
 40
0.011162073
100
AcDbArc
 50
322.8022596848
 51
353.9799707658
  0
LINE
  5
177
330
1F
100
AcDbEntity
  8
1
  6
________________
 62
     7
370
     9
100
AcDbLine
 10
13.971538
 20
50.854877
 30
0.0
 11
13.971538
 21
50.711222
 31
0.0
  0
LINE
  5
178
330
1F
100
AcDbEntity
  8
1
  6
________________
 62
     7
370
     9
100
AcDbLine
 10
79.494315
 20
56.176766
 30
0.0
 11
79.553065
 21
55.956422
 31
0.0
  0
LINE
  5
179
330
1F
100
AcDbEntity
  8
1
  6
________________
 62
     7
370
     9
100
AcDbLine
 10
79.670538
 20
55.5
 30
0.0
 11
79.553065
 21
55.956422
 31
0.0
  0
LINE
  5
17A
330
1F
100
AcDbEntity
  8
1
  6
________________
 62
     7
370
     9
100
AcDbLine
 10
79.553065
 20
83.710068
 30
0.0
 11
79.670538
 21
84.208166
 31
0.0
  0
LINE
  5
17B
330
1F
100
AcDbEntity
  8
1
  6
________________
 62
     7
370
     9
100
AcDbLine
 10
79.553065
 20
83.710068
 30
0.0
 11
79.494315
 21
83.690791
 31
0.0
  0
LINE
  5
17C
330
1F
100
AcDbEntity
  8
1
  6
________________
 62
     7
370
     9
100
AcDbLine
 10
59.179137
 20
55.499936
 30
0.0
 11
59.593549
 21
55.956422
 31
0.0
  0
LINE
  5
17D
330
1F
100
AcDbEntity
  8
1
  6
________________
 62
     7
370
     9
100
AcDbLine
 10
59.593549
 20
55.956422
 30
0.0
 11
59.701358
 21
56.225759
 31
0.0
  0
ARC
  5
17E
330
1F
100
AcDbEntity
  8
1
  6
________________
 62
     7
370
     9
100
AcDbCircle
 10
77.316684
 20
97.980621
 30
0.0
 40
14.454803
100
AcDbArc
 50
269.059814
 51
278.664658
  0
LINE
  5
17F
330
1F
100
AcDbEntity
  8
1
  6
________________
 62
     7
370
     9
100
AcDbLine
 10
61.719447
 20
83.527764
 30
0.0
 11
59.787595
 21
83.658202
 31
0.0
  0
LINE
  5
180
330
1F
100
AcDbEntity
  8
1
  6
________________
 62
     7
370
     9
100
AcDbLine
 10
61.719447
 20
83.527764
 30
0.0
 11
77.0795
 21
83.527764
 31
0.0
  0
ARC
  5
181
330
1F
100
AcDbEntity
  8
1
  6
________________
 62
     7
370
     9
100
AcDbCircle
 10
77.074162
 20
55.536849
 30
0.0
 40
2.503325
100
AcDbArc
 50
14.81072
 51
89.877807
  0
LINE
  5
182
330
1F
100
AcDbEntity
  8
1
  6
________________
 62
     7
370
     9
100
AcDbLine
 10
59.787595
 20
56.549262
 30
0.0
 11
59.701358
 21
56.225759
 31
0.0
  0
ARC
  5
183
330
1F
100
AcDbEntity
  8
1
  6
________________
 62
     7
370
     9
100
AcDbCircle
 10
61.724023
 20
56.037181
 30
0.0
 40
2.002992
100
AcDbArc
 50
90.1309
 51
165.18744
  0
LINE
  5
184
330
1F
100
AcDbEntity
  8
1
  6
________________
 62
     7
370
     9
100
AcDbLine
 10
77.0795
 20
58.040168
 30
0.0
 11
61.719447
 21
58.040168
 31
0.0
  0
LINE
  5
185
330
1F
100
AcDbEntity
  8
1
  6
________________
 62
     7
370
     9
100
AcDbLine
 10
59.179195
 20
55.5
 30
0.0
 11
79.670538
 21
55.5
 31
0.0
  0
LINE
  5
186
330
1F
100
AcDbEntity
  8
1
  6
________________
 62
     7
370
     9
100
AcDbLine
 10
81.392331
 20
52.5
 30
0.0
 11
93.471538
 21
52.5
 31
0.0
  0
LINE
  5
187
330
1F
100
AcDbEntity
  8
1
  6
________________
 62
     7
370
     9
100
AcDbLine
 10
29.971538
 20
50.0
 30
0.0
 11
14.263685
 21
50.411325
 31
0.0
  0
ARC
  5
188
330
1F
100
AcDbEntity
  8
1
  6
________________
 62
     7
370
     9
100
AcDbCircle
 10
0.037777
 20
54.285043
 30
0.0
 40
3.5
100
AcDbArc
 50
210.0
 51
235.017013
  0
LINE
  5
189
330
1F
100
AcDbEntity
  8
1
  6
________________
 62
     7
370
     9
100
AcDbLine
 10
-2.993312
 20
52.535043
 30
0.0
 11
-3.862154
 21
54.039922
 31
0.0
  0
ARC
  5
18A
330
1F
100
AcDbEntity
  8
1
  6
________________
 62
     7
370
     9
100
AcDbCircle
 10
-5.594205
 20
53.039922
 30
0.0
 40
2.0
100
AcDbArc
 50
30.0
 51
80.0
  0
LINE
  5
18B
330
1F
100
AcDbEntity
  8
1
  6
________________
 62
     7
370
     9
100
AcDbLine
 10
-5.246908
 20
55.009537
 30
0.0
 11
-8.028462
 21
55.5
 31
0.0
  0
ARC
  5
18C
330
1F
100
AcDbEntity
  8
1
  6
________________
 62
     7
370
     9
100
AcDbCircle
 10
0.065639
 20
54.988642
 30
0.0
 40
3.464182
100
AcDbArc
 50
234.044149
 51
267.966807
  0
LINE
  5
18D
330
1F
100
AcDbEntity
  8
1
  6
________________
 62
     7
370
     9
100
AcDbLine
 10
13.284091
 20
51.018001
 30
0.0
 11
-1.968888999999998
 21
51.417415
 31
0.0
  0
ARC
  5
18E
330
1F
100
AcDbEntity
  8
1
  6
________________
 62
     7
370
     9
100
AcDbCircle
 10
14.271538
 20
50.711222
 30
0.0
 40
0.3
100
AcDbArc
 50
180.0
 51
268.5
  0
LINE
  5
18F
330
1F
100
AcDbEntity
  8
1
  6
________________
 62
     7
370
     9
100
AcDbLine
 10
32.180642
 20
50.0
 30
0.0
 11
29.971538
 21
50.0
 31
0.0
  0
ARC
  5
190
330
1F
100
AcDbEntity
  8
1
  6
________________
 62
     7
370
     9
100
AcDbCircle
 10
32.180642
 20
51.2
 30
0.0
 40
1.2
100
AcDbArc
 50
270.0
 51
330.0
  0
LINE
  5
191
330
1F
100
AcDbEntity
  8
1
  6
________________
 62
     7
370
     9
100
AcDbLine
 10
34.778652
 20
53.299886
 30
0.0
 11
33.219872
 21
50.6
 31
0.0
  0
ARC
  5
192
330
1F
100
AcDbEntity
  8
1
  6
________________
 62
     7
370
     9
100
AcDbCircle
 10
81.392331
 20
53.7
 30
0.0
 40
1.2
100
AcDbArc
 50
195.0
 51
270.0
  0
ARC
  5
193
330
1F
100
AcDbEntity
  8
1
  6
________________
 62
     7
370
     9
100
AcDbCircle
 10
36.943716
 20
52.049886
 30
0.0
 40
2.5
100
AcDbArc
 50
92.0
 51
150.0
  0
LINE
  5
194
330
1F
100
AcDbEntity
  8
1
  6
________________
 62
     7
370
     9
100
AcDbLine
 10
80.23322
 20
53.389417
 30
0.0
 11
79.667882
 21
55.499288
 31
0.0
  0
LINE
  5
195
330
1F
100
AcDbEntity
  8
1
  6
________________
 62
     7
370
     9
100
AcDbLine
 10
58.584126
 20
55.307109
 30
0.0
 11
36.856467
 21
54.548363
 31
0.0
  0
ARC
  5
196
330
1F
100
AcDbEntity
  8
1
  6
________________
 62
     7
370
     9
100
AcDbCircle
 10
58.542247
 20
56.506378
 30
0.0
 40
1.2
100
AcDbArc
 50
272.0000000000001
 51
303.001718
  0
LINE
  5
197
330
1F
100
AcDbEntity
  8
1
  6
________________
 62
     7
370
     9
100
AcDbLine
 10
14.263685
 20
50.411325
 30
0.0
 11
14.263685
 21
50.71206
 31
0.0
  0
LINE
  5
198
330
1F
100
AcDbEntity
  8
1
  6
________________
 62
     7
370
     9
100
AcDbLine
 10
14.263685
 20
50.71206
 30
0.0
 11
14.183356
 21
50.796216
 31
0.0
  0
ARC
  5
199
330
1F
100
AcDbEntity
  8
1
  6
________________
 62
     7
370
     9
100
AcDbCircle
 10
12.247164
 20
45.062599
 30
0.0
 40
6.051711
100
AcDbArc
 50
71.340629
 51
90.096477
  0
ARC
  5
19A
330
1F
100
AcDbEntity
  8
1
  6
________________
 62
     7
370
     9
100
AcDbCircle
 10
12.153518
 20
80.440147
 30
0.0
 40
2.110185
100
AcDbArc
 50
272.26661
 51
0.2343700000000126
  0
LINE
  5
19B
330
1F
100
AcDbEntity
  8
1
  6
________________
 62
     7
370
     9
100
AcDbLine
 10
-0.053842
 20
77.898063
 30
0.0
 11
12.236974
 21
78.331613
 31
0.0
  0
LINE
  5
19C
330
1F
100
AcDbEntity
  8
1
  6
________________
 62
     7
370
     9
100
AcDbLine
 10
12.236974
 20
65.754455
 30
0.0
 11
-0.0538420000000019
 21
66.355991
 31
0.0
  0
ARC
  5
19D
330
1F
100
AcDbEntity
  8
1
  6
________________
 62
     7
370
     9
100
AcDbCircle
 10
12.259895
 20
63.716705
 30
0.0
 40
2.037879
100
AcDbArc
 50
11.920957
 51
90.64444000000002
  0
LINE
  5
19E
330
1F
100
AcDbEntity
  8
1
  6
________________
 62
     7
370
     9
100
AcDbLine
 10
14.263685
 20
57.3367153608
 30
0.0
 11
14.263685
 21
64.137653524
 31
0.0
  0
ARC
  5
19F
330
1F
100
AcDbEntity
  8
1
  6
________________
 62
     7
370
     9
100
AcDbCircle
 10
12.390668
 20
58.717079
 30
0.0
 40
2.398078
100
AcDbArc
 50
266.32537
 51
324.857463745
  0
LINE
  5
1A0
330
1F
100
AcDbEntity
  8
1
  6
________________
 62
     7
370
     9
100
AcDbLine
 10
-0.053842
 20
56.312335
 30
0.0
 11
12.236974
 21
56.323931
 31
0.0
  0
ARC
  5
1A1
330
1F
100
AcDbEntity
  8
1
  6
________________
 62
     7
370
     9
100
AcDbCircle
 10
0.130161
 20
70.973663
 30
0.0
 40
4.621337
100
AcDbArc
 50
242.985987
 51
267.718105
  0
LINE
  5
1A2
330
1F
100
AcDbEntity
  8
1
  6
________________
 62
     7
370
     9
100
AcDbLine
 10
-1.968889
 20
77.846816
 30
0.0
 11
-0.0538420000000001
 21
77.898063
 31
0.0
  0
ARC
  5
1A3
330
1F
100
AcDbEntity
  8
1
  6
________________
 62
     7
370
     9
100
AcDbCircle
 10
0.066785
 20
55.004171
 30
0.0
 40
3.474813
100
AcDbArc
 50
234.13786
 51
268.010594
  0
ARC
  5
1A4
330
1F
100
AcDbEntity
  8
1
  6
________________
 62
     7
370
     9
100
AcDbCircle
 10
-0.085286
 20
60.669349
 30
0.0
 40
4.357128
100
AcDbArc
 50
244.38614
 51
270.4134839999999
  0
LINE
  5
1A5
330
1F
100
AcDbEntity
  8
1
  6
________________
 62
     7
370
     9
100
AcDbLine
 10
-4.6455766602
 20
84.999993
 30
0.0
 11
-4.6455766602
 21
54.8006331388
 31
0.0
  0
LINE
  5
1A6
330
1F
100
AcDbEntity
  8
1
  6
________________
 62
     7
370
     9
100
AcDbLine
 10
77.0795
 20
83.527764
 30
0.0
 11
77.0795
 21
58.040168
 31
0.0
  0
LINE
  5
1A7
330
1F
100
AcDbEntity
  8
1
  6
________________
 62
     7
370
     9
100
AcDbLine
 10
61.719447
 20
58.040168
 30
0.0
 11
61.719447
 21
83.527764
 31
0.0
  0
ARC
  5
1A8
330
1F
100
AcDbEntity
  8
1
  6
________________
 62
     7
370
     9
100
AcDbCircle
 10
93.471538
 20
53.5
 30
0.0
 40
1.0
100
AcDbArc
 50
270.0
 51
0.0
  0
LINE
  5
1A9
330
1F
100
AcDbEntity
  8
1
  6
________________
 62
     7
370
     9
100
AcDbLine
 10
59.787595
 20
83.658202
 30
0.0
 11
59.179195
 21
84.208166
 31
0.0
  0
MTEXT
  5
1AA
330
1F
100
AcDbEntity
  8
1
 62
     7
100
AcDbMText
 10
29.96065363636363
 20
38.17961372727272
 30
0.0
 40
5.0
 41
0.0
 46
0.0
 71
     1
 72
     1
  1
{\FＭＳ ゴシック;\W0.873966;MFK-42B}
 73
     1
 44
1.0
  0
ENDSEC
  0
SECTION
  2
OBJECTS
  0
DICTIONARY
  5
C
330
0
100
AcDbDictionary
281
     1
  3
ACAD_GROUP
350
D
  3
ACAD_LAYOUT
350
1A
  3
ACAD_MLEADERSTYLE
350
1AC
  3
ACAD_MLINESTYLE
350
17
  3
ACAD_PLOTSETTINGS
350
19
  3
ACAD_PLOTSTYLENAME
350
E
  3
ACAD_TABLESTYLE
350
1AB
  3
ACAD_VISUALSTYLE
350
2A
  0
DICTIONARY
  5
D
102
{ACAD_REACTORS
330
C
102
}
330
C
100
AcDbDictionary
281
     1
  0
DICTIONARY
  5
1A
102
{ACAD_REACTORS
330
C
102
}
330
C
100
AcDbDictionary
281
     1
  3
Layout1
350
1E
  3
Layout2
350
26
  3
Model
350
22
  0
DICTIONARY
  5
1AC
102
{ACAD_REACTORS
330
C
102
}
330
C
100
AcDbDictionary
281
     1
  0
DICTIONARY
  5
17
102
{ACAD_REACTORS
330
C
102
}
330
C
100
AcDbDictionary
281
     1
  3
Standard
350
18
  0
DICTIONARY
  5
19
102
{ACAD_REACTORS
330
C
102
}
330
C
100
AcDbDictionary
281
     1
  0
ACDBDICTIONARYWDFLT
  5
E
102
{ACAD_REACTORS
330
C
102
}
330
C
100
AcDbDictionary
281
     1
  3
Normal
350
F
100
AcDbDictionaryWithDefault
340
F
  0
DICTIONARY
  5
1AB
102
{ACAD_REACTORS
330
C
102
}
330
C
100
AcDbDictionary
281
     1
  0
DICTIONARY
  5
2A
102
{ACAD_REACTORS
330
C
102
}
330
C
100
AcDbDictionary
281
     1
  3
2dWireframe
350
2F
  3
3D Hidden
350
31
  3
3dWireframe
350
30
  3
Basic
350
32
  3
Brighten
350
36
  3
ColorChange
350
3A
  3
Conceptual
350
34
  3
Dim
350
35
  3
Facepattern
350
39
  3
Flat
350
2B
  3
FlatWithEdges
350
2C
  3
Gouraud
350
2D
  3
GouraudWithEdges
350
2E
  3
Linepattern
350
38
  3
Realistic
350
33
  3
Thicken
350
37
  0
LAYOUT
  5
1E
102
{ACAD_REACTORS
330
1A
102
}
330
1A
100
AcDbPlotSettings
  1

  2
none_device
  4

  6

 40
0.0
 41
0.0
 42
0.0
 43
0.0
 44
0.0
 45
0.0
 46
0.0
 47
0.0
 48
0.0
 49
0.0
140
0.0
141
0.0
142
1.0
143
1.0
 70
   688
 72
     0
 73
     0
 74
     5
  7

 75
    16
 76
     0
 77
     2
 78
   300
147
1.0
148
0.0
149
0.0
100
AcDbLayout
  1
Layout1
 70
     1
 71
     1
 10
0.0
 20
0.0
 11
12.0
 21
9.0
 12
0.0
 22
0.0
 32
0.0
 14
1.000000000000000E+20
 24
1.000000000000000E+20
 34
1.000000000000000E+20
 15
-1.000000000000000E+20
 25
-1.000000000000000E+20
 35
-1.000000000000000E+20
146
0.0
 13
0.0
 23
0.0
 33
0.0
 16
1.0
 26
0.0
 36
0.0
 17
0.0
 27
1.0
 37
0.0
 76
     0
330
1B
  0
LAYOUT
  5
26
102
{ACAD_REACTORS
330
1A
102
}
330
1A
100
AcDbPlotSettings
  1

  2
none_device
  4

  6

 40
0.0
 41
0.0
 42
0.0
 43
0.0
 44
0.0
 45
0.0
 46
0.0
 47
0.0
 48
0.0
 49
0.0
140
0.0
141
0.0
142
1.0
143
1.0
 70
   688
 72
     0
 73
     0
 74
     5
  7

 75
    16
 76
     0
 77
     2
 78
   300
147
1.0
148
0.0
149
0.0
100
AcDbLayout
  1
Layout2
 70
     1
 71
     2
 10
0.0
 20
0.0
 11
0.0
 21
0.0
 12
0.0
 22
0.0
 32
0.0
 14
0.0
 24
0.0
 34
0.0
 15
0.0
 25
0.0
 35
0.0
146
0.0
 13
0.0
 23
0.0
 33
0.0
 16
1.0
 26
0.0
 36
0.0
 17
0.0
 27
1.0
 37
0.0
 76
     0
330
23
  0
LAYOUT
  5
22
102
{ACAD_REACTORS
330
1A
102
}
330
1A
100
AcDbPlotSettings
  1

  2
none_device
  4

  6

 40
0.0
 41
0.0
 42
0.0
 43
0.0
 44
0.0
 45
0.0
 46
0.0
 47
0.0
 48
0.0
 49
0.0
140
0.0
141
0.0
142
1.0
143
1.0
 70
  1712
 72
     0
 73
     0
 74
     0
  7

 75
     0
 76
     0
 77
     2
 78
   300
147
1.0
148
0.0
149
0.0
100
AcDbLayout
  1
Model
 70
     1
 71
     0
 10
0.0
 20
0.0
 11
12.0
 21
9.0
 12
0.0
 22
0.0
 32
0.0
 14
-107.2495058782
 24
0.0
 34
0.0
 15
189.9609849952
 25
124.6003273322
 35
10.0
146
0.0
 13
0.0
 23
0.0
 33
0.0
 16
1.0
 26
0.0
 36
0.0
 17
0.0
 27
1.0
 37
0.0
 76
     0
330
1F
331
29
  0
MLINESTYLE
  5
18
102
{ACAD_REACTORS
330
17
102
}
330
17
100
AcDbMlineStyle
  2
Standard
 70
     0
  3

 62
   256
 51
90.0
 52
90.0
 71
     2
 49
0.5
 62
   256
  6
BYLAYER
 49
-0.5
 62
   256
  6
BYLAYER
  0
ACDBPLACEHOLDER
  5
F
102
{ACAD_REACTORS
330
E
102
}
330
E
  0
VISUALSTYLE
  5
2F
102
{ACAD_REACTORS
330
2A
102
}
330
2A
100
AcDbVisualStyle
  2
2dWireframe
 70
     4
 71
     0
 72
     2
 73
     0
 90
        0
 40
-0.6
 41
-30.0
 62
     5
 63
     7
421
 16777215
 74
     1
 91
        4
 64
     7
 65
   257
 75
     1
175
     1
 42
1.0
 92
        0
 66
   257
 43
1.0
 76
     1
 77
     6
 78
     2
 67
     7
 79
     5
170
     0
171
     0
290
     0
174
     0
 93
        1
 44
0.0
173
     0
291
     0
 45
0.0
  0
VISUALSTYLE
  5
31
102
{ACAD_REACTORS
330
2A
102
}
330
2A
100
AcDbVisualStyle
  2
3D Hidden
 70
     6
 71
     1
 72
     2
 73
     2
 90
        0
 40
-0.6
 41
-30.0
 62
     5
 63
     7
421
 16777215
 74
     2
 91
        2
 64
     7
 65
   257
 75
     2
175
     1
 42
40.0
 92
        0
 66
   257
 43
1.0
 76
     1
 77
     6
 78
     2
 67
     7
 79
     3
170
     0
171
     0
290
     0
174
     0
 93
        1
 44
0.0
173
     0
291
     0
 45
0.0
  0
VISUALSTYLE
  5
30
102
{ACAD_REACTORS
330
2A
102
}
330
2A
100
AcDbVisualStyle
  2
3dWireframe
 70
     5
 71
     0
 72
     2
 73
     0
 90
        0
 40
-0.6
 41
-30.0
 62
     5
 63
     7
421
 16777215
 74
     1
 91
        4
 64
     7
 65
   257
 75
     1
175
     1
 42
1.0
 92
        0
 66
   257
 43
1.0
 76
     1
 77
     6
 78
     2
 67
     7
 79
     5
170
     0
171
     0
290
     0
174
     0
 93
        1
 44
0.0
173
     0
291
     0
 45
0.0
  0
VISUALSTYLE
  5
32
102
{ACAD_REACTORS
330
2A
102
}
330
2A
100
AcDbVisualStyle
  2
Basic
 70
     7
 71
     1
 72
     0
 73
     1
 90
        0
 40
-0.6
 41
-30.0
 62
     5
 63
     7
421
 16777215
 74
     0
 91
        4
 64
     7
 65
   257
 75
     1
175
     1
 42
1.0
 92
        8
 66
     7
 43
1.0
 76
     1
 77
     6
 78
     2
 67
     7
 79
     5
170
     0
171
     0
290
     0
174
     0
 93
        1
 44
0.0
173
     0
291
     1
 45
0.0
  0
VISUALSTYLE
  5
36
102
{ACAD_REACTORS
330
2A
102
}
330
2A
100
AcDbVisualStyle
  2
Brighten
 70
    12
 71
     2
 72
     2
 73
     0
 90
        0
 40
-0.6
 41
-30.0
 62
     5
 63
     7
421
 16777215
 74
     1
 91
        4
 64
     7
 65
   257
 75
     1
175
     1
 42
1.0
 92
        8
 66
     7
 43
1.0
 76
     1
 77
     6
 78
     2
 67
     7
 79
     5
170
     0
171
     0
290
     0
174
     0
 93
        1
 44
50.0
173
     0
291
     1
 45
0.0
  0
VISUALSTYLE
  5
3A
102
{ACAD_REACTORS
330
2A
102
}
330
2A
100
AcDbVisualStyle
  2
ColorChange
 70
    16
 71
     2
 72
     2
 73
     3
 90
        0
 40
-0.6
 41
-30.0
 62
     5
 63
     8
421
  8421504
 74
     1
 91
        4
 64
     7
 65
   257
 75
     1
175
     1
 42
1.0
 92
        8
 66
     8
424
  8421504
 43
1.0
 76
     1
 77
     6
 78
     2
 67
     7
 79
     5
170
     0
171
     0
290
     0
174
     0
 93
        1
 44
0.0
173
     0
291
     1
 45
0.0
  0
VISUALSTYLE
  5
34
102
{ACAD_REACTORS
330
2A
102
}
330
2A
100
AcDbVisualStyle
  2
Conceptual
 70
     9
 71
     3
 72
     2
 73
     0
 90
        0
 40
-0.6
 41
-30.0
 62
     5
 63
     7
421
 16777215
 74
     2
 91
        2
 64
     7
 65
   257
 75
     1
175
     1
 42
40.0
 92
        8
 66
     7
 43
1.0
 76
     1
 77
     6
 78
     2
 67
     7
 79
     3
170
     0
171
     0
290
     0
174
     0
 93
        1
 44
0.0
173
     0
291
     0
 45
0.0
  0
VISUALSTYLE
  5
35
102
{ACAD_REACTORS
330
2A
102
}
330
2A
100
AcDbVisualStyle
  2
Dim
 70
    11
 71
     2
 72
     2
 73
     0
 90
        0
 40
-0.6
 41
-30.0
 62
     5
 63
     7
421
 16777215
 74
     1
 91
        4
 64
     7
 65
   257
 75
     1
175
     1
 42
1.0
 92
        8
 66
     7
 43
1.0
 76
     1
 77
     6
 78
     2
 67
     7
 79
     5
170
     0
171
     0
290
     0
174
     0
 93
        1
 44
-50.0
173
     0
291
     1
 45
0.0
  0
VISUALSTYLE
  5
39
102
{ACAD_REACTORS
330
2A
102
}
330
2A
100
AcDbVisualStyle
  2
Facepattern
 70
    15
 71
     2
 72
     2
 73
     0
 90
        0
 40
-0.6
 41
-30.0
 62
     5
 63
     7
421
 16777215
 74
     1
 91
        4
 64
     7
 65
   257
 75
     1
175
     1
 42
1.0
 92
        8
 66
     7
 43
1.0
 76
     1
 77
     6
 78
     2
 67
     7
 79
     5
170
     0
171
     0
290
     0
174
     0
 93
        1
 44
0.0
173
     0
291
     1
 45
0.0
  0
VISUALSTYLE
  5
2B
102
{ACAD_REACTORS
330
2A
102
}
330
2A
100
AcDbVisualStyle
  2
Flat
 70
     0
 71
     2
 72
     1
 73
     1
 90
        2
 40
-0.6
 41
30.0
 62
     5
 63
     7
421
 16777215
 74
     0
 91
        4
 64
     7
 65
   257
 75
     1
175
     1
 42
1.0
 92
        8
 66
     7
 43
1.0
 76
     1
 77
     6
 78
     2
 67
     7
 79
     5
170
     0
171
     0
290
     0
174
     0
 93
       13
 44
0.0
173
     0
291
     1
 45
0.0
  0
VISUALSTYLE
  5
2C
102
{ACAD_REACTORS
330
2A
102
}
330
2A
100
AcDbVisualStyle
  2
FlatWithEdges
 70
     1
 71
     2
 72
     1
 73
     1
 90
        2
 40
-0.6
 41
30.0
 62
     5
 63
     7
421
 16777215
 74
     1
 91
        4
 64
     7
 65
   257
 75
     1
175
     1
 42
1.0
 92
        0
 66
   257
 43
1.0
 76
     1
 77
     6
 78
     2
 67
     7
 79
     5
170
     0
171
     0
290
     0
174
     0
 93
       13
 44
0.0
173
     0
291
     1
 45
0.0
  0
VISUALSTYLE
  5
2D
102
{ACAD_REACTORS
330
2A
102
}
330
2A
100
AcDbVisualStyle
  2
Gouraud
 70
     2
 71
     2
 72
     2
 73
     1
 90
        2
 40
-0.6
 41
30.0
 62
     5
 63
     7
421
 16777215
 74
     0
 91
        4
 64
     7
 65
   257
 75
     1
175
     1
 42
1.0
 92
        0
 66
     7
 43
1.0
 76
     1
 77
     6
 78
     2
 67
     7
 79
     5
170
     0
171
     0
290
     0
174
     0
 93
       13
 44
0.0
173
     0
291
     1
 45
0.0
  0
VISUALSTYLE
  5
2E
102
{ACAD_REACTORS
330
2A
102
}
330
2A
100
AcDbVisualStyle
  2
GouraudWithEdges
 70
     3
 71
     2
 72
     2
 73
     1
 90
        2
 40
-0.6
 41
30.0
 62
     5
 63
     7
421
 16777215
 74
     1
 91
        4
 64
     7
 65
   257
 75
     1
175
     1
 42
1.0
 92
        0
 66
   257
 43
1.0
 76
     1
 77
     6
 78
     2
 67
     7
 79
     5
170
     0
171
     0
290
     0
174
     0
 93
       13
 44
0.0
173
     0
291
     1
 45
0.0
  0
VISUALSTYLE
  5
38
102
{ACAD_REACTORS
330
2A
102
}
330
2A
100
AcDbVisualStyle
  2
Linepattern
 70
    14
 71
     2
 72
     2
 73
     0
 90
        0
 40
-0.6
 41
-30.0
 62
     5
 63
     7
421
 16777215
 74
     1
 91
        4
 64
     7
 65
   257
 75
     7
175
     7
 42
1.0
 92
        8
 66
     7
 43
1.0
 76
     1
 77
     6
 78
     2
 67
     7
 79
     5
170
     0
171
     0
290
     0
174
     0
 93
        1
 44
0.0
173
     0
291
     1
 45
0.0
  0
VISUALSTYLE
  5
33
102
{ACAD_REACTORS
330
2A
102
}
330
2A
100
AcDbVisualStyle
  2
Realistic
 70
     8
 71
     2
 72
     2
 73
     0
 90
        0
 40
-0.6
 41
-30.0
 62
     5
 63
     7
421
 16777215
 74
     1
 91
        0
 64
     7
 65
   257
 75
     1
175
     1
 42
1.0
 92
        8
 66
     8
424
  7895160
 43
1.0
 76
     1
 77
     6
 78
     2
 67
     7
 79
     5
170
     0
171
     0
290
     0
174
     0
 93
       13
 44
0.0
173
     0
291
     0
 45
0.0
  0
VISUALSTYLE
  5
37
102
{ACAD_REACTORS
330
2A
102
}
330
2A
100
AcDbVisualStyle
  2
Thicken
 70
    13
 71
     2
 72
     2
 73
     0
 90
        0
 40
-0.6
 41
-30.0
 62
     5
 63
     7
421
 16777215
 74
     1
 91
        4
 64
     7
 65
   257
 75
     1
175
     1
 42
1.0
 92
       12
 66
     7
 43
1.0
 76
     1
 77
     6
 78
     2
 67
     7
 79
     5
170
     0
171
     0
290
     0
174
     0
 93
        1
 44
0.0
173
     0
291
     1
 45
0.0
  0
ENDSEC
  0
EOF
