  0
SECTION
  2
HEADER
  9
$ACADVER
  1
AC1021
  9
$ACADMAINTVER
 70
    25
  9
$DWGCODEPAGE
  3
ANSI_932
  9
$INSBASE
 10
0.0
 20
0.0
 30
0.0
  9
$EXTMIN
 10
-111.25
 20
-102.5021904545455
 30
0.0
  9
$EXTMAX
 10
227.4387225814
 20
10.0
 30
10.0
  9
$LIMMIN
 10
0.0
 20
0.0
  9
$LIMMAX
 10
12.0
 20
9.0
  9
$ORTHOMODE
 70
     0
  9
$REGENMODE
 70
     1
  9
$FILLMODE
 70
     1
  9
$QTEXTMODE
 70
     0
  9
$MIRRTEXT
 70
     1
  9
$LTSCALE
 40
1.0
  9
$ATTMODE
 70
     1
  9
$TEXTSIZE
 40
0.2
  9
$TRACEWID
 40
0.05
  9
$TEXTSTYLE
  7
Standard
  9
$CLAYER
  8
0
  9
$CELTYPE
  6
ByLayer
  9
$CECOLOR
 62
   256
  9
$CELTSCALE
 40
1.0
  9
$DISPSILH
 70
     0
  9
$DIMSCALE
 40
1.0
  9
$DIMASZ
 40
0.9
  9
$DIMEXO
 40
0.0625
  9
$DIMDLI
 40
0.38
  9
$DIMRND
 40
0.0
  9
$DIMDLE
 40
0.0
  9
$DIMEXE
 40
0.18
  9
$DIMTP
 40
0.0
  9
$DIMTM
 40
0.0
  9
$DIMTXT
 40
3.0
  9
$DIMCEN
 40
0.09
  9
$DIMTSZ
 40
0.0
  9
$DIMTOL
 70
     0
  9
$DIMLIM
 70
     0
  9
$DIMTIH
 70
     1
  9
$DIMTOH
 70
     1
  9
$DIMSE1
 70
     0
  9
$DIMSE2
 70
     0
  9
$DIMTAD
 70
     1
  9
$DIMZIN
 70
     0
  9
$DIMBLK
  1

  9
$DIMASO
 70
     1
  9
$DIMSHO
 70
     1
  9
$DIMPOST
  1

  9
$DIMAPOST
  1

  9
$DIMALT
 70
     0
  9
$DIMALTD
 70
     2
  9
$DIMALTF
 40
25.4
  9
$DIMLFAC
 40
1.0
  9
$DIMTOFL
 70
     0
  9
$DIMTVP
 40
0.0
  9
$DIMTIX
 70
     0
  9
$DIMSOXD
 70
     0
  9
$DIMSAH
 70
     0
  9
$DIMBLK1
  1

  9
$DIMBLK2
  1

  9
$DIMSTYLE
  2
Standard
  9
$DIMCLRD
 70
     0
  9
$DIMCLRE
 70
     0
  9
$DIMCLRT
 70
     0
  9
$DIMTFAC
 40
1.0
  9
$DIMGAP
 40
0.09
  9
$DIMJUST
 70
     0
  9
$DIMSD1
 70
     0
  9
$DIMSD2
 70
     0
  9
$DIMTOLJ
 70
     1
  9
$DIMTZIN
 70
     0
  9
$DIMALTZ
 70
     0
  9
$DIMALTTZ
 70
     0
  9
$DIMUPT
 70
     0
  9
$DIMDEC
 70
     2
  9
$DIMTDEC
 70
     4
  9
$DIMALTU
 70
     2
  9
$DIMALTTD
 70
     2
  9
$DIMTXSTY
  7
Standard
  9
$DIMAUNIT
 70
     0
  9
$DIMADEC
 70
     2
  9
$DIMALTRND
 40
0.0
  9
$DIMAZIN
 70
     0
  9
$DIMDSEP
 70
    46
  9
$DIMATFIT
 70
     3
  9
$DIMFRAC
 70
     0
  9
$DIMLDRBLK
  1

  9
$DIMLUNIT
 70
     2
  9
$DIMLWD
 70
    -2
  9
$DIMLWE
 70
    -2
  9
$DIMTMOVE
 70
     0
  9
$DIMFXL
 40
1.0
  9
$DIMFXLON
 70
     0
  9
$DIMJOGANG
 40
0.7853981633974483
  9
$DIMTFILL
 70
     0
  9
$DIMTFILLCLR
 70
     0
  9
$DIMARCSYM
 70
     0
  9
$DIMLTYPE
  6

  9
$DIMLTEX1
  6

  9
$DIMLTEX2
  6

  9
$LUNITS
 70
     2
  9
$LUPREC
 70
     4
  9
$SKETCHINC
 40
0.1
  9
$FILLETRAD
 40
0.5
  9
$AUNITS
 70
     0
  9
$AUPREC
 70
     0
  9
$MENU
  1
.
  9
$ELEVATION
 40
0.0
  9
$PELEVATION
 40
0.0
  9
$THICKNESS
 40
0.0
  9
$LIMCHECK
 70
     0
  9
$CHAMFERA
 40
0.5
  9
$CHAMFERB
 40
0.5
  9
$CHAMFERC
 40
1.0
  9
$CHAMFERD
 40
0.0
  9
$SKPOLY
 70
     0
  9
$TDCREATE
 40
2459070.609637882
  9
$TDUCREATE
 40
2459070.234637882
  9
$TDUPDATE
 40
2459070.609637894
  9
$TDUUPDATE
 40
2459070.234637894
  9
$TDINDWG
 40
0.0000000116
  9
$TDUSRTIMER
 40
0.0000000116
  9
$USRTIMER
 70
     1
  9
$ANGBASE
 50
0.0
  9
$ANGDIR
 70
     0
  9
$PDMODE
 70
     0
  9
$PDSIZE
 40
0.0
  9
$PLINEWID
 40
0.0
  9
$SPLFRAME
 70
     0
  9
$SPLINETYPE
 70
     6
  9
$SPLINESEGS
 70
     8
  9
$HANDSEED
  5
1A4
  9
$SURFTAB1
 70
     6
  9
$SURFTAB2
 70
     6
  9
$SURFTYPE
 70
     6
  9
$SURFU
 70
     6
  9
$SURFV
 70
     6
  9
$UCSBASE
  2

  9
$UCSNAME
  2

  9
$UCSORG
 10
0.0
 20
0.0
 30
0.0
  9
$UCSXDIR
 10
1.0
 20
0.0
 30
0.0
  9
$UCSYDIR
 10
0.0
 20
1.0
 30
0.0
  9
$UCSORTHOREF
  2

  9
$UCSORTHOVIEW
 70
     0
  9
$UCSORGTOP
 10
0.0
 20
0.0
 30
0.0
  9
$UCSORGBOTTOM
 10
0.0
 20
0.0
 30
0.0
  9
$UCSORGLEFT
 10
0.0
 20
0.0
 30
0.0
  9
$UCSORGRIGHT
 10
0.0
 20
0.0
 30
0.0
  9
$UCSORGFRONT
 10
0.0
 20
0.0
 30
0.0
  9
$UCSORGBACK
 10
0.0
 20
0.0
 30
0.0
  9
$PUCSBASE
  2

  9
$PUCSNAME
  2

  9
$PUCSORG
 10
0.0
 20
0.0
 30
0.0
  9
$PUCSXDIR
 10
1.0
 20
0.0
 30
0.0
  9
$PUCSYDIR
 10
0.0
 20
1.0
 30
0.0
  9
$PUCSORTHOREF
  2

  9
$PUCSORTHOVIEW
 70
     0
  9
$PUCSORGTOP
 10
0.0
 20
0.0
 30
0.0
  9
$PUCSORGBOTTOM
 10
0.0
 20
0.0
 30
0.0
  9
$PUCSORGLEFT
 10
0.0
 20
0.0
 30
0.0
  9
$PUCSORGRIGHT
 10
0.0
 20
0.0
 30
0.0
  9
$PUCSORGFRONT
 10
0.0
 20
0.0
 30
0.0
  9
$PUCSORGBACK
 10
0.0
 20
0.0
 30
0.0
  9
$USERI1
 70
     0
  9
$USERI2
 70
     0
  9
$USERI3
 70
     0
  9
$USERI4
 70
     0
  9
$USERI5
 70
     0
  9
$USERR1
 40
0.0
  9
$USERR2
 40
0.0
  9
$USERR3
 40
0.0
  9
$USERR4
 40
0.0
  9
$USERR5
 40
0.0
  9
$WORLDVIEW
 70
     1
  9
$SHADEDGE
 70
     3
  9
$SHADEDIF
 70
    70
  9
$TILEMODE
 70
     1
  9
$MAXACTVP
 70
    64
  9
$PINSBASE
 10
0.0
 20
0.0
 30
0.0
  9
$PLIMCHECK
 70
     0
  9
$PEXTMIN
 10
1.000000000000000E+20
 20
1.000000000000000E+20
 30
1.000000000000000E+20
  9
$PEXTMAX
 10
-1.000000000000000E+20
 20
-1.000000000000000E+20
 30
-1.000000000000000E+20
  9
$PLIMMIN
 10
0.0
 20
0.0
  9
$PLIMMAX
 10
12.0
 20
9.0
  9
$UNITMODE
 70
     0
  9
$VISRETAIN
 70
     1
  9
$PLINEGEN
 70
     0
  9
$PSLTSCALE
 70
     1
  9
$TREEDEPTH
 70
  3020
  9
$CMLSTYLE
  2
Standard
  9
$CMLJUST
 70
     0
  9
$CMLSCALE
 40
1.0
  9
$PROXYGRAPHICS
 70
     1
  9
$MEASUREMENT
 70
     1
  9
$CELWEIGHT
370
    -1
  9
$ENDCAPS
280
     0
  9
$JOINSTYLE
280
     0
  9
$LWDISPLAY
290
     1
  9
$INSUNITS
 70
     4
  9
$HYPERLINKBASE
  1

  9
$STYLESHEET
  1

  9
$XEDIT
290
     1
  9
$CEPSNTYPE
380
     0
  9
$PSTYLEMODE
290
     1
  9
$FINGERPRINTGUID
  2
{FA8DE84F-BB4D-4030-B527-C44E4D6F47E1}
  9
$VERSIONGUID
  2
{FAEB1C32-E019-11D5-929B-00C0DF256EC4}
  9
$EXTNAMES
290
     1
  9
$PSVPSCALE
 40
0.0
  9
$OLESTARTUP
290
     0
  9
$SORTENTS
280
   127
  9
$INDEXCTL
280
     0
  9
$HIDETEXT
280
     1
  9
$XCLIPFRAME
290
     0
  9
$HALOGAP
280
     0
  9
$OBSCOLOR
 70
   257
  9
$OBSLTYPE
280
     0
  9
$INTERSECTIONDISPLAY
280
     0
  9
$INTERSECTIONCOLOR
 70
   257
  9
$DIMASSOC
280
     2
  9
$PROJECTNAME
  1

  9
$CAMERADISPLAY
290
     0
  9
$LENSLENGTH
 40
50.0
  9
$CAMERAHEIGHT
 40
0.0
  9
$STEPSPERSEC
 40
2.0
  9
$STEPSIZE
 40
6.0
  9
$3DDWFPREC
 40
2.0
  9
$PSOLWIDTH
 40
0.25
  9
$PSOLHEIGHT
 40
4.0
  9
$LOFTANG1
 40
1.570796326794897
  9
$LOFTANG2
 40
1.570796326794897
  9
$LOFTMAG1
 40
0.0
  9
$LOFTMAG2
 40
0.0
  9
$LOFTPARAM
 70
     7
  9
$LOFTNORMALS
280
     1
  9
$LATITUDE
 40
37.795
  9
$LONGITUDE
 40
-122.394
  9
$NORTHDIRECTION
 40
0.0
  9
$TIMEZONE
 70
 -8000
  9
$LIGHTGLYPHDISPLAY
280
     1
  9
$TILEMODELIGHTSYNCH
280
     1
  9
$SOLIDHIST
280
     1
  9
$SHOWHIST
280
     1
  9
$DWFFRAME
280
     2
  9
$DGNFRAME
280
     2
  9
$REALWORLDSCALE
290
     1
  9
$INTERFERECOLOR
 62
   256
  9
$CSHADOW
280
     0
  9
$SHADOWPLANELOCATION
 40
0.0
  0
ENDSEC
  0
SECTION
  2
CLASSES
  0
CLASS
  1
ACDBDICTIONARYWDFLT
  2
AcDbDictionaryWithDefault
  3
ObjectDBX Classes
 90
        0
 91
        4
280
     0
281
     0
  0
CLASS
  1
VISUALSTYLE
  2
AcDbVisualStyle
  3
ObjectDBX Classes
 90
     4095
 91
        4
280
     0
281
     0
  0
ENDSEC
  0
SECTION
  2
TABLES
  0
TABLE
  2
VPORT
  5
8
330
0
100
AcDbSymbolTable
 70
     1
  0
VPORT
  5
29
330
8
100
AcDbSymbolTableRecord
100
AcDbViewportTableRecord
  2
*Active
 70
     0
 10
0.0
 20
0.0
 11
1.0
 21
1.0
 12
58.09436129069999
 22
-46.25109522727273
 13
0.0
 23
0.0
 14
0.5
 24
0.5
 15
0.5
 25
0.5
 16
0.0
 26
0.0
 36
1.0
 17
0.0
 27
0.0
 37
0.0
 40
112.5021904545455
 41
1.6
 42
50.0
 43
0.0
 44
0.0
 50
0.0
 51
0.0
 71
     0
 72
   100
 73
     1
 74
     3
 75
     0
 76
     0
 77
     0
 78
     0
281
     0
 65
     1
110
0.0
120
0.0
130
0.0
111
1.0
121
0.0
131
0.0
112
0.0
122
1.0
132
0.0
 79
     0
146
0.0
 60
     3
 61
     5
292
     1
282
     1
141
0.0
142
0.0
 63
   250
  0
ENDTAB
  0
TABLE
  2
LTYPE
  5
5
330
0
100
AcDbSymbolTable
 70
     3
  0
LTYPE
  5
14
330
5
100
AcDbSymbolTableRecord
100
AcDbLinetypeTableRecord
  2
ByBlock
 70
     0
  3

 72
    65
 73
     0
 40
0.0
  0
LTYPE
  5
15
330
5
100
AcDbSymbolTableRecord
100
AcDbLinetypeTableRecord
  2
ByLayer
 70
     0
  3

 72
    65
 73
     0
 40
0.0
  0
LTYPE
  5
16
330
5
100
AcDbSymbolTableRecord
100
AcDbLinetypeTableRecord
  2
Continuous
 70
     0
  3
Solid line
 72
    65
 73
     0
 40
0.0
  0
LTYPE
  5
3D
330
5
100
AcDbSymbolTableRecord
100
AcDbLinetypeTableRecord
  2
________________
 70
     0
  3

 72
    65
 73
     0
 40
0.0
  0
LTYPE
  5
13B
330
5
100
AcDbSymbolTableRecord
100
AcDbLinetypeTableRecord
  2
________...._...
 70
     0
  3

 72
    65
 73
     4
 40
6.0000000300003
 49
3.0
 74
     0
 49
-1.5
 74
     0
 49
0.0000000300003
 74
     0
 49
-1.5
 74
     0
  0
ENDTAB
  0
TABLE
  2
LAYER
  5
2
330
0
100
AcDbSymbolTable
 70
     2
  0
LAYER
  5
10
330
2
100
AcDbSymbolTableRecord
100
AcDbLayerTableRecord
  2
0
 70
     0
 62
     7
  6
Continuous
370
    -3
390
F
347
0
  0
LAYER
  5
3B
330
2
100
AcDbSymbolTableRecord
100
AcDbLayerTableRecord
  2
1
 70
     0
 62
     7
  6
Continuous
370
    -3
390
F
347
0
  0
ENDTAB
  0
TABLE
  2
STYLE
  5
3
330
0
100
AcDbSymbolTable
 70
     1
  0
STYLE
  5
11
330
3
100
AcDbSymbolTableRecord
100
AcDbTextStyleTableRecord
  2
Standard
 70
     0
 40
0.0
 41
1.0
 50
0.0
 71
     0
 42
0.2
  3
txt
  4

  0
ENDTAB
  0
TABLE
  2
VIEW
  5
6
330
0
100
AcDbSymbolTable
 70
     0
  0
ENDTAB
  0
TABLE
  2
UCS
  5
7
330
0
100
AcDbSymbolTable
 70
     0
  0
ENDTAB
  0
TABLE
  2
APPID
  5
9
330
0
100
AcDbSymbolTable
 70
     1
  0
APPID
  5
12
330
9
100
AcDbSymbolTableRecord
100
AcDbRegAppTableRecord
  2
ACAD
 70
     0
  0
ENDTAB
  0
TABLE
  2
DIMSTYLE
  5
A
330
0
100
AcDbSymbolTable
 70
     1
100
AcDbDimStyleTable
  0
DIMSTYLE
105
27
330
A
100
AcDbSymbolTableRecord
100
AcDbDimStyleTableRecord
  2
Standard
 70
     0
340
11
  0
ENDTAB
  0
TABLE
  2
BLOCK_RECORD
  5
1
330
0
100
AcDbSymbolTable
 70
     1
  0
BLOCK_RECORD
  5
1F
330
1
100
AcDbSymbolTableRecord
100
AcDbBlockTableRecord
  2
*Model_Space
340
22
 70
     0
280
     1
281
     0
  0
BLOCK_RECORD
  5
1B
330
1
100
AcDbSymbolTableRecord
100
AcDbBlockTableRecord
  2
*Paper_Space
340
1E
 70
     0
280
     1
281
     0
  0
BLOCK_RECORD
  5
23
330
1
100
AcDbSymbolTableRecord
100
AcDbBlockTableRecord
  2
*Paper_Space0
340
26
 70
     0
280
     1
281
     0
  0
ENDTAB
  0
ENDSEC
  0
SECTION
  2
BLOCKS
  0
BLOCK
  5
20
330
1F
100
AcDbEntity
  8
0
100
AcDbBlockBegin
  2
*Model_Space
 70
     0
 10
0.0
 20
0.0
 30
0.0
  3
*Model_Space
  1

  0
ENDBLK
  5
21
330
1F
100
AcDbEntity
  8
0
100
AcDbBlockEnd
  0
BLOCK
  5
1C
330
1B
100
AcDbEntity
 67
     1
  8
0
100
AcDbBlockBegin
  2
*Paper_Space
 70
     0
 10
0.0
 20
0.0
 30
0.0
  3
*Paper_Space
  1

  0
ENDBLK
  5
1D
330
1B
100
AcDbEntity
 67
     1
  8
0
100
AcDbBlockEnd
  0
BLOCK
  5
24
330
23
100
AcDbEntity
  8
0
100
AcDbBlockBegin
  2
*Paper_Space0
 70
     0
 10
0.0
 20
0.0
 30
0.0
  3
*Paper_Space0
  1

  0
ENDBLK
  5
25
330
23
100
AcDbEntity
  8
0
100
AcDbBlockEnd
  0
ENDSEC
  0
SECTION
  2
ENTITIES
  0
LINE
  5
3C
330
1F
100
AcDbEntity
  8
1
  6
________________
 62
     7
370
     9
100
AcDbLine
 10
13.544044
 20
-5.023708
 30
0.0
 11
0.4310509999999982
 21
-5.469002
 31
0.0
  0
LINE
  5
3E
330
1F
100
AcDbEntity
  8
1
  6
________________
 62
     7
370
     9
100
AcDbLine
 10
32.471628
 20
-86.249986
 30
0.0
 11
32.471628
 21
-3.750000000000003
 31
0.0
  0
LINE
  5
3F
330
1F
100
AcDbEntity
  8
1
  6
________________
 62
     7
370
     9
100
AcDbLine
 10
-1.444525
 20
-53.4376
 30
0.0
 11
-1.444525
 21
-36.562386
 31
0.0
  0
LINE
  5
40
330
1F
100
AcDbEntity
  8
1
  6
________________
 62
     7
370
     9
100
AcDbLine
 10
-1.444525
 20
-23.458053
 30
0.0
 11
-1.444525
 21
-11.525464
 31
0.0
  0
LINE
  5
41
330
1F
100
AcDbEntity
  8
1
  6
________________
 62
     7
370
     9
100
AcDbLine
 10
-1.444525
 20
-6.097472
 30
0.0
 11
-1.444525
 21
-5.192965
 31
0.0
  0
LINE
  5
42
330
1F
100
AcDbEntity
  8
1
  6
________________
 62
     7
370
     9
100
AcDbLine
 10
-7.528372
 20
-80.499986
 30
0.0
 11
-7.528372
 21
-9.499999999999995
 31
0.0
  0
ARC
  5
43
330
1F
100
AcDbEntity
  8
1
  6
________________
 62
     7
370
     9
100
AcDbCircle
 10
0.4175272835
 20
-5.470343107
 30
0.0
 40
0.0135899205
100
AcDbArc
 50
5.6618305407
 51
35.02152289459999
  0
LINE
  5
44
330
1F
100
AcDbEntity
  8
1
  6
________________
 62
     7
370
     9
100
AcDbLine
 10
-1.444525
 20
-6.097472
 30
0.0
 11
-1.429449
 21
-6.081879
 31
0.0
  0
ARC
  5
45
330
1F
100
AcDbEntity
  8
1
  6
________________
 62
     7
370
     9
100
AcDbCircle
 10
13.5327261491
 20
-5.0248934243
 30
0.0
 40
0.0113797552
100
AcDbArc
 50
5.9825636927
 51
36.9781036758
  0
LINE
  5
46
330
1F
100
AcDbEntity
  8
1
  6
________________
 62
     7
370
     9
100
AcDbLine
 10
101.171764
 20
-43.958152
 30
0.0
 11
101.171764
 21
-46.041834
 31
0.0
  0
LINE
  5
47
330
1F
100
AcDbEntity
  8
1
  6
________________
 62
     7
370
     9
100
AcDbLine
 10
101.091341
 20
-43.492998
 30
0.0
 11
101.171764
 21
-43.958166
 31
0.0
  0
LINE
  5
48
330
1F
100
AcDbEntity
  8
1
  6
________________
 62
     7
370
     9
100
AcDbLine
 10
77.224401
 20
-8.5
 30
0.0
 11
77.6116
 21
-8.956422
 31
0.0
  0
LINE
  5
49
330
1F
100
AcDbEntity
  8
1
  6
________________
 62
     7
370
     9
100
AcDbLine
 10
77.6116
 20
-8.956422
 30
0.0
 11
77.76418
 21
-9.324643
 31
0.0
  0
LINE
  5
4A
330
1F
100
AcDbEntity
  8
1
  6
________________
 62
     7
370
     9
100
AcDbLine
 10
77.224401
 20
-46.4980051287
 30
0.0
 11
77.224401
 21
-43.5019808713
 31
0.0
  0
LINE
  5
4B
330
1F
100
AcDbEntity
  8
1
  6
________________
 62
     7
370
     9
100
AcDbLine
 10
101.051615
 20
-43.460068
 30
0.0
 11
101.091341
 21
-43.492998
 31
0.0
  0
ARC
  5
4C
330
1F
100
AcDbEntity
  8
1
  6
________________
 62
     7
370
     9
100
AcDbCircle
 10
97.724517
 20
-65.101468
 30
0.0
 40
21.895656
100
AcDbArc
 50
81.25991000000002
 51
91.300327
  0
ARC
  5
4D
330
1F
100
AcDbEntity
  8
1
  6
________________
 62
     7
370
     9
100
AcDbCircle
 10
80.072868
 20
-57.196059
 30
0.0
 40
13.987192
100
AcDbArc
 50
88.89893100000003
 51
101.7503796023
  0
LINE
  5
4E
330
1F
100
AcDbEntity
  8
1
  6
________________
 62
     7
370
     9
100
AcDbLine
 10
80.341647
 20
-43.21145
 30
0.0
 11
97.227638
 21
-43.21145
 31
0.0
  0
LINE
  5
4F
330
1F
100
AcDbEntity
  8
1
  6
________________
 62
     7
370
     9
100
AcDbLine
 10
77.76418
 20
-9.324643
 30
0.0
 11
77.926832
 21
-9.934704
 31
0.0
  0
ARC
  5
50
330
1F
100
AcDbEntity
  8
1
  6
________________
 62
     7
370
     9
100
AcDbCircle
 10
80.346476
 20
-9.295491
 30
0.0
 40
2.502653
100
AcDbArc
 50
194.798151
 51
269.889435
  0
LINE
  5
51
330
1F
100
AcDbEntity
  8
1
  6
________________
 62
     7
370
     9
100
AcDbLine
 10
98.3657304877
 20
-11.798139
 30
0.0
 11
80.341647
 21
-11.798139
 31
0.0
  0
LINE
  5
52
330
1F
100
AcDbEntity
  8
1
  6
________________
 62
     7
370
     9
100
AcDbLine
 10
77.224401
 20
-8.5
 30
0.0
 11
101.207475
 21
-8.5
 31
0.0
  0
LINE
  5
53
330
1F
100
AcDbEntity
  8
1
  6
________________
 62
     7
370
     9
100
AcDbLine
 10
32.471628
 20
-3.75
 30
0.0
 11
15.763775
 21
-4.187511
 31
0.0
  0
ARC
  5
54
330
1F
100
AcDbEntity
  8
1
  6
________________
 62
     7
370
     9
100
AcDbCircle
 10
0.52267
 20
-8.087813
 30
0.0
 40
3.5
100
AcDbArc
 50
124.198089
 51
150.0
  0
LINE
  5
55
330
1F
100
AcDbEntity
  8
1
  6
________________
 62
     7
370
     9
100
AcDbLine
 10
-2.508419
 20
-6.337813
 30
0.0
 11
-3.50576
 21
-8.065259
 31
0.0
  0
ARC
  5
56
330
1F
100
AcDbEntity
  8
1
  6
________________
 62
     7
370
     9
100
AcDbCircle
 10
-5.237811
 20
-7.065259
 30
0.0
 40
2.0
100
AcDbArc
 50
280.0
 51
330.0
  0
LINE
  5
57
330
1F
100
AcDbEntity
  8
1
  6
________________
 62
     7
370
     9
100
AcDbLine
 10
-4.890515
 20
-9.034875
 30
0.0
 11
-7.528372
 21
-9.5
 31
0.0
  0
ARC
  5
58
330
1F
100
AcDbEntity
  8
1
  6
________________
 62
     7
370
     9
100
AcDbCircle
 10
0.550325
 20
-8.925455
 30
0.0
 40
3.463436
100
AcDbArc
 50
92.03019500000002
 51
125.157027
  0
LINE
  5
59
330
1F
100
AcDbEntity
  8
1
  6
________________
 62
     7
370
     9
100
AcDbLine
 10
15.3924860124
 20
-4.7520724012
 30
0.0
 11
-1.444525
 21
-5.192965
 31
0.0
  0
ARC
  5
5A
330
1F
100
AcDbEntity
  8
1
  6
________________
 62
     7
370
     9
100
AcDbCircle
 10
13.536132
 20
1.547939
 30
0.0
 40
6.567815
100
AcDbArc
 50
270.040172
 51
289.9926698718
  0
LINE
  5
5B
330
1F
100
AcDbEntity
  8
1
  6
________________
 62
     7
370
     9
100
AcDbLine
 10
34.767369
 20
-3.75
 30
0.0
 11
32.471628
 21
-3.75
 31
0.0
  0
ARC
  5
5C
330
1F
100
AcDbEntity
  8
1
  6
________________
 62
     7
370
     9
100
AcDbCircle
 10
34.767369
 20
-5.25
 30
0.0
 40
1.5
100
AcDbArc
 50
25.0
 51
90.0
  0
LINE
  5
5D
330
1F
100
AcDbEntity
  8
1
  6
________________
 62
     7
370
     9
100
AcDbLine
 10
36.679385
 20
-5.801028
 30
0.0
 11
36.126831
 21
-4.616073
 31
0.0
  0
LINE
  5
5E
330
1F
100
AcDbEntity
  8
1
  6
________________
 62
     7
370
     9
100
AcDbLine
 10
113.4803545355
 20
-5.5
 30
0.0
 11
103.122619
 21
-5.5
 31
0.0
  0
ARC
  5
5F
330
1F
100
AcDbEntity
  8
1
  6
________________
 62
     7
370
     9
100
AcDbCircle
 10
103.122619
 20
-7.0
 30
0.0
 40
1.5
100
AcDbArc
 50
90.0
 51
165.0
  0
ARC
  5
60
330
1F
100
AcDbEntity
  8
1
  6
________________
 62
     7
370
     9
100
AcDbCircle
 10
39.398308
 20
-4.533173
 30
0.0
 40
3.0
100
AcDbArc
 50
205.0
 51
269.0
  0
LINE
  5
61
330
1F
100
AcDbEntity
  8
1
  6
________________
 62
     7
370
     9
100
AcDbLine
 10
101.67373
 20
-6.611771
 30
0.0
 11
100.7805452481
 21
-9.9451858862
 31
0.0
  0
LINE
  5
62
330
1F
100
AcDbEntity
  8
1
  6
________________
 62
     7
370
     9
100
AcDbLine
 10
76.341469
 20
-8.178476
 30
0.0
 11
39.345951
 21
-7.532716
 31
0.0
  0
ARC
  5
63
330
1F
100
AcDbEntity
  8
1
  6
________________
 62
     7
370
     9
100
AcDbCircle
 10
76.315291
 20
-9.678247
 30
0.0
 40
1.5
100
AcDbArc
 50
51.766708
 51
89.00000000000001
  0
CIRCLE
  5
64
330
1F
100
AcDbEntity
  8
1
  6
________________
 62
     7
370
     9
100
AcDbCircle
 10
-70.0
 20
-45.0
 30
0.0
 40
35.5
  0
CIRCLE
  5
65
330
1F
100
AcDbEntity
  8
1
  6
________________
 62
     7
370
     9
100
AcDbCircle
 10
-70.0
 20
-45.0
 30
0.0
 40
32.8
  0
ARC
  5
66
330
1F
100
AcDbEntity
  8
1
  6
________________
 62
     7
370
     9
100
AcDbCircle
 10
-70.0
 20
-45.0
 30
0.0
 40
39.807035
100
AcDbArc
 50
32.762593
 51
57.23740699999999
  0
ARC
  5
67
330
1F
100
AcDbEntity
  8
1
  6
________________
 62
     7
370
     9
100
AcDbCircle
 10
-70.0
 20
-45.0
 30
0.0
 40
39.807035
100
AcDbArc
 50
347.762593
 51
12.23740699999996
  0
ARC
  5
68
330
1F
100
AcDbEntity
  8
1
  6
________________
 62
     7
370
     9
100
AcDbCircle
 10
-70.0
 20
-45.0
 30
0.0
 40
39.807035
100
AcDbArc
 50
302.762593
 51
327.237407
  0
ARC
  5
69
330
1F
100
AcDbEntity
  8
1
  6
________________
 62
     7
370
     9
100
AcDbCircle
 10
-70.0
 20
-45.0
 30
0.0
 40
39.807035
100
AcDbArc
 50
257.762593
 51
282.237407
  0
ARC
  5
6A
330
1F
100
AcDbEntity
  8
1
  6
________________
 62
     7
370
     9
100
AcDbCircle
 10
-70.0
 20
-45.0
 30
0.0
 40
39.807035
100
AcDbArc
 50
212.762593
 51
237.237407
  0
ARC
  5
6B
330
1F
100
AcDbEntity
  8
1
  6
________________
 62
     7
370
     9
100
AcDbCircle
 10
-70.0
 20
-45.0
 30
0.0
 40
39.807035
100
AcDbArc
 50
167.762593
 51
192.237407
  0
ARC
  5
6C
330
1F
100
AcDbEntity
  8
1
  6
________________
 62
     7
370
     9
100
AcDbCircle
 10
-70.0
 20
-45.0
 30
0.0
 40
39.807035
100
AcDbArc
 50
122.762593
 51
147.237407
  0
ARC
  5
6D
330
1F
100
AcDbEntity
  8
1
  6
________________
 62
     7
370
     9
100
AcDbCircle
 10
-70.0
 20
-45.0
 30
0.0
 40
39.807035
100
AcDbArc
 50
77.762593
 51
102.237407
  0
LINE
  5
6E
330
1F
100
AcDbEntity
  8
1
  6
________________
 62
     7
370
     9
100
AcDbLine
 10
-30.519237
 20
-52.567404
 30
0.0
 11
-30.137073
 21
-50.568622
 31
0.0
  0
ARC
  5
6F
330
1F
100
AcDbEntity
  8
1
  6
________________
 62
     7
370
     9
100
AcDbCircle
 10
-32.9858902493
 20
-50.6684281582
 30
0.0
 40
3.1129566086
100
AcDbArc
 50
309.7048525928
 51
322.4088124991
  0
LINE
  5
70
330
1F
100
AcDbEntity
  8
1
  6
________________
 62
     7
370
     9
100
AcDbLine
 10
-31.097472
 20
-53.437614
 30
0.0
 11
-30.997233
 21
-53.063367
 31
0.0
  0
LINE
  5
71
330
1F
100
AcDbEntity
  8
1
  6
________________
 62
     7
370
     9
100
AcDbLine
 10
-30.997233
 20
-36.936633
 30
0.0
 11
-31.097472
 21
-36.562386
 31
0.0
  0
ARC
  5
72
330
1F
100
AcDbEntity
  8
1
  6
________________
 62
     7
370
     9
100
AcDbCircle
 10
-34.1097027989
 20
-40.4146727965
 30
0.0
 40
4.6673593479
100
AcDbArc
 50
39.7114577323
 51
48.1748771758
  0
LINE
  5
73
330
1F
100
AcDbEntity
  8
1
  6
________________
 62
     7
370
     9
100
AcDbLine
 10
-30.137073
 20
-39.431378
 30
0.0
 11
-30.519237
 21
-37.432596
 31
0.0
  0
ARC
  5
74
330
1F
100
AcDbEntity
  8
1
  6
________________
 62
     7
370
     9
100
AcDbCircle
 10
-70.0
 20
-45.0
 30
0.0
 40
40.25
100
AcDbArc
 50
352.047571
 51
7.952428999999996
  0
LINE
  5
75
330
1F
100
AcDbEntity
  8
1
  6
________________
 62
     7
370
     9
100
AcDbLine
 10
-36.731922
 20
-22.433847
 30
0.0
 11
-37.875043
 21
-20.750265
 31
0.0
  0
ARC
  5
76
330
1F
100
AcDbEntity
  8
1
  6
________________
 62
     7
370
     9
100
AcDbCircle
 10
-39.8188884326
 20
-22.8352555596
 30
0.0
 40
3.1129566092
100
AcDbArc
 50
354.7048525973
 51
7.408812503600018
  0
LINE
  5
77
330
1F
100
AcDbEntity
  8
1
  6
________________
 62
     7
370
     9
100
AcDbLine
 10
-36.525464
 20
-23.458053
 30
0.0
 11
-36.719217
 21
-23.12254
 31
0.0
  0
LINE
  5
78
330
1F
100
AcDbEntity
  8
1
  6
________________
 62
     7
370
     9
100
AcDbLine
 10
-48.12254
 20
-11.719217
 30
0.0
 11
-48.458053
 21
-11.525464
 31
0.0
  0
ARC
  5
79
330
1F
100
AcDbEntity
  8
1
  6
________________
 62
     7
370
     9
100
AcDbCircle
 10
-47.8640430045
 20
-16.3794119373
 30
0.0
 40
4.6673593488
100
AcDbArc
 50
84.71145772780001
 51
93.17487717130001
  0
LINE
  5
7A
330
1F
100
AcDbEntity
  8
1
  6
________________
 62
     7
370
     9
100
AcDbLine
 10
-45.750265
 20
-12.875043
 30
0.0
 11
-47.433847
 21
-11.731922
 31
0.0
  0
ARC
  5
7B
330
1F
100
AcDbEntity
  8
1
  6
________________
 62
     7
370
     9
100
AcDbCircle
 10
-70.0
 20
-45.0
 30
0.0
 40
40.25
100
AcDbArc
 50
37.047571
 51
52.952429
  0
LINE
  5
7C
330
1F
100
AcDbEntity
  8
1
  6
________________
 62
     7
370
     9
100
AcDbLine
 10
-62.432596
 20
-5.519237
 30
0.0
 11
-64.431378
 21
-5.137073
 31
0.0
  0
ARC
  5
7D
330
1F
100
AcDbEntity
  8
1
  6
________________
 62
     7
370
     9
100
AcDbCircle
 10
-64.3315718418
 20
-7.9858902493
 30
0.0
 40
3.1129566086
100
AcDbArc
 50
39.70485259279999
 51
52.40881249909999
  0
LINE
  5
7E
330
1F
100
AcDbEntity
  8
1
  6
________________
 62
     7
370
     9
100
AcDbLine
 10
-61.562386
 20
-6.097472
 30
0.0
 11
-61.936633
 21
-5.997233
 31
0.0
  0
LINE
  5
7F
330
1F
100
AcDbEntity
  8
1
  6
________________
 62
     7
370
     9
100
AcDbLine
 10
-78.063367
 20
-5.997233
 30
0.0
 11
-78.437614
 21
-6.097472
 31
0.0
  0
ARC
  5
80
330
1F
100
AcDbEntity
  8
1
  6
________________
 62
     7
370
     9
100
AcDbCircle
 10
-74.5853272035
 20
-9.1097027989
 30
0.0
 40
4.6673593479
100
AcDbArc
 50
129.7114577323
 51
138.1748771758
  0
LINE
  5
81
330
1F
100
AcDbEntity
  8
1
  6
________________
 62
     7
370
     9
100
AcDbLine
 10
-75.568622
 20
-5.137073
 30
0.0
 11
-77.567404
 21
-5.519237
 31
0.0
  0
ARC
  5
82
330
1F
100
AcDbEntity
  8
1
  6
________________
 62
     7
370
     9
100
AcDbCircle
 10
-70.0
 20
-45.0
 30
0.0
 40
40.25
100
AcDbArc
 50
82.047571
 51
97.95242899999998
  0
LINE
  5
83
330
1F
100
AcDbEntity
  8
1
  6
________________
 62
     7
370
     9
100
AcDbLine
 10
-36.719217
 20
-66.87746
 30
0.0
 11
-36.525464
 21
-66.541947
 31
0.0
  0
LINE
  5
84
330
1F
100
AcDbEntity
  8
1
  6
________________
 62
     7
370
     9
100
AcDbLine
 10
-47.433847
 20
-78.268078
 30
0.0
 11
-45.750265
 21
-77.124957
 31
0.0
  0
ARC
  5
85
330
1F
100
AcDbEntity
  8
1
  6
________________
 62
     7
370
     9
100
AcDbCircle
 10
-47.8352555596
 20
-75.1811115674
 30
0.0
 40
3.1129566092
100
AcDbArc
 50
264.7048525973
 51
277.4088125036001
  0
LINE
  5
86
330
1F
100
AcDbEntity
  8
1
  6
________________
 62
     7
370
     9
100
AcDbLine
 10
-48.458053
 20
-78.474536
 30
0.0
 11
-48.12254
 21
-78.280783
 31
0.0
  0
ARC
  5
87
330
1F
100
AcDbEntity
  8
1
  6
________________
 62
     7
370
     9
100
AcDbCircle
 10
-41.3794119373
 20
-67.1359569955
 30
0.0
 40
4.6673593488
100
AcDbArc
 50
354.7114577278001
 51
3.174877171300011
  0
LINE
  5
88
330
1F
100
AcDbEntity
  8
1
  6
________________
 62
     7
370
     9
100
AcDbLine
 10
-37.875043
 20
-69.249735
 30
0.0
 11
-36.731922
 21
-67.566153
 31
0.0
  0
ARC
  5
89
330
1F
100
AcDbEntity
  8
1
  6
________________
 62
     7
370
     9
100
AcDbCircle
 10
-70.0
 20
-45.0
 30
0.0
 40
40.25
100
AcDbArc
 50
307.047571
 51
322.952429
  0
LINE
  5
8A
330
1F
100
AcDbEntity
  8
1
  6
________________
 62
     7
370
     9
100
AcDbLine
 10
-77.567404
 20
-84.480763
 30
0.0
 11
-75.568622
 21
-84.862927
 31
0.0
  0
ARC
  5
8B
330
1F
100
AcDbEntity
  8
1
  6
________________
 62
     7
370
     9
100
AcDbCircle
 10
-75.6684281582
 20
-82.0141097507
 30
0.0
 40
3.1129566086
100
AcDbArc
 50
219.7048525928
 51
232.4088124991
  0
LINE
  5
8C
330
1F
100
AcDbEntity
  8
1
  6
________________
 62
     7
370
     9
100
AcDbLine
 10
-78.437614
 20
-83.902528
 30
0.0
 11
-78.063367
 21
-84.002767
 31
0.0
  0
LINE
  5
8D
330
1F
100
AcDbEntity
  8
1
  6
________________
 62
     7
370
     9
100
AcDbLine
 10
-61.936633
 20
-84.002767
 30
0.0
 11
-61.562386
 21
-83.902528
 31
0.0
  0
ARC
  5
8E
330
1F
100
AcDbEntity
  8
1
  6
________________
 62
     7
370
     9
100
AcDbCircle
 10
-65.4146727965
 20
-80.8902972011
 30
0.0
 40
4.6673593479
100
AcDbArc
 50
309.7114577323
 51
318.1748771758
  0
LINE
  5
8F
330
1F
100
AcDbEntity
  8
1
  6
________________
 62
     7
370
     9
100
AcDbLine
 10
-64.431378
 20
-84.862927
 30
0.0
 11
-62.432596
 21
-84.480763
 31
0.0
  0
ARC
  5
90
330
1F
100
AcDbEntity
  8
1
  6
________________
 62
     7
370
     9
100
AcDbCircle
 10
-70.0
 20
-45.0
 30
0.0
 40
40.25
100
AcDbArc
 50
262.047571
 51
277.9524289999999
  0
LINE
  5
91
330
1F
100
AcDbEntity
  8
1
  6
________________
 62
     7
370
     9
100
AcDbLine
 10
-92.566153
 20
-11.731922
 30
0.0
 11
-94.249735
 21
-12.875043
 31
0.0
  0
ARC
  5
92
330
1F
100
AcDbEntity
  8
1
  6
________________
 62
     7
370
     9
100
AcDbCircle
 10
-92.1647444404
 20
-14.8188884326
 30
0.0
 40
3.1129566092
100
AcDbArc
 50
84.70485259730002
 51
97.40881250360002
  0
LINE
  5
93
330
1F
100
AcDbEntity
  8
1
  6
________________
 62
     7
370
     9
100
AcDbLine
 10
-91.541947
 20
-11.525464
 30
0.0
 11
-91.87746
 21
-11.719217
 31
0.0
  0
LINE
  5
94
330
1F
100
AcDbEntity
  8
1
  6
________________
 62
     7
370
     9
100
AcDbLine
 10
-103.280783
 20
-23.12254
 30
0.0
 11
-103.474536
 21
-23.458053
 31
0.0
  0
ARC
  5
95
330
1F
100
AcDbEntity
  8
1
  6
________________
 62
     7
370
     9
100
AcDbCircle
 10
-98.6205880627
 20
-22.8640430045
 30
0.0
 40
4.6673593488
100
AcDbArc
 50
174.7114577278
 51
183.1748771713
  0
LINE
  5
96
330
1F
100
AcDbEntity
  8
1
  6
________________
 62
     7
370
     9
100
AcDbLine
 10
-102.124957
 20
-20.750265
 30
0.0
 11
-103.268078
 21
-22.433847
 31
0.0
  0
ARC
  5
97
330
1F
100
AcDbEntity
  8
1
  6
________________
 62
     7
370
     9
100
AcDbCircle
 10
-70.0
 20
-45.0
 30
0.0
 40
40.25
100
AcDbArc
 50
127.047571
 51
142.952429
  0
LINE
  5
98
330
1F
100
AcDbEntity
  8
1
  6
________________
 62
     7
370
     9
100
AcDbLine
 10
-109.480763
 20
-37.432596
 30
0.0
 11
-109.862927
 21
-39.431378
 31
0.0
  0
ARC
  5
99
330
1F
100
AcDbEntity
  8
1
  6
________________
 62
     7
370
     9
100
AcDbCircle
 10
-107.0141097507
 20
-39.3315718418
 30
0.0
 40
3.1129566086
100
AcDbArc
 50
129.7048525928
 51
142.4088124991
  0
LINE
  5
9A
330
1F
100
AcDbEntity
  8
1
  6
________________
 62
     7
370
     9
100
AcDbLine
 10
-108.902528
 20
-36.562386
 30
0.0
 11
-109.002767
 21
-36.936633
 31
0.0
  0
LINE
  5
9B
330
1F
100
AcDbEntity
  8
1
  6
________________
 62
     7
370
     9
100
AcDbLine
 10
-109.002767
 20
-53.063367
 30
0.0
 11
-108.902528
 21
-53.437614
 31
0.0
  0
ARC
  5
9C
330
1F
100
AcDbEntity
  8
1
  6
________________
 62
     7
370
     9
100
AcDbCircle
 10
-105.8902972011
 20
-49.5853272035
 30
0.0
 40
4.6673593479
100
AcDbArc
 50
219.7114577323
 51
228.1748771758
  0
LINE
  5
9D
330
1F
100
AcDbEntity
  8
1
  6
________________
 62
     7
370
     9
100
AcDbLine
 10
-109.862927
 20
-50.568622
 30
0.0
 11
-109.480763
 21
-52.567404
 31
0.0
  0
ARC
  5
9E
330
1F
100
AcDbEntity
  8
1
  6
________________
 62
     7
370
     9
100
AcDbCircle
 10
-70.0
 20
-45.0
 30
0.0
 40
40.25
100
AcDbArc
 50
172.047571
 51
187.952429
  0
LINE
  5
9F
330
1F
100
AcDbEntity
  8
1
  6
________________
 62
     7
370
     9
100
AcDbLine
 10
-103.268078
 20
-67.566153
 30
0.0
 11
-102.124957
 21
-69.249735
 31
0.0
  0
ARC
  5
A0
330
1F
100
AcDbEntity
  8
1
  6
________________
 62
     7
370
     9
100
AcDbCircle
 10
-100.1811115674
 20
-67.1647444404
 30
0.0
 40
3.1129566092
100
AcDbArc
 50
174.7048525973
 51
187.4088125036
  0
LINE
  5
A1
330
1F
100
AcDbEntity
  8
1
  6
________________
 62
     7
370
     9
100
AcDbLine
 10
-103.474536
 20
-66.541947
 30
0.0
 11
-103.280783
 21
-66.87746
 31
0.0
  0
LINE
  5
A2
330
1F
100
AcDbEntity
  8
1
  6
________________
 62
     7
370
     9
100
AcDbLine
 10
-91.87746
 20
-78.280783
 30
0.0
 11
-91.541947
 21
-78.474536
 31
0.0
  0
ARC
  5
A3
330
1F
100
AcDbEntity
  8
1
  6
________________
 62
     7
370
     9
100
AcDbCircle
 10
-92.1359569955
 20
-73.6205880627
 30
0.0
 40
4.6673593488
100
AcDbArc
 50
264.7114577278001
 51
273.1748771713001
  0
LINE
  5
A4
330
1F
100
AcDbEntity
  8
1
  6
________________
 62
     7
370
     9
100
AcDbLine
 10
-94.249735
 20
-77.124957
 30
0.0
 11
-92.566153
 21
-78.268078
 31
0.0
  0
ARC
  5
A5
330
1F
100
AcDbEntity
  8
1
  6
________________
 62
     7
370
     9
100
AcDbCircle
 10
-70.0
 20
-45.0
 30
0.0
 40
40.25
100
AcDbArc
 50
217.047571
 51
232.952429
  0
CIRCLE
  5
A6
330
1F
100
AcDbEntity
  8
1
  6
________________
 62
     7
370
     9
100
AcDbCircle
 10
-70.0
 20
-45.0
 30
0.0
 40
41.25
  0
LINE
  5
A7
330
1F
100
AcDbEntity
  8
1
  6
________________
 62
     7
370
     9
100
AcDbLine
 10
-37.500176
 20
-45.0
 30
0.0
 11
-37.547344
 21
-46.750339
 31
0.0
  0
LINE
  5
A8
330
1F
100
AcDbEntity
  8
1
  6
________________
 62
     7
370
     9
100
AcDbLine
 10
-38.905824
 20
-54.454668
 30
0.0
 11
-40.103158
 21
-57.744308
 31
0.0
  0
LINE
  5
A9
330
1F
100
AcDbEntity
  8
1
  6
________________
 62
     7
370
     9
100
AcDbLine
 10
-44.014824
 20
-64.519457
 30
0.0
 11
-46.265036
 21
-67.201127
 31
0.0
  0
LINE
  5
AA
330
1F
100
AcDbEntity
  8
1
  6
________________
 62
     7
370
     9
100
AcDbLine
 10
-52.257851
 20
-72.229666
 30
0.0
 11
-55.289689
 21
-73.980084
 31
0.0
  0
LINE
  5
AB
330
1F
100
AcDbEntity
  8
1
  6
________________
 62
     7
370
     9
100
AcDbLine
 10
-62.640876
 20
-76.655676
 30
0.0
 11
-66.088374
 21
-77.263566
 31
0.0
  0
LINE
  5
AC
330
1F
100
AcDbEntity
  8
1
  6
________________
 62
     7
370
     9
100
AcDbLine
 10
-73.864541
 20
-77.26924
 30
0.0
 11
-77.405778
 21
-76.644794
 31
0.0
  0
LINE
  5
AD
330
1F
100
AcDbEntity
  8
1
  6
________________
 62
     7
370
     9
100
AcDbLine
 10
-84.710311
 20
-73.980084
 30
0.0
 11
-87.742149
 21
-72.229666
 31
0.0
  0
LINE
  5
AE
330
1F
100
AcDbEntity
  8
1
  6
________________
 62
     7
370
     9
100
AcDbLine
 10
-93.73507
 20
-67.201013
 30
0.0
 11
-95.985264
 21
-64.519339
 31
0.0
  0
LINE
  5
AF
330
1F
100
AcDbEntity
  8
1
  6
________________
 62
     7
370
     9
100
AcDbLine
 10
-99.896871
 20
-57.744241
 30
0.0
 11
-101.094079
 21
-54.454987
 31
0.0
  0
LINE
  5
B0
330
1F
100
AcDbEntity
  8
1
  6
________________
 62
     7
370
     9
100
AcDbLine
 10
-102.452661
 20
-46.750231
 30
0.0
 11
-102.452656
 21
-43.249661
 31
0.0
  0
LINE
  5
B1
330
1F
100
AcDbEntity
  8
1
  6
________________
 62
     7
370
     9
100
AcDbLine
 10
-101.094176
 20
-35.545332
 30
0.0
 11
-99.896842
 21
-32.255692
 31
0.0
  0
LINE
  5
B2
330
1F
100
AcDbEntity
  8
1
  6
________________
 62
     7
370
     9
100
AcDbLine
 10
-95.985176
 20
-25.480543
 30
0.0
 11
-93.734964
 21
-22.798873
 31
0.0
  0
LINE
  5
B3
330
1F
100
AcDbEntity
  8
1
  6
________________
 62
     7
370
     9
100
AcDbLine
 10
-87.742149
 20
-17.770334
 30
0.0
 11
-84.710311
 21
-16.019916
 31
0.0
  0
LINE
  5
B4
330
1F
100
AcDbEntity
  8
1
  6
________________
 62
     7
370
     9
100
AcDbLine
 10
-77.359184
 20
-13.344338
 30
0.0
 11
-73.911427
 21
-12.736409
 31
0.0
  0
LINE
  5
B5
330
1F
100
AcDbEntity
  8
1
  6
________________
 62
     7
370
     9
100
AcDbLine
 10
-66.08843
 20
-12.736427
 30
0.0
 11
-62.640946
 21
-13.344308
 31
0.0
  0
LINE
  5
B6
330
1F
100
AcDbEntity
  8
1
  6
________________
 62
     7
370
     9
100
AcDbLine
 10
-55.289689
 20
-16.019916
 30
0.0
 11
-52.257851
 21
-17.770334
 31
0.0
  0
LINE
  5
B7
330
1F
100
AcDbEntity
  8
1
  6
________________
 62
     7
370
     9
100
AcDbLine
 10
-46.26493
 20
-22.798987
 30
0.0
 11
-44.014736
 21
-25.480661
 31
0.0
  0
LINE
  5
B8
330
1F
100
AcDbEntity
  8
1
  6
________________
 62
     7
370
     9
100
AcDbLine
 10
-40.103129
 20
-32.255759
 30
0.0
 11
-38.90583
 21
-35.545312
 31
0.0
  0
LINE
  5
B9
330
1F
100
AcDbEntity
  8
1
  6
________________
 62
     7
370
     9
100
AcDbLine
 10
-37.547345
 20
-43.249655
 30
0.0
 11
-37.500176
 21
-45.0
 31
0.0
  0
LINE
  5
BA
330
1F
100
AcDbEntity
  8
1
  6
________________
 62
     7
370
     9
100
AcDbLine
 10
-73.962417
 20
-77.549831
 30
0.0
 11
-73.607582704
 21
-75.5374690522
 31
0.0
  0
LINE
  5
BB
330
1F
100
AcDbEntity
  8
1
  6
________________
 62
     7
370
     9
100
AcDbLine
 10
-77.409142
 20
-76.941485
 30
0.0
 11
-77.0544109595
 21
-74.9296998308
 31
0.0
  0
LINE
  5
BC
330
1F
100
AcDbEntity
  8
1
  6
________________
 62
     7
370
     9
100
AcDbLine
 10
-39.846441
 20
-32.162691
 30
0.0
 11
-41.309520964
 21
-32.6952090988
 31
0.0
  0
LINE
  5
BD
330
1F
100
AcDbEntity
  8
1
  6
________________
 62
     7
370
     9
100
AcDbLine
 10
-46.055541
 20
-22.623751
 30
0.0
 11
-47.2482558999
 21
-23.6245559275
 31
0.0
  0
LINE
  5
BE
330
1F
100
AcDbEntity
  8
1
  6
________________
 62
     7
370
     9
100
AcDbLine
 10
-38.831282
 20
-46.75
 30
0.0
 11
-37.274305
 21
-46.75
 31
0.0
  0
LINE
  5
BF
330
1F
100
AcDbEntity
  8
1
  6
________________
 62
     7
370
     9
100
AcDbLine
 10
-40.112450081
 20
-35.9841327774
 30
0.0
 11
-38.649371
 21
-35.451615
 31
0.0
  0
LINE
  5
C0
330
1F
100
AcDbEntity
  8
1
  6
________________
 62
     7
370
     9
100
AcDbLine
 10
-37.274305
 20
-43.25
 30
0.0
 11
-38.831282
 21
-43.25
 31
0.0
  0
LINE
  5
C1
330
1F
100
AcDbEntity
  8
1
  6
________________
 62
     7
370
     9
100
AcDbLine
 10
-44.99849737
 20
-26.3057127508
 30
0.0
 11
-43.805785
 21
-25.304906
 31
0.0
  0
LINE
  5
C2
330
1F
100
AcDbEntity
  8
1
  6
________________
 62
     7
370
     9
100
AcDbLine
 10
-52.9000970429
 20
-18.8820979752
 30
0.0
 11
-52.121608
 21
-17.533717
 31
0.0
  0
LINE
  5
C3
330
1F
100
AcDbEntity
  8
1
  6
________________
 62
     7
370
     9
100
AcDbLine
 10
-41.309520964
 20
-57.3047909012
 30
0.0
 11
-39.846441
 21
-57.837309
 31
0.0
  0
LINE
  5
C4
330
1F
100
AcDbEntity
  8
1
  6
________________
 62
     7
370
     9
100
AcDbLine
 10
-38.649371
 20
-54.548385
 30
0.0
 11
-40.112450081
 21
-54.0158672226
 31
0.0
  0
LINE
  5
C5
330
1F
100
AcDbEntity
  8
1
  6
________________
 62
     7
370
     9
100
AcDbLine
 10
-43.805785
 20
-64.695094
 30
0.0
 11
-44.99849737
 21
-63.69428724920001
 31
0.0
  0
LINE
  5
C6
330
1F
100
AcDbEntity
  8
1
  6
________________
 62
     7
370
     9
100
AcDbLine
 10
-55.152697
 20
-15.783717
 30
0.0
 11
-55.9311857929
 21
-17.1320975422
 31
0.0
  0
LINE
  5
C7
330
1F
100
AcDbEntity
  8
1
  6
________________
 62
     7
370
     9
100
AcDbLine
 10
-47.2482558999
 20
-66.3754440725
 30
0.0
 11
-46.055541
 21
-67.376249
 31
0.0
  0
LINE
  5
C8
330
1F
100
AcDbEntity
  8
1
  6
________________
 62
     7
370
     9
100
AcDbLine
 10
-62.86419589310001
 20
-14.6086888425
 30
0.0
 11
-62.593829
 21
-13.075366
 31
0.0
  0
LINE
  5
C9
330
1F
100
AcDbEntity
  8
1
  6
________________
 62
     7
370
     9
100
AcDbLine
 10
-52.121608
 20
-72.466283
 30
0.0
 11
-52.9000970429
 21
-71.1179020248
 31
0.0
  0
LINE
  5
CA
330
1F
100
AcDbEntity
  8
1
  6
________________
 62
     7
370
     9
100
AcDbLine
 10
-66.040656
 20
-12.467597
 30
0.0
 11
-66.3110230641
 21
-14.0009208124
 31
0.0
  0
LINE
  5
CB
330
1F
100
AcDbEntity
  8
1
  6
________________
 62
     7
370
     9
100
AcDbLine
 10
-55.9311857929
 20
-72.8679024578
 30
0.0
 11
-55.152697
 21
-74.216283
 31
0.0
  0
LINE
  5
CC
330
1F
100
AcDbEntity
  8
1
  6
________________
 62
     7
370
     9
100
AcDbLine
 10
-73.6889769359
 20
-14.0009208124
 30
0.0
 11
-73.959344
 21
-12.467597
 31
0.0
  0
LINE
  5
CD
330
1F
100
AcDbEntity
  8
1
  6
________________
 62
     7
370
     9
100
AcDbLine
 10
-77.406171
 20
-13.075366
 30
0.0
 11
-77.1358041069
 21
-14.6086888425
 31
0.0
  0
LINE
  5
CE
330
1F
100
AcDbEntity
  8
1
  6
________________
 62
     7
370
     9
100
AcDbLine
 10
-62.593829
 20
-76.924634
 30
0.0
 11
-62.86419589310001
 21
-75.3913111575
 31
0.0
  0
LINE
  5
CF
330
1F
100
AcDbEntity
  8
1
  6
________________
 62
     7
370
     9
100
AcDbLine
 10
-66.3110230641
 20
-75.9990791876
 30
0.0
 11
-66.040656
 21
-77.532403
 31
0.0
  0
LINE
  5
D0
330
1F
100
AcDbEntity
  8
1
  6
________________
 62
     7
370
     9
100
AcDbLine
 10
-84.0688142071
 20
-17.1320975422
 30
0.0
 11
-84.847303
 21
-15.783717
 31
0.0
  0
LINE
  5
D1
330
1F
100
AcDbEntity
  8
1
  6
________________
 62
     7
370
     9
100
AcDbLine
 10
-84.847303
 20
-74.216283
 30
0.0
 11
-84.0688142071
 21
-72.8679024578
 31
0.0
  0
LINE
  5
D2
330
1F
100
AcDbEntity
  8
1
  6
________________
 62
     7
370
     9
100
AcDbLine
 10
-87.878392
 20
-17.533717
 30
0.0
 11
-87.0999029571
 21
-18.8820979752
 31
0.0
  0
LINE
  5
D3
330
1F
100
AcDbEntity
  8
1
  6
________________
 62
     7
370
     9
100
AcDbLine
 10
-92.7517441001
 20
-23.6245559275
 30
0.0
 11
-93.944459
 21
-22.623751
 31
0.0
  0
LINE
  5
D4
330
1F
100
AcDbEntity
  8
1
  6
________________
 62
     7
370
     9
100
AcDbLine
 10
-96.194215
 20
-25.304906
 30
0.0
 11
-95.00150263
 21
-26.3057127508
 31
0.0
  0
LINE
  5
D5
330
1F
100
AcDbEntity
  8
1
  6
________________
 62
     7
370
     9
100
AcDbLine
 10
-101.350629
 20
-35.451615
 30
0.0
 11
-99.887549919
 21
-35.9841327774
 31
0.0
  0
LINE
  5
D6
330
1F
100
AcDbEntity
  8
1
  6
________________
 62
     7
370
     9
100
AcDbLine
 10
-98.690479036
 20
-32.6952090988
 30
0.0
 11
-100.153559
 21
-32.162691
 31
0.0
  0
LINE
  5
D7
330
1F
100
AcDbEntity
  8
1
  6
________________
 62
     7
370
     9
100
AcDbLine
 10
-87.0999029571
 20
-71.1179020248
 30
0.0
 11
-87.878392
 21
-72.466283
 31
0.0
  0
LINE
  5
D8
330
1F
100
AcDbEntity
  8
1
  6
________________
 62
     7
370
     9
100
AcDbLine
 10
-99.887549919
 20
-54.0158672226
 30
0.0
 11
-101.350629
 21
-54.548385
 31
0.0
  0
LINE
  5
D9
330
1F
100
AcDbEntity
  8
1
  6
________________
 62
     7
370
     9
100
AcDbLine
 10
-101.168718
 20
-43.25
 30
0.0
 11
-102.725695
 21
-43.25
 31
0.0
  0
LINE
  5
DA
330
1F
100
AcDbEntity
  8
1
  6
________________
 62
     7
370
     9
100
AcDbLine
 10
-95.00150263
 20
-63.69428724920001
 30
0.0
 11
-96.194215
 21
-64.695094
 31
0.0
  0
LINE
  5
DB
330
1F
100
AcDbEntity
  8
1
  6
________________
 62
     7
370
     9
100
AcDbLine
 10
-100.153559
 20
-57.837309
 30
0.0
 11
-98.690479036
 21
-57.3047909012
 31
0.0
  0
LINE
  5
DC
330
1F
100
AcDbEntity
  8
1
  6
________________
 62
     7
370
     9
100
AcDbLine
 10
-102.725695
 20
-46.75
 30
0.0
 11
-101.168718
 21
-46.75
 31
0.0
  0
LINE
  5
DD
330
1F
100
AcDbEntity
  8
1
  6
________________
 62
     7
370
     9
100
AcDbLine
 10
-93.944459
 20
-67.376249
 30
0.0
 11
-92.7517441001
 21
-66.3754440725
 31
0.0
  0
ARC
  5
DE
330
1F
100
AcDbEntity
  8
1
  6
________________
 62
     7
370
     9
100
AcDbCircle
 10
-39.94144
 20
-36.453979
 30
0.0
 40
0.5
100
AcDbArc
 50
110.0
 51
195.871108
  0
ARC
  5
DF
330
1F
100
AcDbEntity
  8
1
  6
________________
 62
     7
370
     9
100
AcDbCircle
 10
-70.0
 20
-45.0
 30
0.0
 40
30.749824
100
AcDbArc
 50
4.128892
 51
15.871108
  0
ARC
  5
E0
330
1F
100
AcDbEntity
  8
1
  6
________________
 62
     7
370
     9
100
AcDbCircle
 10
-70.0
 20
-45.0
 30
0.0
 40
30.749824
100
AcDbArc
 50
24.128892
 51
35.871108
  0
ARC
  5
E1
330
1F
100
AcDbEntity
  8
1
  6
________________
 62
     7
370
     9
100
AcDbCircle
 10
-44.677105
 20
-26.688734
 30
0.0
 40
0.5
100
AcDbArc
 50
130.0
 51
215.871108
  0
ARC
  5
E2
330
1F
100
AcDbEntity
  8
1
  6
________________
 62
     7
370
     9
100
AcDbCircle
 10
-38.831282
 20
-42.75
 30
0.0
 40
0.5
100
AcDbArc
 50
184.128892
 51
270.0
  0
ARC
  5
E3
330
1F
100
AcDbEntity
  8
1
  6
________________
 62
     7
370
     9
100
AcDbCircle
 10
-70.0
 20
-45.0
 30
0.0
 40
30.749824
100
AcDbArc
 50
344.128892
 51
355.871108
  0
ARC
  5
E4
330
1F
100
AcDbEntity
  8
1
  6
________________
 62
     7
370
     9
100
AcDbCircle
 10
-41.480531
 20
-32.225362
 30
0.0
 40
0.5
100
AcDbArc
 50
204.128892
 51
289.9999999999999
  0
ARC
  5
E5
330
1F
100
AcDbEntity
  8
1
  6
________________
 62
     7
370
     9
100
AcDbCircle
 10
-38.831282
 20
-47.25
 30
0.0
 40
0.5
100
AcDbArc
 50
90.0
 51
175.871108
  0
ARC
  5
E6
330
1F
100
AcDbEntity
  8
1
  6
________________
 62
     7
370
     9
100
AcDbCircle
 10
-70.0
 20
-45.0
 30
0.0
 40
30.749824
100
AcDbArc
 50
44.12889199999999
 51
55.87110799999999
  0
ARC
  5
E7
330
1F
100
AcDbEntity
  8
1
  6
________________
 62
     7
370
     9
100
AcDbCircle
 10
-39.94144
 20
-53.546021
 30
0.0
 40
0.5
100
AcDbArc
 50
164.128892
 51
250.0
  0
ARC
  5
E8
330
1F
100
AcDbEntity
  8
1
  6
________________
 62
     7
370
     9
100
AcDbCircle
 10
-70.0
 20
-45.0
 30
0.0
 40
30.749824
100
AcDbArc
 50
324.128892
 51
335.871108
  0
ARC
  5
E9
330
1F
100
AcDbEntity
  8
1
  6
________________
 62
     7
370
     9
100
AcDbCircle
 10
-52.467084
 20
-19.132098
 30
0.0
 40
0.5
100
AcDbArc
 50
150.0
 51
235.871108
  0
ARC
  5
EA
330
1F
100
AcDbEntity
  8
1
  6
________________
 62
     7
370
     9
100
AcDbCircle
 10
-47.569649
 20
-23.241534
 30
0.0
 40
0.5
100
AcDbArc
 50
224.128892
 51
310.0
  0
ARC
  5
EB
330
1F
100
AcDbEntity
  8
1
  6
________________
 62
     7
370
     9
100
AcDbCircle
 10
-41.480531
 20
-57.774638
 30
0.0
 40
0.5
100
AcDbArc
 50
70.0
 51
155.871108
  0
ARC
  5
EC
330
1F
100
AcDbEntity
  8
1
  6
________________
 62
     7
370
     9
100
AcDbCircle
 10
-44.677105
 20
-63.311266
 30
0.0
 40
0.5
100
AcDbArc
 50
144.128892
 51
230.0
  0
ARC
  5
ED
330
1F
100
AcDbEntity
  8
1
  6
________________
 62
     7
370
     9
100
AcDbCircle
 10
-70.0
 20
-45.0
 30
0.0
 40
30.749824
100
AcDbArc
 50
304.128892
 51
315.871108
  0
ARC
  5
EE
330
1F
100
AcDbEntity
  8
1
  6
________________
 62
     7
370
     9
100
AcDbCircle
 10
-70.0
 20
-45.0
 30
0.0
 40
30.749824
100
AcDbArc
 50
64.12889199999998
 51
75.87110799999999
  0
ARC
  5
EF
330
1F
100
AcDbEntity
  8
1
  6
________________
 62
     7
370
     9
100
AcDbCircle
 10
-47.569649
 20
-66.758466
 30
0.0
 40
0.5
100
AcDbArc
 50
50.0
 51
135.871108
  0
ARC
  5
F0
330
1F
100
AcDbEntity
  8
1
  6
________________
 62
     7
370
     9
100
AcDbCircle
 10
-62.371791
 20
-14.695513
 30
0.0
 40
0.5
100
AcDbArc
 50
170.0
 51
255.871108
  0
ARC
  5
F1
330
1F
100
AcDbEntity
  8
1
  6
________________
 62
     7
370
     9
100
AcDbCircle
 10
-56.364198
 20
-16.882098
 30
0.0
 40
0.5
100
AcDbArc
 50
244.128892
 51
330.0
  0
ARC
  5
F2
330
1F
100
AcDbEntity
  8
1
  6
________________
 62
     7
370
     9
100
AcDbCircle
 10
-66.803426
 20
-13.914096
 30
0.0
 40
0.5
100
AcDbArc
 50
264.128892
 51
349.9999999999999
  0
ARC
  5
F3
330
1F
100
AcDbEntity
  8
1
  6
________________
 62
     7
370
     9
100
AcDbCircle
 10
-70.0
 20
-45.0
 30
0.0
 40
30.749824
100
AcDbArc
 50
84.128892
 51
95.87110799999999
  0
ARC
  5
F4
330
1F
100
AcDbEntity
  8
1
  6
________________
 62
     7
370
     9
100
AcDbCircle
 10
-52.467084
 20
-70.867902
 30
0.0
 40
0.5
100
AcDbArc
 50
124.128892
 51
210.0
  0
ARC
  5
F5
330
1F
100
AcDbEntity
  8
1
  6
________________
 62
     7
370
     9
100
AcDbCircle
 10
-70.0
 20
-45.0
 30
0.0
 40
30.749824
100
AcDbArc
 50
284.128892
 51
295.871108
  0
ARC
  5
F6
330
1F
100
AcDbEntity
  8
1
  6
________________
 62
     7
370
     9
100
AcDbCircle
 10
-73.196574
 20
-13.914096
 30
0.0
 40
0.5
100
AcDbArc
 50
190.0
 51
275.871108
  0
ARC
  5
F7
330
1F
100
AcDbEntity
  8
1
  6
________________
 62
     7
370
     9
100
AcDbCircle
 10
-56.364198
 20
-73.117902
 30
0.0
 40
0.5
100
AcDbArc
 50
30.0
 51
115.871108
  0
ARC
  5
F8
330
1F
100
AcDbEntity
  8
1
  6
________________
 62
     7
370
     9
100
AcDbCircle
 10
-70.0
 20
-45.0
 30
0.0
 40
30.749824
100
AcDbArc
 50
104.128892
 51
115.871108
  0
ARC
  5
F9
330
1F
100
AcDbEntity
  8
1
  6
________________
 62
     7
370
     9
100
AcDbCircle
 10
-62.371791
 20
-75.304487
 30
0.0
 40
0.5
100
AcDbArc
 50
104.128892
 51
190.0
  0
ARC
  5
FA
330
1F
100
AcDbEntity
  8
1
  6
________________
 62
     7
370
     9
100
AcDbCircle
 10
-77.628209
 20
-14.695513
 30
0.0
 40
0.5
100
AcDbArc
 50
284.128892
 51
9.999999999999945
  0
ARC
  5
FB
330
1F
100
AcDbEntity
  8
1
  6
________________
 62
     7
370
     9
100
AcDbCircle
 10
-70.0
 20
-45.0
 30
0.0
 40
30.749824
100
AcDbArc
 50
263.2625169999999
 51
275.871108
  0
ARC
  5
FC
330
1F
100
AcDbEntity
  8
1
  6
________________
 62
     7
370
     9
100
AcDbCircle
 10
-66.803426
 20
-76.085904
 30
0.0
 40
0.5
100
AcDbArc
 50
10.0
 51
95.87110799999999
  0
ARC
  5
FD
330
1F
100
AcDbEntity
  8
1
  6
________________
 62
     7
370
     9
100
AcDbCircle
 10
-83.635802
 20
-16.882098
 30
0.0
 40
0.5
100
AcDbArc
 50
210.0
 51
295.871108
  0
ARC
  5
FE
330
1F
100
AcDbEntity
  8
1
  6
________________
 62
     7
370
     9
100
AcDbCircle
 10
-70.0
 20
-45.0
 30
0.0
 40
30.749824
100
AcDbArc
 50
124.128892
 51
135.871108
  0
ARC
  5
FF
330
1F
100
AcDbEntity
  8
1
  6
________________
 62
     7
370
     9
100
AcDbCircle
 10
-87.532916
 20
-19.132098
 30
0.0
 40
0.5
100
AcDbArc
 50
304.128892
 51
30.0
  0
ARC
  5
100
330
1F
100
AcDbEntity
  8
1
  6
________________
 62
     7
370
     9
100
AcDbCircle
 10
-70.0
 20
-45.0
 30
0.0
 40
30.749824
100
AcDbArc
 50
244.128892
 51
256.737483
  0
ARC
  5
101
330
1F
100
AcDbEntity
  8
1
  6
________________
 62
     7
370
     9
100
AcDbCircle
 10
-83.635802
 20
-73.117902
 30
0.0
 40
0.5
100
AcDbArc
 50
64.12889199999998
 51
150.0
  0
ARC
  5
102
330
1F
100
AcDbEntity
  8
1
  6
________________
 62
     7
370
     9
100
AcDbCircle
 10
-92.430351
 20
-23.241534
 30
0.0
 40
0.5
100
AcDbArc
 50
230.0
 51
315.871108
  0
ARC
  5
103
330
1F
100
AcDbEntity
  8
1
  6
________________
 62
     7
370
     9
100
AcDbCircle
 10
-70.0
 20
-45.0
 30
0.0
 40
30.749824
100
AcDbArc
 50
144.128892
 51
155.871108
  0
ARC
  5
104
330
1F
100
AcDbEntity
  8
1
  6
________________
 62
     7
370
     9
100
AcDbCircle
 10
-95.322895
 20
-26.688734
 30
0.0
 40
0.5
100
AcDbArc
 50
324.128892
 51
50.0
  0
ARC
  5
105
330
1F
100
AcDbEntity
  8
1
  6
________________
 62
     7
370
     9
100
AcDbCircle
 10
-70.0
 20
-45.0
 30
0.0
 40
30.749824
100
AcDbArc
 50
164.128892
 51
175.871108
  0
ARC
  5
106
330
1F
100
AcDbEntity
  8
1
  6
________________
 62
     7
370
     9
100
AcDbCircle
 10
-92.430351
 20
-66.758466
 30
0.0
 40
0.5
100
AcDbArc
 50
44.12889199999999
 51
130.0
  0
ARC
  5
107
330
1F
100
AcDbEntity
  8
1
  6
________________
 62
     7
370
     9
100
AcDbCircle
 10
-98.519469
 20
-32.225362
 30
0.0
 40
0.5
100
AcDbArc
 50
250.0
 51
335.871108
  0
ARC
  5
108
330
1F
100
AcDbEntity
  8
1
  6
________________
 62
     7
370
     9
100
AcDbCircle
 10
-87.532916
 20
-70.867902
 30
0.0
 40
0.5
100
AcDbArc
 50
330.0
 51
55.87110799999999
  0
ARC
  5
109
330
1F
100
AcDbEntity
  8
1
  6
________________
 62
     7
370
     9
100
AcDbCircle
 10
-70.0
 20
-45.0
 30
0.0
 40
30.749824
100
AcDbArc
 50
224.128892
 51
235.871108
  0
ARC
  5
10A
330
1F
100
AcDbEntity
  8
1
  6
________________
 62
     7
370
     9
100
AcDbCircle
 10
-100.05856
 20
-36.453979
 30
0.0
 40
0.5
100
AcDbArc
 50
344.128892
 51
70.0
  0
ARC
  5
10B
330
1F
100
AcDbEntity
  8
1
  6
________________
 62
     7
370
     9
100
AcDbCircle
 10
-98.519469
 20
-57.774638
 30
0.0
 40
0.5
100
AcDbArc
 50
24.128892
 51
110.0
  0
ARC
  5
10C
330
1F
100
AcDbEntity
  8
1
  6
________________
 62
     7
370
     9
100
AcDbCircle
 10
-101.168718
 20
-47.25
 30
0.0
 40
0.5
100
AcDbArc
 50
4.128892
 51
90.0
  0
ARC
  5
10D
330
1F
100
AcDbEntity
  8
1
  6
________________
 62
     7
370
     9
100
AcDbCircle
 10
-70.0
 20
-45.0
 30
0.0
 40
30.749824
100
AcDbArc
 50
184.128892
 51
195.871108
  0
ARC
  5
10E
330
1F
100
AcDbEntity
  8
1
  6
________________
 62
     7
370
     9
100
AcDbCircle
 10
-100.05856
 20
-53.546021
 30
0.0
 40
0.5
100
AcDbArc
 50
289.9999999999999
 51
15.87110799999993
  0
ARC
  5
10F
330
1F
100
AcDbEntity
  8
1
  6
________________
 62
     7
370
     9
100
AcDbCircle
 10
-70.0
 20
-45.0
 30
0.0
 40
30.749824
100
AcDbArc
 50
204.128892
 51
215.871108
  0
ARC
  5
110
330
1F
100
AcDbEntity
  8
1
  6
________________
 62
     7
370
     9
100
AcDbCircle
 10
-101.168718
 20
-42.75
 30
0.0
 40
0.5
100
AcDbArc
 50
270.0
 51
355.871108
  0
ARC
  5
111
330
1F
100
AcDbEntity
  8
1
  6
________________
 62
     7
370
     9
100
AcDbCircle
 10
-95.322895
 20
-63.311266
 30
0.0
 40
0.5
100
AcDbArc
 50
310.0
 51
35.87110799999999
  0
ARC
  5
112
330
1F
100
AcDbEntity
  8
1
  6
________________
 62
     7
370
     9
100
AcDbCircle
 10
-70.0
 20
-45.0
 30
0.0
 40
32.5
100
AcDbArc
 50
180.0
 51
180.18994
  0
ARC
  5
113
330
1F
100
AcDbEntity
  8
1
  6
________________
 62
     7
370
     9
100
AcDbCircle
 10
-70.0
 20
-45.0
 30
0.0
 40
32.5
100
AcDbArc
 50
359.9258
 51
2.760520999999983
  0
ARC
  5
114
330
1F
100
AcDbEntity
  8
1
  6
________________
 62
     7
370
     9
100
AcDbCircle
 10
-70.0
 20
-45.0
 30
0.0
 40
31.7
100
AcDbArc
 50
356.835086
 51
3.164914000000067
  0
ARC
  5
115
330
1F
100
AcDbEntity
  8
1
  6
________________
 62
     7
370
     9
100
AcDbCircle
 10
-70.0
 20
-45.0
 30
0.0
 40
31.7
100
AcDbArc
 50
16.83427
 51
23.165375
  0
ARC
  5
116
330
1F
100
AcDbEntity
  8
1
  6
________________
 62
     7
370
     9
100
AcDbCircle
 10
-70.0
 20
-45.0
 30
0.0
 40
31.7
100
AcDbArc
 50
36.834625
 51
43.16573
  0
ARC
  5
117
330
1F
100
AcDbEntity
  8
1
  6
________________
 62
     7
370
     9
100
AcDbCircle
 10
-70.0
 20
-45.0
 30
0.0
 40
31.7
100
AcDbArc
 50
56.835086
 51
63.164914
  0
ARC
  5
118
330
1F
100
AcDbEntity
  8
1
  6
________________
 62
     7
370
     9
100
AcDbCircle
 10
-70.0
 20
-45.0
 30
0.0
 40
31.7
100
AcDbArc
 50
76.83427
 51
83.165375
  0
ARC
  5
119
330
1F
100
AcDbEntity
  8
1
  6
________________
 62
     7
370
     9
100
AcDbCircle
 10
-70.0
 20
-45.0
 30
0.0
 40
31.7
100
AcDbArc
 50
96.834625
 51
103.16573
  0
ARC
  5
11A
330
1F
100
AcDbEntity
  8
1
  6
________________
 62
     7
370
     9
100
AcDbCircle
 10
-70.0
 20
-45.0
 30
0.0
 40
31.7
100
AcDbArc
 50
116.835086
 51
123.164914
  0
ARC
  5
11B
330
1F
100
AcDbEntity
  8
1
  6
________________
 62
     7
370
     9
100
AcDbCircle
 10
-70.0
 20
-45.0
 30
0.0
 40
31.7
100
AcDbArc
 50
136.83427
 51
143.165375
  0
ARC
  5
11C
330
1F
100
AcDbEntity
  8
1
  6
________________
 62
     7
370
     9
100
AcDbCircle
 10
-70.0
 20
-45.0
 30
0.0
 40
31.7
100
AcDbArc
 50
156.834625
 51
163.16573
  0
ARC
  5
11D
330
1F
100
AcDbEntity
  8
1
  6
________________
 62
     7
370
     9
100
AcDbCircle
 10
-70.0
 20
-45.0
 30
0.0
 40
31.7
100
AcDbArc
 50
176.835086
 51
183.164914
  0
ARC
  5
11E
330
1F
100
AcDbEntity
  8
1
  6
________________
 62
     7
370
     9
100
AcDbCircle
 10
-70.0
 20
-45.0
 30
0.0
 40
31.7
100
AcDbArc
 50
196.83427
 51
203.165375
  0
ARC
  5
11F
330
1F
100
AcDbEntity
  8
1
  6
________________
 62
     7
370
     9
100
AcDbCircle
 10
-70.0
 20
-45.0
 30
0.0
 40
31.7
100
AcDbArc
 50
216.834625
 51
223.16573
  0
ARC
  5
120
330
1F
100
AcDbEntity
  8
1
  6
________________
 62
     7
370
     9
100
AcDbCircle
 10
-70.0
 20
-45.0
 30
0.0
 40
31.7
100
AcDbArc
 50
236.835086
 51
243.164914
  0
ARC
  5
121
330
1F
100
AcDbEntity
  8
1
  6
________________
 62
     7
370
     9
100
AcDbCircle
 10
-70.0
 20
-45.0
 30
0.0
 40
31.7
100
AcDbArc
 50
256.83427
 51
263.165375
  0
ARC
  5
122
330
1F
100
AcDbEntity
  8
1
  6
________________
 62
     7
370
     9
100
AcDbCircle
 10
-70.0
 20
-45.0
 30
0.0
 40
31.7
100
AcDbArc
 50
276.834625
 51
283.16573
  0
ARC
  5
123
330
1F
100
AcDbEntity
  8
1
  6
________________
 62
     7
370
     9
100
AcDbCircle
 10
-70.0
 20
-45.0
 30
0.0
 40
31.7
100
AcDbArc
 50
296.835086
 51
303.164914
  0
ARC
  5
124
330
1F
100
AcDbEntity
  8
1
  6
________________
 62
     7
370
     9
100
AcDbCircle
 10
-70.0
 20
-45.0
 30
0.0
 40
31.7
100
AcDbArc
 50
316.83427
 51
323.165375
  0
ARC
  5
125
330
1F
100
AcDbEntity
  8
1
  6
________________
 62
     7
370
     9
100
AcDbCircle
 10
-70.0
 20
-45.0
 30
0.0
 40
31.7
100
AcDbArc
 50
336.834625
 51
343.1657299999999
  0
CIRCLE
  5
126
330
1F
100
AcDbEntity
  8
1
  6
________________
 62
     7
370
     9
100
AcDbCircle
 10
-70.0
 20
-45.0
 30
0.0
 40
25.5
  0
LINE
  5
127
330
1F
100
AcDbEntity
  8
1
  6
________________
 62
     7
370
     9
100
AcDbLine
 10
15.763775
 20
-4.187511
 30
0.0
 11
15.763775
 21
-4.624075623
 31
0.0
  0
LINE
  5
128
330
1F
100
AcDbEntity
  8
1
  6
________________
 62
     7
370
     9
100
AcDbLine
 10
15.763775
 20
-39.390155
 30
0.0
 11
15.763775
 21
-50.609831
 31
0.0
  0
ARC
  5
129
330
1F
100
AcDbEntity
  8
1
  6
________________
 62
     7
370
     9
100
AcDbCircle
 10
13.454359
 20
-39.382146
 30
0.0
 40
2.309431
100
AcDbArc
 50
359.801284
 51
87.77438900000004
  0
LINE
  5
12A
330
1F
100
AcDbEntity
  8
1
  6
________________
 62
     7
370
     9
100
AcDbLine
 10
0.431051
 20
-36.612619
 30
0.0
 11
13.544044
 21
-37.074457
 31
0.0
  0
LINE
  5
12B
330
1F
100
AcDbEntity
  8
1
  6
________________
 62
     7
370
     9
100
AcDbLine
 10
13.544044
 20
-22.336698
 30
0.0
 11
0.431051
 21
-22.978138
 31
0.0
  0
ARC
  5
12C
330
1F
100
AcDbEntity
  8
1
  6
________________
 62
     7
370
     9
100
AcDbCircle
 10
13.569061
 20
-20.105491
 30
0.0
 40
2.231347
100
AcDbArc
 50
269.3576
 51
348.1585740000001
  0
LINE
  5
12D
330
1F
100
AcDbEntity
  8
1
  6
________________
 62
     7
370
     9
100
AcDbLine
 10
15.763775
 20
-12.2081499004
 30
0.0
 11
15.763775
 21
-20.5633717477
 31
0.0
  0
ARC
  5
12E
330
1F
100
AcDbEntity
  8
1
  6
________________
 62
     7
370
     9
100
AcDbCircle
 10
13.712081
 20
-13.759927
 30
0.0
 40
2.636998
100
AcDbArc
 50
45.60546600000001
 51
93.65351400000002
  0
LINE
  5
12F
330
1F
100
AcDbEntity
  8
1
  6
________________
 62
     7
370
     9
100
AcDbLine
 10
0.431051
 20
-11.116589
 30
0.0
 11
13.544044
 21
-11.128288
 31
0.0
  0
ARC
  5
130
330
1F
100
AcDbEntity
  8
1
  6
________________
 62
     7
370
     9
100
AcDbCircle
 10
0.616509
 20
-27.6079
 30
0.0
 40
4.633475
100
AcDbArc
 50
92.29391199999999
 51
116.411425
  0
LINE
  5
131
330
1F
100
AcDbEntity
  8
1
  6
________________
 62
     7
370
     9
100
AcDbLine
 10
-1.444525
 20
-36.562386
 30
0.0
 11
0.4310510000000002
 21
-36.612619
 31
0.0
  0
ARC
  5
132
330
1F
100
AcDbEntity
  8
1
  6
________________
 62
     7
370
     9
100
AcDbCircle
 10
0.407271
 20
-15.513726
 30
0.0
 40
4.397201
100
AcDbArc
 50
89.69014
 51
114.905984
  0
LINE
  5
133
330
1F
100
AcDbEntity
  8
1
  6
________________
 62
     7
370
     9
100
AcDbLine
 10
-3.9299173096
 20
-8.5783401604
 30
0.0
 11
-3.9299173096
 21
-81.4216458396
 31
0.0
  0
LINE
  5
134
330
1F
100
AcDbEntity
  8
1
  6
________________
 62
     7
370
     9
100
AcDbLine
 10
35.6574072674
 20
-85.9573930906
 30
0.0
 11
35.6574072674
 21
-4.042592909399997
 31
0.0
  0
LINE
  5
135
330
1F
100
AcDbEntity
  8
1
  6
________________
 62
     7
370
     9
100
AcDbLine
 10
101.67373
 20
-83.388215
 30
0.0
 11
101.67373
 21
-6.611771000000002
 31
0.0
  0
LINE
  5
136
330
1F
100
AcDbEntity
  8
1
  6
________________
 62
     7
370
     9
100
AcDbLine
 10
39.345951
 20
-7.532716
 30
0.0
 11
39.345951
 21
-82.46727
 31
0.0
  0
LINE
  5
137
330
1F
100
AcDbEntity
  8
1
  6
________________
 62
     7
370
     9
100
AcDbLine
 10
76.341469
 20
-81.82151
 30
0.0
 11
76.341469
 21
-8.178476000000003
 31
0.0
  0
LINE
  5
138
330
1F
100
AcDbEntity
  8
1
  6
________________
 62
     7
370
     9
100
AcDbLine
 10
98.3657304877
 20
-43.01218
 30
0.0
 11
98.3657304877
 21
-11.798139
 31
0.0
  0
LINE
  5
139
330
1F
100
AcDbEntity
  8
1
  6
________________
 62
     7
370
     9
100
AcDbLine
 10
80.341647
 20
-11.798139
 30
0.0
 11
80.341647
 21
-43.21145
 31
0.0
  0
LINE
  5
13A
330
1F
100
AcDbEntity
  8
1
  6
________...._...
 62
     5
420
      255
370
     9
100
AcDbLine
 10
-109.7495058782
 20
-45.0
 30
0.0
 11
-30.0390150048
 21
-45.0
 31
0.0
  0
LINE
  5
13C
330
1F
100
AcDbEntity
  8
1
  6
________...._...
 62
     5
420
      255
370
     9
100
AcDbLine
 10
-70.0
 20
-85.812458615
 30
0.0
 11
-70.0
 21
-5.399672667800004
 31
0.0
  0
LINE
  5
13D
330
1F
100
AcDbEntity
  8
1
  6
________...._...
 62
     5
420
      255
370
     9
100
AcDbLine
 10
134.2033930822
 20
-45.0
 30
0.0
 11
227.4387225814
 21
-45.0
 31
0.0
  0
LINE
  5
13E
330
1F
100
AcDbEntity
  8
1
  6
________...._...
 62
     5
420
      255
370
     9
100
AcDbLine
 10
180.0
 20
-89.5310770648
 30
0.0
 11
180.0
 21
-0.9285589692999974
 31
0.0
  0
LINE
  5
13F
330
1F
100
AcDbEntity
  8
1
  6
________...._...
 62
     5
420
      255
370
     9
100
AcDbLine
 10
-12.3092675594
 20
-44.999993
 30
0.0
 11
119.1467560202
 21
-44.999993
 31
0.0
  0
ARC
  5
140
330
1F
100
AcDbEntity
  8
1
  6
________________
 62
     7
370
     9
100
AcDbCircle
 10
98.3657304877
 20
-9.298139
 30
0.0
 40
2.5
100
AcDbArc
 50
270.0
 51
345.0000172386
  0
CIRCLE
  5
141
330
1F
100
AcDbEntity
  8
1
  6
________________
 62
     7
370
     9
100
AcDbCircle
 10
180.0
 20
-45.0
 30
0.0
 40
25.5
  0
LINE
  5
142
330
1F
100
AcDbEntity
  8
1
  6
________________
 62
     7
370
     9
100
AcDbLine
 10
150.3748579142
 20
-18.8733669142
 30
0.0
 11
155.109874
 21
-23.608383
 31
0.0
  0
ARC
  5
143
330
1F
100
AcDbEntity
  8
1
  6
________________
 62
     7
370
     9
100
AcDbCircle
 10
155.9584047765
 20
-22.7598534327
 30
0.0
 40
1.2000028934
100
AcDbArc
 50
224.9998954634
 51
243.4331037723
  0
ARC
  5
144
330
1F
100
AcDbEntity
  8
1
  6
________________
 62
     7
370
     9
100
AcDbCircle
 10
155.958370652
 20
-22.7599227804
 30
0.0
 40
1.199925606
100
AcDbArc
 50
243.4330801895999
 51
296.566778704
  0
ARC
  5
145
330
1F
100
AcDbEntity
  8
1
  6
________________
 62
     7
370
     9
100
AcDbCircle
 10
155.9584166152
 20
-22.7599691284
 30
0.0
 40
1.1998621176
100
AcDbArc
 50
296.5658054479999
 51
315.0011953164
  0
LINE
  5
146
330
1F
100
AcDbEntity
  8
1
  6
________________
 62
     7
370
     9
100
AcDbLine
 10
156.806865
 20
-23.608383
 30
0.0
 11
158.608383
 21
-21.806865
 31
0.0
  0
CIRCLE
  5
147
330
1F
100
AcDbEntity
  8
1
  6
________________
 62
     7
370
     9
100
AcDbCircle
 10
180.0
 20
-45.0
 30
0.0
 40
39.5
  0
ARC
  5
148
330
1F
100
AcDbEntity
  8
1
  6
________________
 62
     7
370
     9
100
AcDbCircle
 10
180.0
 20
-45.0
 30
0.0
 40
38.052361
100
AcDbArc
 50
131.312022
 51
138.687978
  0
CIRCLE
  5
149
330
1F
100
AcDbEntity
  8
1
  6
________________
 62
     7
370
     9
100
AcDbCircle
 10
180.0
 20
-45.0
 30
0.0
 40
42.0
  0
LINE
  5
14A
330
1F
100
AcDbEntity
  8
1
  6
________________
 62
     7
370
     9
100
AcDbLine
 10
153.8733669142
 20
-15.3748579142
 30
0.0
 11
158.608383
 21
-20.109874
 31
0.0
  0
ARC
  5
14B
330
1F
100
AcDbEntity
  8
1
  6
________________
 62
     7
370
     9
100
AcDbCircle
 10
157.7598534327
 20
-20.9583332235
 30
0.0
 40
1.2000028934
100
AcDbArc
 50
314.9998954634
 51
333.4331037722999
  0
ARC
  5
14C
330
1F
100
AcDbEntity
  8
1
  6
________________
 62
     7
370
     9
100
AcDbCircle
 10
157.7599227804
 20
-20.958367348
 30
0.0
 40
1.199925606
100
AcDbArc
 50
333.4330801896
 51
26.56677870400005
  0
ARC
  5
14D
330
1F
100
AcDbEntity
  8
1
  6
________________
 62
     7
370
     9
100
AcDbCircle
 10
157.7599691284
 20
-20.9583213848
 30
0.0
 40
1.1998621176
100
AcDbArc
 50
26.565805448
 51
45.0011953163
  0
LINE
  5
14E
330
1F
100
AcDbEntity
  8
1
  6
________________
 62
     7
370
     9
100
AcDbLine
 10
153.8733669142
 20
-74.6251420858
 30
0.0
 11
158.608383
 21
-69.890126
 31
0.0
  0
ARC
  5
14F
330
1F
100
AcDbEntity
  8
1
  6
________________
 62
     7
370
     9
100
AcDbCircle
 10
157.7598534327
 20
-69.0415952235
 30
0.0
 40
1.2000028934
100
AcDbArc
 50
314.9998954634
 51
333.4331037722999
  0
ARC
  5
150
330
1F
100
AcDbEntity
  8
1
  6
________________
 62
     7
370
     9
100
AcDbCircle
 10
157.7599227804
 20
-69.041629348
 30
0.0
 40
1.199925606
100
AcDbArc
 50
333.4330801896
 51
26.56677870400005
  0
ARC
  5
151
330
1F
100
AcDbEntity
  8
1
  6
________________
 62
     7
370
     9
100
AcDbCircle
 10
157.7599691284
 20
-69.0415833848
 30
0.0
 40
1.1998621176
100
AcDbArc
 50
26.565805448
 51
45.0011953163
  0
LINE
  5
152
330
1F
100
AcDbEntity
  8
1
  6
________________
 62
     7
370
     9
100
AcDbLine
 10
158.608383
 20
-68.193135
 30
0.0
 11
156.806865
 21
-66.391617
 31
0.0
  0
ARC
  5
153
330
1F
100
AcDbEntity
  8
1
  6
________________
 62
     7
370
     9
100
AcDbCircle
 10
180.0
 20
-45.0
 30
0.0
 40
38.052361
100
AcDbArc
 50
221.312022
 51
228.687978
  0
LINE
  5
154
330
1F
100
AcDbEntity
  8
1
  6
________________
 62
     7
370
     9
100
AcDbLine
 10
150.3748579142
 20
-71.1266330858
 30
0.0
 11
155.109874
 21
-66.391617
 31
0.0
  0
ARC
  5
155
330
1F
100
AcDbEntity
  8
1
  6
________________
 62
     7
370
     9
100
AcDbCircle
 10
155.9583332235
 20
-67.2401465673
 30
0.0
 40
1.2000028934
100
AcDbArc
 50
44.9998954633
 51
63.4331037723
  0
ARC
  5
156
330
1F
100
AcDbEntity
  8
1
  6
________________
 62
     7
370
     9
100
AcDbCircle
 10
155.958367348
 20
-67.2400772196
 30
0.0
 40
1.199925606
100
AcDbArc
 50
63.4330801896
 51
116.566778704
  0
ARC
  5
157
330
1F
100
AcDbEntity
  8
1
  6
________________
 62
     7
370
     9
100
AcDbCircle
 10
155.9583213848
 20
-67.2400308716
 30
0.0
 40
1.1998621176
100
AcDbArc
 50
116.565805448
 51
135.0011953164
  0
LINE
  5
158
330
1F
100
AcDbEntity
  8
1
  6
________________
 62
     7
370
     9
100
AcDbLine
 10
209.6251420858
 20
-71.1266330858
 30
0.0
 11
204.890126
 21
-66.391617
 31
0.0
  0
ARC
  5
159
330
1F
100
AcDbEntity
  8
1
  6
________________
 62
     7
370
     9
100
AcDbCircle
 10
204.0415952235
 20
-67.2401465673
 30
0.0
 40
1.2000028934
100
AcDbArc
 50
44.9998954633
 51
63.4331037723
  0
ARC
  5
15A
330
1F
100
AcDbEntity
  8
1
  6
________________
 62
     7
370
     9
100
AcDbCircle
 10
204.041629348
 20
-67.2400772196
 30
0.0
 40
1.199925606
100
AcDbArc
 50
63.4330801896
 51
116.566778704
  0
ARC
  5
15B
330
1F
100
AcDbEntity
  8
1
  6
________________
 62
     7
370
     9
100
AcDbCircle
 10
204.0415833848
 20
-67.2400308716
 30
0.0
 40
1.1998621176
100
AcDbArc
 50
116.565805448
 51
135.0011953164
  0
LINE
  5
15C
330
1F
100
AcDbEntity
  8
1
  6
________________
 62
     7
370
     9
100
AcDbLine
 10
203.193135
 20
-66.391617
 30
0.0
 11
201.391617
 21
-68.193135
 31
0.0
  0
ARC
  5
15D
330
1F
100
AcDbEntity
  8
1
  6
________________
 62
     7
370
     9
100
AcDbCircle
 10
180.0
 20
-45.0
 30
0.0
 40
38.052361
100
AcDbArc
 50
311.3120220000001
 51
318.6879779999999
  0
LINE
  5
15E
330
1F
100
AcDbEntity
  8
1
  6
________________
 62
     7
370
     9
100
AcDbLine
 10
206.1266330858
 20
-74.6251420858
 30
0.0
 11
201.391617
 21
-69.890126
 31
0.0
  0
ARC
  5
15F
330
1F
100
AcDbEntity
  8
1
  6
________________
 62
     7
370
     9
100
AcDbCircle
 10
202.2401465673
 20
-69.0416667765
 30
0.0
 40
1.2000028934
100
AcDbArc
 50
134.9998954634
 51
153.4331037723
  0
ARC
  5
160
330
1F
100
AcDbEntity
  8
1
  6
________________
 62
     7
370
     9
100
AcDbCircle
 10
202.2400772196
 20
-69.041632652
 30
0.0
 40
1.199925606
100
AcDbArc
 50
153.4330801896
 51
206.566778704
  0
ARC
  5
161
330
1F
100
AcDbEntity
  8
1
  6
________________
 62
     7
370
     9
100
AcDbCircle
 10
202.2400308716
 20
-69.0416786152
 30
0.0
 40
1.1998621176
100
AcDbArc
 50
206.565805448
 51
225.0011953163
  0
LINE
  5
162
330
1F
100
AcDbEntity
  8
1
  6
________________
 62
     7
370
     9
100
AcDbLine
 10
206.1266330858
 20
-15.3748579142
 30
0.0
 11
201.391617
 21
-20.109874
 31
0.0
  0
ARC
  5
163
330
1F
100
AcDbEntity
  8
1
  6
________________
 62
     7
370
     9
100
AcDbCircle
 10
202.2401465673
 20
-20.9584047765
 30
0.0
 40
1.2000028934
100
AcDbArc
 50
134.9998954634
 51
153.4331037723
  0
ARC
  5
164
330
1F
100
AcDbEntity
  8
1
  6
________________
 62
     7
370
     9
100
AcDbCircle
 10
202.2400772196
 20
-20.958370652
 30
0.0
 40
1.199925606
100
AcDbArc
 50
153.4330801896
 51
206.566778704
  0
ARC
  5
165
330
1F
100
AcDbEntity
  8
1
  6
________________
 62
     7
370
     9
100
AcDbCircle
 10
202.2400308716
 20
-20.9584166152
 30
0.0
 40
1.1998621176
100
AcDbArc
 50
206.565805448
 51
225.0011953163
  0
LINE
  5
166
330
1F
100
AcDbEntity
  8
1
  6
________________
 62
     7
370
     9
100
AcDbLine
 10
201.391617
 20
-21.806865
 30
0.0
 11
203.193135
 21
-23.608383
 31
0.0
  0
ARC
  5
167
330
1F
100
AcDbEntity
  8
1
  6
________________
 62
     7
370
     9
100
AcDbCircle
 10
180.0
 20
-45.0
 30
0.0
 40
38.052361
100
AcDbArc
 50
41.312022
 51
48.68797800000001
  0
LINE
  5
168
330
1F
100
AcDbEntity
  8
1
  6
________________
 62
     7
370
     9
100
AcDbLine
 10
209.6251420858
 20
-18.8733669142
 30
0.0
 11
204.890126
 21
-23.608383
 31
0.0
  0
ARC
  5
169
330
1F
100
AcDbEntity
  8
1
  6
________________
 62
     7
370
     9
100
AcDbCircle
 10
204.0416667765
 20
-22.7598534327
 30
0.0
 40
1.2000028934
100
AcDbArc
 50
224.9998954634
 51
243.4331037723
  0
ARC
  5
16A
330
1F
100
AcDbEntity
  8
1
  6
________________
 62
     7
370
     9
100
AcDbCircle
 10
204.041632652
 20
-22.7599227804
 30
0.0
 40
1.199925606
100
AcDbArc
 50
243.4330801895999
 51
296.566778704
  0
ARC
  5
16B
330
1F
100
AcDbEntity
  8
1
  6
________________
 62
     7
370
     9
100
AcDbCircle
 10
204.0416786152
 20
-22.7599691284
 30
0.0
 40
1.1998621176
100
AcDbArc
 50
296.5658054479999
 51
315.0011953164
  0
LINE
  5
16C
330
1F
100
AcDbEntity
  8
1
  6
________________
 62
     7
370
     9
100
AcDbLine
 10
108.471628
 20
-5.5
 30
0.0
 11
108.471628
 21
-84.499986
 31
0.0
  0
LINE
  5
16D
330
1F
100
AcDbEntity
  8
1
  6
________________
 62
     7
370
     9
100
AcDbLine
 10
114.471628
 20
-6.5
 30
0.0
 11
114.471628
 21
-83.499986
 31
0.0
  0
ARC
  5
16E
330
1F
100
AcDbEntity
  8
1
  6
________________
 62
     7
370
     9
100
AcDbCircle
 10
113.471628
 20
-6.543672
 30
0.0
 40
1.0
100
AcDbArc
 50
0.0
 51
89.5
  0
LINE
  5
16F
330
1F
100
AcDbEntity
  8
1
  6
________________
 62
     7
370
     9
100
AcDbLine
 10
106.471628
 20
-5.5
 30
0.0
 11
106.471628
 21
-84.499986
 31
0.0
  0
LINE
  5
170
330
1F
100
AcDbEntity
  8
1
  6
________________
 62
     7
370
     9
100
AcDbLine
 10
13.544044
 20
-84.976278
 30
0.0
 11
0.431051
 21
-84.530984
 31
0.0
  0
LINE
  5
171
330
1F
100
AcDbEntity
  8
1
  6
________________
 62
     7
370
     9
100
AcDbLine
 10
-1.444525
 20
-66.541933
 30
0.0
 11
-1.444525
 21
-78.474522
 31
0.0
  0
LINE
  5
172
330
1F
100
AcDbEntity
  8
1
  6
________________
 62
     7
370
     9
100
AcDbLine
 10
-1.444525
 20
-83.902514
 30
0.0
 11
-1.444525
 21
-84.807021
 31
0.0
  0
ARC
  5
173
330
1F
100
AcDbEntity
  8
1
  6
________________
 62
     7
370
     9
100
AcDbCircle
 10
0.4175272835
 20
-84.529642893
 30
0.0
 40
0.0135899205
100
AcDbArc
 50
324.9784771054
 51
354.3381694593
  0
LINE
  5
174
330
1F
100
AcDbEntity
  8
1
  6
________________
 62
     7
370
     9
100
AcDbLine
 10
-1.444525
 20
-83.902514
 30
0.0
 11
-1.429449
 21
-83.918107
 31
0.0
  0
ARC
  5
175
330
1F
100
AcDbEntity
  8
1
  6
________________
 62
     7
370
     9
100
AcDbCircle
 10
13.5327261491
 20
-84.9750925757
 30
0.0
 40
0.0113797552
100
AcDbArc
 50
323.0218963243
 51
354.0174363073
  0
LINE
  5
176
330
1F
100
AcDbEntity
  8
1
  6
________________
 62
     7
370
     9
100
AcDbLine
 10
101.091341
 20
-46.506988
 30
0.0
 11
101.171764
 21
-46.04182
 31
0.0
  0
LINE
  5
177
330
1F
100
AcDbEntity
  8
1
  6
________________
 62
     7
370
     9
100
AcDbLine
 10
77.224401
 20
-81.499986
 30
0.0
 11
77.6116
 21
-81.043564
 31
0.0
  0
LINE
  5
178
330
1F
100
AcDbEntity
  8
1
  6
________________
 62
     7
370
     9
100
AcDbLine
 10
77.6116
 20
-81.043564
 30
0.0
 11
77.76418
 21
-80.675343
 31
0.0
  0
LINE
  5
179
330
1F
100
AcDbEntity
  8
1
  6
________________
 62
     7
370
     9
100
AcDbLine
 10
101.051615
 20
-46.539918
 30
0.0
 11
101.091341
 21
-46.506988
 31
0.0
  0
ARC
  5
17A
330
1F
100
AcDbEntity
  8
1
  6
________________
 62
     7
370
     9
100
AcDbCircle
 10
97.724517
 20
-24.898518
 30
0.0
 40
21.895656
100
AcDbArc
 50
268.699673
 51
278.74009
  0
ARC
  5
17B
330
1F
100
AcDbEntity
  8
1
  6
________________
 62
     7
370
     9
100
AcDbCircle
 10
80.072868
 20
-32.803927
 30
0.0
 40
13.987192
100
AcDbArc
 50
258.2496203977
 51
271.101069
  0
LINE
  5
17C
330
1F
100
AcDbEntity
  8
1
  6
________________
 62
     7
370
     9
100
AcDbLine
 10
80.341647
 20
-46.788536
 30
0.0
 11
97.227638
 21
-46.788536
 31
0.0
  0
LINE
  5
17D
330
1F
100
AcDbEntity
  8
1
  6
________________
 62
     7
370
     9
100
AcDbLine
 10
77.76418
 20
-80.675343
 30
0.0
 11
77.926832
 21
-80.065282
 31
0.0
  0
ARC
  5
17E
330
1F
100
AcDbEntity
  8
1
  6
________________
 62
     7
370
     9
100
AcDbCircle
 10
80.346476
 20
-80.704495
 30
0.0
 40
2.502653
100
AcDbArc
 50
90.11056499999998
 51
165.201849
  0
LINE
  5
17F
330
1F
100
AcDbEntity
  8
1
  6
________________
 62
     7
370
     9
100
AcDbLine
 10
98.3657304877
 20
-78.201847
 30
0.0
 11
80.341647
 21
-78.201847
 31
0.0
  0
LINE
  5
180
330
1F
100
AcDbEntity
  8
1
  6
________________
 62
     7
370
     9
100
AcDbLine
 10
77.224401
 20
-81.499986
 30
0.0
 11
101.207475
 21
-81.499986
 31
0.0
  0
LINE
  5
181
330
1F
100
AcDbEntity
  8
1
  6
________________
 62
     7
370
     9
100
AcDbLine
 10
32.471628
 20
-86.249986
 30
0.0
 11
15.763775
 21
-85.812475
 31
0.0
  0
ARC
  5
182
330
1F
100
AcDbEntity
  8
1
  6
________________
 62
     7
370
     9
100
AcDbCircle
 10
0.52267
 20
-81.912173
 30
0.0
 40
3.5
100
AcDbArc
 50
210.0
 51
235.8019109999999
  0
LINE
  5
183
330
1F
100
AcDbEntity
  8
1
  6
________________
 62
     7
370
     9
100
AcDbLine
 10
-2.508419
 20
-83.662173
 30
0.0
 11
-3.50576
 21
-81.934727
 31
0.0
  0
ARC
  5
184
330
1F
100
AcDbEntity
  8
1
  6
________________
 62
     7
370
     9
100
AcDbCircle
 10
-5.237811
 20
-82.934727
 30
0.0
 40
2.0
100
AcDbArc
 50
30.0
 51
80.0
  0
LINE
  5
185
330
1F
100
AcDbEntity
  8
1
  6
________________
 62
     7
370
     9
100
AcDbLine
 10
-4.890515
 20
-80.965111
 30
0.0
 11
-7.528372
 21
-80.499986
 31
0.0
  0
ARC
  5
186
330
1F
100
AcDbEntity
  8
1
  6
________________
 62
     7
370
     9
100
AcDbCircle
 10
0.550325
 20
-81.074531
 30
0.0
 40
3.463436
100
AcDbArc
 50
234.842973
 51
267.969805
  0
LINE
  5
187
330
1F
100
AcDbEntity
  8
1
  6
________________
 62
     7
370
     9
100
AcDbLine
 10
15.3924860124
 20
-85.2479135988
 30
0.0
 11
-1.444525
 21
-84.807021
 31
0.0
  0
ARC
  5
188
330
1F
100
AcDbEntity
  8
1
  6
________________
 62
     7
370
     9
100
AcDbCircle
 10
13.536132
 20
-91.547925
 30
0.0
 40
6.567815
100
AcDbArc
 50
70.0073301282
 51
89.95982800000003
  0
LINE
  5
189
330
1F
100
AcDbEntity
  8
1
  6
________________
 62
     7
370
     9
100
AcDbLine
 10
34.767369
 20
-86.249986
 30
0.0
 11
32.471628
 21
-86.249986
 31
0.0
  0
ARC
  5
18A
330
1F
100
AcDbEntity
  8
1
  6
________________
 62
     7
370
     9
100
AcDbCircle
 10
34.767369
 20
-84.749986
 30
0.0
 40
1.5
100
AcDbArc
 50
270.0
 51
334.9999999999999
  0
LINE
  5
18B
330
1F
100
AcDbEntity
  8
1
  6
________________
 62
     7
370
     9
100
AcDbLine
 10
36.679385
 20
-84.198958
 30
0.0
 11
36.126831
 21
-85.383913
 31
0.0
  0
LINE
  5
18C
330
1F
100
AcDbEntity
  8
1
  6
________________
 62
     7
370
     9
100
AcDbLine
 10
113.4803545355
 20
-84.499986
 30
0.0
 11
103.122619
 21
-84.499986
 31
0.0
  0
ARC
  5
18D
330
1F
100
AcDbEntity
  8
1
  6
________________
 62
     7
370
     9
100
AcDbCircle
 10
103.122619
 20
-82.999986
 30
0.0
 40
1.5
100
AcDbArc
 50
195.0
 51
270.0
  0
ARC
  5
18E
330
1F
100
AcDbEntity
  8
1
  6
________________
 62
     7
370
     9
100
AcDbCircle
 10
39.398308
 20
-85.466813
 30
0.0
 40
3.0
100
AcDbArc
 50
91.0
 51
155.0
  0
LINE
  5
18F
330
1F
100
AcDbEntity
  8
1
  6
________________
 62
     7
370
     9
100
AcDbLine
 10
101.67373
 20
-83.388215
 30
0.0
 11
100.7805452481
 21
-80.0548001138
 31
0.0
  0
LINE
  5
190
330
1F
100
AcDbEntity
  8
1
  6
________________
 62
     7
370
     9
100
AcDbLine
 10
76.341469
 20
-81.82151
 30
0.0
 11
39.345951
 21
-82.46727
 31
0.0
  0
ARC
  5
191
330
1F
100
AcDbEntity
  8
1
  6
________________
 62
     7
370
     9
100
AcDbCircle
 10
76.315291
 20
-80.321739
 30
0.0
 40
1.5
100
AcDbArc
 50
271.0
 51
308.233292
  0
LINE
  5
192
330
1F
100
AcDbEntity
  8
1
  6
________________
 62
     7
370
     9
100
AcDbLine
 10
15.763775
 20
-85.812475
 30
0.0
 11
15.763775
 21
-85.375910377
 31
0.0
  0
ARC
  5
193
330
1F
100
AcDbEntity
  8
1
  6
________________
 62
     7
370
     9
100
AcDbCircle
 10
13.454359
 20
-50.61784
 30
0.0
 40
2.309431
100
AcDbArc
 50
272.225611
 51
0.1987159999999904
  0
LINE
  5
194
330
1F
100
AcDbEntity
  8
1
  6
________________
 62
     7
370
     9
100
AcDbLine
 10
0.431051
 20
-53.387367
 30
0.0
 11
13.544044
 21
-52.925529
 31
0.0
  0
LINE
  5
195
330
1F
100
AcDbEntity
  8
1
  6
________________
 62
     7
370
     9
100
AcDbLine
 10
13.544044
 20
-67.663288
 30
0.0
 11
0.431051
 21
-67.021848
 31
0.0
  0
ARC
  5
196
330
1F
100
AcDbEntity
  8
1
  6
________________
 62
     7
370
     9
100
AcDbCircle
 10
13.569061
 20
-69.894495
 30
0.0
 40
2.231347
100
AcDbArc
 50
11.841426
 51
90.6424
  0
LINE
  5
197
330
1F
100
AcDbEntity
  8
1
  6
________________
 62
     7
370
     9
100
AcDbLine
 10
15.763775
 20
-77.7918360996
 30
0.0
 11
15.763775
 21
-69.4366142523
 31
0.0
  0
ARC
  5
198
330
1F
100
AcDbEntity
  8
1
  6
________________
 62
     7
370
     9
100
AcDbCircle
 10
13.712081
 20
-76.240059
 30
0.0
 40
2.636998
100
AcDbArc
 50
266.346486
 51
314.394534
  0
LINE
  5
199
330
1F
100
AcDbEntity
  8
1
  6
________________
 62
     7
370
     9
100
AcDbLine
 10
0.431051
 20
-78.883397
 30
0.0
 11
13.544044
 21
-78.871698
 31
0.0
  0
ARC
  5
19A
330
1F
100
AcDbEntity
  8
1
  6
________________
 62
     7
370
     9
100
AcDbCircle
 10
0.616509
 20
-62.392086
 30
0.0
 40
4.633475
100
AcDbArc
 50
243.588575
 51
267.706088
  0
LINE
  5
19B
330
1F
100
AcDbEntity
  8
1
  6
________________
 62
     7
370
     9
100
AcDbLine
 10
-1.444525
 20
-53.4376
 30
0.0
 11
0.431051
 21
-53.387367
 31
0.0
  0
ARC
  5
19C
330
1F
100
AcDbEntity
  8
1
  6
________________
 62
     7
370
     9
100
AcDbCircle
 10
0.407271
 20
-74.48626
 30
0.0
 40
4.397201
100
AcDbArc
 50
245.094016
 51
270.3098600000001
  0
LINE
  5
19D
330
1F
100
AcDbEntity
  8
1
  6
________________
 62
     7
370
     9
100
AcDbLine
 10
98.3657304877
 20
-46.987806
 30
0.0
 11
98.3657304877
 21
-78.201847
 31
0.0
  0
LINE
  5
19E
330
1F
100
AcDbEntity
  8
1
  6
________________
 62
     7
370
     9
100
AcDbLine
 10
80.341647
 20
-78.201847
 30
0.0
 11
80.341647
 21
-46.788536
 31
0.0
  0
ARC
  5
19F
330
1F
100
AcDbEntity
  8
1
  6
________________
 62
     7
370
     9
100
AcDbCircle
 10
98.3657304877
 20
-80.701847
 30
0.0
 40
2.5
100
AcDbArc
 50
14.9999827614
 51
90.0
  0
ARC
  5
1A0
330
1F
100
AcDbEntity
  8
1
  6
________________
 62
     7
370
     9
100
AcDbCircle
 10
113.471628
 20
-83.456314
 30
0.0
 40
1.0
100
AcDbArc
 50
270.5000000000001
 51
0.0
  0
MTEXT
  5
1A1
330
1F
100
AcDbEntity
  8
1
 62
     7
100
AcDbMText
 10
32.46074363636364
 20
-98.07037227272727
 30
0.0
 40
5.0
 41
0.0
 46
0.0
 71
     1
 72
     1
  1
{\FＭＳ ゴシック;\W0.873966;MFK-54B}
 73
     1
 44
1.0
  0
ENDSEC
  0
SECTION
  2
OBJECTS
  0
DICTIONARY
  5
C
330
0
100
AcDbDictionary
281
     1
  3
ACAD_GROUP
350
D
  3
ACAD_LAYOUT
350
1A
  3
ACAD_MLEADERSTYLE
350
1A3
  3
ACAD_MLINESTYLE
350
17
  3
ACAD_PLOTSETTINGS
350
19
  3
ACAD_PLOTSTYLENAME
350
E
  3
ACAD_TABLESTYLE
350
1A2
  3
ACAD_VISUALSTYLE
350
2A
  0
DICTIONARY
  5
D
102
{ACAD_REACTORS
330
C
102
}
330
C
100
AcDbDictionary
281
     1
  0
DICTIONARY
  5
1A
102
{ACAD_REACTORS
330
C
102
}
330
C
100
AcDbDictionary
281
     1
  3
Layout1
350
1E
  3
Layout2
350
26
  3
Model
350
22
  0
DICTIONARY
  5
1A3
102
{ACAD_REACTORS
330
C
102
}
330
C
100
AcDbDictionary
281
     1
  0
DICTIONARY
  5
17
102
{ACAD_REACTORS
330
C
102
}
330
C
100
AcDbDictionary
281
     1
  3
Standard
350
18
  0
DICTIONARY
  5
19
102
{ACAD_REACTORS
330
C
102
}
330
C
100
AcDbDictionary
281
     1
  0
ACDBDICTIONARYWDFLT
  5
E
102
{ACAD_REACTORS
330
C
102
}
330
C
100
AcDbDictionary
281
     1
  3
Normal
350
F
100
AcDbDictionaryWithDefault
340
F
  0
DICTIONARY
  5
1A2
102
{ACAD_REACTORS
330
C
102
}
330
C
100
AcDbDictionary
281
     1
  0
DICTIONARY
  5
2A
102
{ACAD_REACTORS
330
C
102
}
330
C
100
AcDbDictionary
281
     1
  3
2dWireframe
350
2F
  3
3D Hidden
350
31
  3
3dWireframe
350
30
  3
Basic
350
32
  3
Brighten
350
36
  3
ColorChange
350
3A
  3
Conceptual
350
34
  3
Dim
350
35
  3
Facepattern
350
39
  3
Flat
350
2B
  3
FlatWithEdges
350
2C
  3
Gouraud
350
2D
  3
GouraudWithEdges
350
2E
  3
Linepattern
350
38
  3
Realistic
350
33
  3
Thicken
350
37
  0
LAYOUT
  5
1E
102
{ACAD_REACTORS
330
1A
102
}
330
1A
100
AcDbPlotSettings
  1

  2
none_device
  4

  6

 40
0.0
 41
0.0
 42
0.0
 43
0.0
 44
0.0
 45
0.0
 46
0.0
 47
0.0
 48
0.0
 49
0.0
140
0.0
141
0.0
142
1.0
143
1.0
 70
   688
 72
     0
 73
     0
 74
     5
  7

 75
    16
 76
     0
 77
     2
 78
   300
147
1.0
148
0.0
149
0.0
100
AcDbLayout
  1
Layout1
 70
     1
 71
     1
 10
0.0
 20
0.0
 11
12.0
 21
9.0
 12
0.0
 22
0.0
 32
0.0
 14
1.000000000000000E+20
 24
1.000000000000000E+20
 34
1.000000000000000E+20
 15
-1.000000000000000E+20
 25
-1.000000000000000E+20
 35
-1.000000000000000E+20
146
0.0
 13
0.0
 23
0.0
 33
0.0
 16
1.0
 26
0.0
 36
0.0
 17
0.0
 27
1.0
 37
0.0
 76
     0
330
1B
  0
LAYOUT
  5
26
102
{ACAD_REACTORS
330
1A
102
}
330
1A
100
AcDbPlotSettings
  1

  2
none_device
  4

  6

 40
0.0
 41
0.0
 42
0.0
 43
0.0
 44
0.0
 45
0.0
 46
0.0
 47
0.0
 48
0.0
 49
0.0
140
0.0
141
0.0
142
1.0
143
1.0
 70
   688
 72
     0
 73
     0
 74
     5
  7

 75
    16
 76
     0
 77
     2
 78
   300
147
1.0
148
0.0
149
0.0
100
AcDbLayout
  1
Layout2
 70
     1
 71
     2
 10
0.0
 20
0.0
 11
0.0
 21
0.0
 12
0.0
 22
0.0
 32
0.0
 14
0.0
 24
0.0
 34
0.0
 15
0.0
 25
0.0
 35
0.0
146
0.0
 13
0.0
 23
0.0
 33
0.0
 16
1.0
 26
0.0
 36
0.0
 17
0.0
 27
1.0
 37
0.0
 76
     0
330
23
  0
LAYOUT
  5
22
102
{ACAD_REACTORS
330
1A
102
}
330
1A
100
AcDbPlotSettings
  1

  2
none_device
  4

  6

 40
0.0
 41
0.0
 42
0.0
 43
0.0
 44
0.0
 45
0.0
 46
0.0
 47
0.0
 48
0.0
 49
0.0
140
0.0
141
0.0
142
1.0
143
1.0
 70
  1712
 72
     0
 73
     0
 74
     0
  7

 75
     0
 76
     0
 77
     2
 78
   300
147
1.0
148
0.0
149
0.0
100
AcDbLayout
  1
Model
 70
     1
 71
     0
 10
0.0
 20
0.0
 11
12.0
 21
9.0
 12
0.0
 22
0.0
 32
0.0
 14
-111.25
 24
-102.5021904545455
 34
0.0
 15
227.4387225814
 25
10.0
 35
10.0
146
0.0
 13
0.0
 23
0.0
 33
0.0
 16
1.0
 26
0.0
 36
0.0
 17
0.0
 27
1.0
 37
0.0
 76
     0
330
1F
331
29
  0
MLINESTYLE
  5
18
102
{ACAD_REACTORS
330
17
102
}
330
17
100
AcDbMlineStyle
  2
Standard
 70
     0
  3

 62
   256
 51
90.0
 52
90.0
 71
     2
 49
0.5
 62
   256
  6
BYLAYER
 49
-0.5
 62
   256
  6
BYLAYER
  0
ACDBPLACEHOLDER
  5
F
102
{ACAD_REACTORS
330
E
102
}
330
E
  0
VISUALSTYLE
  5
2F
102
{ACAD_REACTORS
330
2A
102
}
330
2A
100
AcDbVisualStyle
  2
2dWireframe
 70
     4
 71
     0
 72
     2
 73
     0
 90
        0
 40
-0.6
 41
-30.0
 62
     5
 63
     7
421
 16777215
 74
     1
 91
        4
 64
     7
 65
   257
 75
     1
175
     1
 42
1.0
 92
        0
 66
   257
 43
1.0
 76
     1
 77
     6
 78
     2
 67
     7
 79
     5
170
     0
171
     0
290
     0
174
     0
 93
        1
 44
0.0
173
     0
291
     0
 45
0.0
  0
VISUALSTYLE
  5
31
102
{ACAD_REACTORS
330
2A
102
}
330
2A
100
AcDbVisualStyle
  2
3D Hidden
 70
     6
 71
     1
 72
     2
 73
     2
 90
        0
 40
-0.6
 41
-30.0
 62
     5
 63
     7
421
 16777215
 74
     2
 91
        2
 64
     7
 65
   257
 75
     2
175
     1
 42
40.0
 92
        0
 66
   257
 43
1.0
 76
     1
 77
     6
 78
     2
 67
     7
 79
     3
170
     0
171
     0
290
     0
174
     0
 93
        1
 44
0.0
173
     0
291
     0
 45
0.0
  0
VISUALSTYLE
  5
30
102
{ACAD_REACTORS
330
2A
102
}
330
2A
100
AcDbVisualStyle
  2
3dWireframe
 70
     5
 71
     0
 72
     2
 73
     0
 90
        0
 40
-0.6
 41
-30.0
 62
     5
 63
     7
421
 16777215
 74
     1
 91
        4
 64
     7
 65
   257
 75
     1
175
     1
 42
1.0
 92
        0
 66
   257
 43
1.0
 76
     1
 77
     6
 78
     2
 67
     7
 79
     5
170
     0
171
     0
290
     0
174
     0
 93
        1
 44
0.0
173
     0
291
     0
 45
0.0
  0
VISUALSTYLE
  5
32
102
{ACAD_REACTORS
330
2A
102
}
330
2A
100
AcDbVisualStyle
  2
Basic
 70
     7
 71
     1
 72
     0
 73
     1
 90
        0
 40
-0.6
 41
-30.0
 62
     5
 63
     7
421
 16777215
 74
     0
 91
        4
 64
     7
 65
   257
 75
     1
175
     1
 42
1.0
 92
        8
 66
     7
 43
1.0
 76
     1
 77
     6
 78
     2
 67
     7
 79
     5
170
     0
171
     0
290
     0
174
     0
 93
        1
 44
0.0
173
     0
291
     1
 45
0.0
  0
VISUALSTYLE
  5
36
102
{ACAD_REACTORS
330
2A
102
}
330
2A
100
AcDbVisualStyle
  2
Brighten
 70
    12
 71
     2
 72
     2
 73
     0
 90
        0
 40
-0.6
 41
-30.0
 62
     5
 63
     7
421
 16777215
 74
     1
 91
        4
 64
     7
 65
   257
 75
     1
175
     1
 42
1.0
 92
        8
 66
     7
 43
1.0
 76
     1
 77
     6
 78
     2
 67
     7
 79
     5
170
     0
171
     0
290
     0
174
     0
 93
        1
 44
50.0
173
     0
291
     1
 45
0.0
  0
VISUALSTYLE
  5
3A
102
{ACAD_REACTORS
330
2A
102
}
330
2A
100
AcDbVisualStyle
  2
ColorChange
 70
    16
 71
     2
 72
     2
 73
     3
 90
        0
 40
-0.6
 41
-30.0
 62
     5
 63
     8
421
  8421504
 74
     1
 91
        4
 64
     7
 65
   257
 75
     1
175
     1
 42
1.0
 92
        8
 66
     8
424
  8421504
 43
1.0
 76
     1
 77
     6
 78
     2
 67
     7
 79
     5
170
     0
171
     0
290
     0
174
     0
 93
        1
 44
0.0
173
     0
291
     1
 45
0.0
  0
VISUALSTYLE
  5
34
102
{ACAD_REACTORS
330
2A
102
}
330
2A
100
AcDbVisualStyle
  2
Conceptual
 70
     9
 71
     3
 72
     2
 73
     0
 90
        0
 40
-0.6
 41
-30.0
 62
     5
 63
     7
421
 16777215
 74
     2
 91
        2
 64
     7
 65
   257
 75
     1
175
     1
 42
40.0
 92
        8
 66
     7
 43
1.0
 76
     1
 77
     6
 78
     2
 67
     7
 79
     3
170
     0
171
     0
290
     0
174
     0
 93
        1
 44
0.0
173
     0
291
     0
 45
0.0
  0
VISUALSTYLE
  5
35
102
{ACAD_REACTORS
330
2A
102
}
330
2A
100
AcDbVisualStyle
  2
Dim
 70
    11
 71
     2
 72
     2
 73
     0
 90
        0
 40
-0.6
 41
-30.0
 62
     5
 63
     7
421
 16777215
 74
     1
 91
        4
 64
     7
 65
   257
 75
     1
175
     1
 42
1.0
 92
        8
 66
     7
 43
1.0
 76
     1
 77
     6
 78
     2
 67
     7
 79
     5
170
     0
171
     0
290
     0
174
     0
 93
        1
 44
-50.0
173
     0
291
     1
 45
0.0
  0
VISUALSTYLE
  5
39
102
{ACAD_REACTORS
330
2A
102
}
330
2A
100
AcDbVisualStyle
  2
Facepattern
 70
    15
 71
     2
 72
     2
 73
     0
 90
        0
 40
-0.6
 41
-30.0
 62
     5
 63
     7
421
 16777215
 74
     1
 91
        4
 64
     7
 65
   257
 75
     1
175
     1
 42
1.0
 92
        8
 66
     7
 43
1.0
 76
     1
 77
     6
 78
     2
 67
     7
 79
     5
170
     0
171
     0
290
     0
174
     0
 93
        1
 44
0.0
173
     0
291
     1
 45
0.0
  0
VISUALSTYLE
  5
2B
102
{ACAD_REACTORS
330
2A
102
}
330
2A
100
AcDbVisualStyle
  2
Flat
 70
     0
 71
     2
 72
     1
 73
     1
 90
        2
 40
-0.6
 41
30.0
 62
     5
 63
     7
421
 16777215
 74
     0
 91
        4
 64
     7
 65
   257
 75
     1
175
     1
 42
1.0
 92
        8
 66
     7
 43
1.0
 76
     1
 77
     6
 78
     2
 67
     7
 79
     5
170
     0
171
     0
290
     0
174
     0
 93
       13
 44
0.0
173
     0
291
     1
 45
0.0
  0
VISUALSTYLE
  5
2C
102
{ACAD_REACTORS
330
2A
102
}
330
2A
100
AcDbVisualStyle
  2
FlatWithEdges
 70
     1
 71
     2
 72
     1
 73
     1
 90
        2
 40
-0.6
 41
30.0
 62
     5
 63
     7
421
 16777215
 74
     1
 91
        4
 64
     7
 65
   257
 75
     1
175
     1
 42
1.0
 92
        0
 66
   257
 43
1.0
 76
     1
 77
     6
 78
     2
 67
     7
 79
     5
170
     0
171
     0
290
     0
174
     0
 93
       13
 44
0.0
173
     0
291
     1
 45
0.0
  0
VISUALSTYLE
  5
2D
102
{ACAD_REACTORS
330
2A
102
}
330
2A
100
AcDbVisualStyle
  2
Gouraud
 70
     2
 71
     2
 72
     2
 73
     1
 90
        2
 40
-0.6
 41
30.0
 62
     5
 63
     7
421
 16777215
 74
     0
 91
        4
 64
     7
 65
   257
 75
     1
175
     1
 42
1.0
 92
        0
 66
     7
 43
1.0
 76
     1
 77
     6
 78
     2
 67
     7
 79
     5
170
     0
171
     0
290
     0
174
     0
 93
       13
 44
0.0
173
     0
291
     1
 45
0.0
  0
VISUALSTYLE
  5
2E
102
{ACAD_REACTORS
330
2A
102
}
330
2A
100
AcDbVisualStyle
  2
GouraudWithEdges
 70
     3
 71
     2
 72
     2
 73
     1
 90
        2
 40
-0.6
 41
30.0
 62
     5
 63
     7
421
 16777215
 74
     1
 91
        4
 64
     7
 65
   257
 75
     1
175
     1
 42
1.0
 92
        0
 66
   257
 43
1.0
 76
     1
 77
     6
 78
     2
 67
     7
 79
     5
170
     0
171
     0
290
     0
174
     0
 93
       13
 44
0.0
173
     0
291
     1
 45
0.0
  0
VISUALSTYLE
  5
38
102
{ACAD_REACTORS
330
2A
102
}
330
2A
100
AcDbVisualStyle
  2
Linepattern
 70
    14
 71
     2
 72
     2
 73
     0
 90
        0
 40
-0.6
 41
-30.0
 62
     5
 63
     7
421
 16777215
 74
     1
 91
        4
 64
     7
 65
   257
 75
     7
175
     7
 42
1.0
 92
        8
 66
     7
 43
1.0
 76
     1
 77
     6
 78
     2
 67
     7
 79
     5
170
     0
171
     0
290
     0
174
     0
 93
        1
 44
0.0
173
     0
291
     1
 45
0.0
  0
VISUALSTYLE
  5
33
102
{ACAD_REACTORS
330
2A
102
}
330
2A
100
AcDbVisualStyle
  2
Realistic
 70
     8
 71
     2
 72
     2
 73
     0
 90
        0
 40
-0.6
 41
-30.0
 62
     5
 63
     7
421
 16777215
 74
     1
 91
        0
 64
     7
 65
   257
 75
     1
175
     1
 42
1.0
 92
        8
 66
     8
424
  7895160
 43
1.0
 76
     1
 77
     6
 78
     2
 67
     7
 79
     5
170
     0
171
     0
290
     0
174
     0
 93
       13
 44
0.0
173
     0
291
     0
 45
0.0
  0
VISUALSTYLE
  5
37
102
{ACAD_REACTORS
330
2A
102
}
330
2A
100
AcDbVisualStyle
  2
Thicken
 70
    13
 71
     2
 72
     2
 73
     0
 90
        0
 40
-0.6
 41
-30.0
 62
     5
 63
     7
421
 16777215
 74
     1
 91
        4
 64
     7
 65
   257
 75
     1
175
     1
 42
1.0
 92
       12
 66
     7
 43
1.0
 76
     1
 77
     6
 78
     2
 67
     7
 79
     5
170
     0
171
     0
290
     0
174
     0
 93
        1
 44
0.0
173
     0
291
     1
 45
0.0
  0
ENDSEC
  0
EOF
