  0
SECTION
  2
HEADER
  9
$ACADVER
  1
AC1014
  9
$ACADMAINTVER
 70
     9
  9
$DWGCODEPAGE
  3
ANSI_932
  9
$INSBASE
 10
0.0
 20
0.0
 30
0.0
  9
$EXTMIN
 10
327.9999999999999
 20
79.71251094160309
 30
0.0
  9
$EXTMAX
 10
617.0
 20
152.0
 30
0.0
  9
$LIMMIN
 10
0.0
 20
0.0
  9
$LIMMAX
 10
12.0
 20
9.0
  9
$ORTHOMODE
 70
     0
  9
$REGENMODE
 70
     1
  9
$FILLMODE
 70
     1
  9
$QTEXTMODE
 70
     0
  9
$MIRRTEXT
 70
     1
  9
$DRAGMODE
 70
     2
  9
$LTSCALE
 40
1.0
  9
$OSMODE
 70
    37
  9
$ATTMODE
 70
     1
  9
$TEXTSIZE
 40
0.2
  9
$TRACEWID
 40
0.05
  9
$TEXTSTYLE
  7
STANDARD
  9
$CLAYER
  8
0
  9
$CELTYPE
  6
BYLAYER
  9
$CECOLOR
 62
   256
  9
$CELTSCALE
 40
1.0
  9
$DELOBJ
 70
     1
  9
$DISPSILH
 70
     0
  9
$DIMSCALE
 40
1.0
  9
$DIMASZ
 40
3.0
  9
$DIMEXO
 40
0.0625
  9
$DIMDLI
 40
0.38
  9
$DIMRND
 40
0.0
  9
$DIMDLE
 40
0.0
  9
$DIMEXE
 40
1.5
  9
$DIMTP
 40
0.0
  9
$DIMTM
 40
0.0
  9
$DIMTXT
 40
3.0
  9
$DIMCEN
 40
0.09
  9
$DIMTSZ
 40
0.0
  9
$DIMTOL
 70
     0
  9
$DIMLIM
 70
     0
  9
$DIMTIH
 70
     1
  9
$DIMTOH
 70
     1
  9
$DIMSE1
 70
     0
  9
$DIMSE2
 70
     0
  9
$DIMTAD
 70
     1
  9
$DIMZIN
 70
     0
  9
$DIMBLK
  1

  9
$DIMASO
 70
     1
  9
$DIMSHO
 70
     1
  9
$DIMPOST
  1

  9
$DIMAPOST
  1

  9
$DIMALT
 70
     0
  9
$DIMALTD
 70
     2
  9
$DIMALTF
 40
25.4
  9
$DIMLFAC
 40
1.0
  9
$DIMTOFL
 70
     0
  9
$DIMTVP
 40
0.0
  9
$DIMTIX
 70
     0
  9
$DIMSOXD
 70
     0
  9
$DIMSAH
 70
     0
  9
$DIMBLK1
  1

  9
$DIMBLK2
  1

  9
$DIMSTYLE
  2
STANDARD
  9
$DIMCLRD
 70
     0
  9
$DIMCLRE
 70
     0
  9
$DIMCLRT
 70
     0
  9
$DIMTFAC
 40
1.0
  9
$DIMGAP
 40
1.5
  9
$DIMJUST
 70
     0
  9
$DIMSD1
 70
     0
  9
$DIMSD2
 70
     0
  9
$DIMTOLJ
 70
     1
  9
$DIMTZIN
 70
     0
  9
$DIMALTZ
 70
     0
  9
$DIMALTTZ
 70
     0
  9
$DIMFIT
 70
     3
  9
$DIMUPT
 70
     0
  9
$DIMUNIT
 70
     2
  9
$DIMDEC
 70
     2
  9
$DIMTDEC
 70
     4
  9
$DIMALTU
 70
     2
  9
$DIMALTTD
 70
     2
  9
$DIMTXSTY
  7
ＭＳ_ゴシック
  9
$DIMAUNIT
 70
     0
  9
$LUNITS
 70
     2
  9
$LUPREC
 70
     4
  9
$SKETCHINC
 40
0.1
  9
$FILLETRAD
 40
0.5
  9
$AUNITS
 70
     0
  9
$AUPREC
 70
     0
  9
$MENU
  1
.
  9
$ELEVATION
 40
0.0
  9
$PELEVATION
 40
0.0
  9
$THICKNESS
 40
0.0
  9
$LIMCHECK
 70
     0
  9
$CHAMFERA
 40
0.0
  9
$CHAMFERB
 40
0.0
  9
$CHAMFERC
 40
0.0
  9
$CHAMFERD
 40
0.0
  9
$SKPOLY
 70
     0
  9
$TDCREATE
 40
2459348.645305868
  9
$TDUPDATE
 40
2459348.645306053
  9
$TDINDWG
 40
0.0000000116
  9
$TDUSRTIMER
 40
0.0000000116
  9
$USRTIMER
 70
     1
  9
$ANGBASE
 50
0.0
  9
$ANGDIR
 70
     0
  9
$PDMODE
 70
     0
  9
$PDSIZE
 40
0.0
  9
$PLINEWID
 40
0.0
  9
$COORDS
 70
     1
  9
$SPLFRAME
 70
     0
  9
$SPLINETYPE
 70
     6
  9
$SPLINESEGS
 70
     8
  9
$ATTDIA
 70
     0
  9
$ATTREQ
 70
     1
  9
$HANDLING
 70
     1
  9
$HANDSEED
  5
23A
  9
$SURFTAB1
 70
     6
  9
$SURFTAB2
 70
     6
  9
$SURFTYPE
 70
     6
  9
$SURFU
 70
     6
  9
$SURFV
 70
     6
  9
$UCSNAME
  2

  9
$UCSORG
 10
0.0
 20
0.0
 30
0.0
  9
$UCSXDIR
 10
1.0
 20
0.0
 30
0.0
  9
$UCSYDIR
 10
0.0
 20
1.0
 30
0.0
  9
$PUCSNAME
  2

  9
$PUCSORG
 10
0.0
 20
0.0
 30
0.0
  9
$PUCSXDIR
 10
1.0
 20
0.0
 30
0.0
  9
$PUCSYDIR
 10
0.0
 20
1.0
 30
0.0
  9
$USERI1
 70
     0
  9
$USERI2
 70
     0
  9
$USERI3
 70
     0
  9
$USERI4
 70
     0
  9
$USERI5
 70
     0
  9
$USERR1
 40
0.0
  9
$USERR2
 40
0.0
  9
$USERR3
 40
0.0
  9
$USERR4
 40
0.0
  9
$USERR5
 40
0.0
  9
$WORLDVIEW
 70
     1
  9
$SHADEDGE
 70
     3
  9
$SHADEDIF
 70
    70
  9
$TILEMODE
 70
     1
  9
$MAXACTVP
 70
    64
  9
$PINSBASE
 10
0.0
 20
0.0
 30
0.0
  9
$PLIMCHECK
 70
     0
  9
$PEXTMIN
 10
1.000000000000000E+20
 20
1.000000000000000E+20
 30
1.000000000000000E+20
  9
$PEXTMAX
 10
-1.000000000000000E+20
 20
-1.000000000000000E+20
 30
-1.000000000000000E+20
  9
$PLIMMIN
 10
0.0
 20
0.0
  9
$PLIMMAX
 10
12.0
 20
9.0
  9
$UNITMODE
 70
     0
  9
$VISRETAIN
 70
     1
  9
$PLINEGEN
 70
     0
  9
$PSLTSCALE
 70
     1
  9
$TREEDEPTH
 70
  3020
  9
$PICKSTYLE
 70
     1
  9
$CMLSTYLE
  2
STANDARD
  9
$CMLJUST
 70
     0
  9
$CMLSCALE
 40
1.0
  9
$PROXYGRAPHICS
 70
     1
  9
$MEASUREMENT
 70
     1
  0
ENDSEC
  0
SECTION
  2
CLASSES
  0
CLASS
  1
ACDBDICTIONARYWDFLT
  2
AcDbDictionaryWithDefault
  3
ObjectDBX Classes
 90
        0
280
     0
281
     0
  0
CLASS
  1
VISUALSTYLE
  2
AcDbVisualStyle
  3
ObjectDBX Classes
 90
     4095
280
     0
281
     0
  0
CLASS
  1
MATERIAL
  2
AcDbMaterial
  3
ObjectDBX Classes
 90
     1153
280
     0
281
     0
  0
CLASS
  1
SCALE
  2
AcDbScale
  3
ObjectDBX Classes
 90
     1153
280
     0
281
     0
  0
CLASS
  1
TABLESTYLE
  2
AcDbTableStyle
  3
ObjectDBX Classes
 90
     4095
280
     0
281
     0
  0
CLASS
  1
MLEADERSTYLE
  2
AcDbMLeaderStyle
  3
ACDB_MLEADERSTYLE_CLASS
 90
     4095
280
     0
281
     0
  0
CLASS
  1
SUN
  2
AcDbSun
  3
SCENEOE
 90
     1153
280
     0
281
     0
  0
CLASS
  1
DICTIONARYVAR
  2
AcDbDictionaryVar
  3
ObjectDBX Classes
 90
        0
280
     0
281
     0
  0
CLASS
  1
XRECORD
  2
AcDbXrecord
  3
ObjectDBX Classes
 90
        0
280
     0
281
     0
  0
CLASS
  1
LWPOLYLINE
  2
AcDbPolyline
  3
ObjectDBX Classes
 90
        0
280
     0
281
     1
  0
CLASS
  1
HATCH
  2
AcDbHatch
  3
ObjectDBX Classes
 90
        0
280
     0
281
     1
  0
CLASS
  1
ACDBPLACEHOLDER
  2
AcDbPlaceHolder
  3
ObjectDBX Classes
 90
        0
280
     0
281
     0
  0
CLASS
  1
LAYOUT
  2
AcDbLayout
  3
ObjectDBX Classes
 90
        0
280
     0
281
     0
  0
ENDSEC
  0
SECTION
  2
TABLES
  0
TABLE
  2
VPORT
  5
8
102
{ACAD_XDICTIONARY
360
22F
102
}
330
0
100
AcDbSymbolTable
 70
     1
  0
VPORT
  5
29
330
8
100
AcDbSymbolTableRecord
100
AcDbViewportTableRecord
  2
*ACTIVE
 70
     0
 10
0.0
 20
0.0
 11
1.0
 21
1.0
 12
472.4999999999999
 22
115.8562554708015
 13
0.0
 23
0.0
 14
0.5
 24
0.5
 15
0.5
 25
0.5
 16
0.0
 26
0.0
 36
1.0
 17
0.0
 27
0.0
 37
0.0
 40
72.28748905839691
 41
1.6
 42
50.0
 43
0.0
 44
0.0
 50
0.0
 51
0.0
 71
     0
 72
   100
 73
     1
 74
     3
 75
     0
 76
     0
 77
     0
 78
     0
  0
ENDTAB
  0
TABLE
  2
LTYPE
  5
5
330
0
100
AcDbSymbolTable
 70
     2
  0
LTYPE
  5
14
330
5
100
AcDbSymbolTableRecord
100
AcDbLinetypeTableRecord
  2
BYBLOCK
 70
     0
  3

 72
    65
 73
     0
 40
0.0
  0
LTYPE
  5
15
330
5
100
AcDbSymbolTableRecord
100
AcDbLinetypeTableRecord
  2
BYLAYER
 70
     0
  3

 72
    65
 73
     0
 40
0.0
  0
LTYPE
  5
16
330
5
100
AcDbSymbolTableRecord
100
AcDbLinetypeTableRecord
  2
CONTINUOUS
 70
     0
  3
Solid line
 72
    65
 73
     0
 40
0.0
  0
LTYPE
  5
202
330
5
100
AcDbSymbolTableRecord
100
AcDbLinetypeTableRecord
  2
CENTER
 70
     0
  3

 72
    65
 73
     0
 40
0.0
  0
ENDTAB
  0
TABLE
  2
LAYER
  5
2
330
0
100
AcDbSymbolTable
 70
     1
  0
LAYER
  5
10
330
2
100
AcDbSymbolTableRecord
100
AcDbLayerTableRecord
  2
0
 70
     0
 62
     7
  6
CONTINUOUS
  0
ENDTAB
  0
TABLE
  2
STYLE
  5
3
330
0
100
AcDbSymbolTable
 70
     2
  0
STYLE
  5
11
330
3
100
AcDbSymbolTableRecord
100
AcDbTextStyleTableRecord
  2
STANDARD
 70
     0
 40
0.0
 41
1.0
 50
0.0
 71
     0
 42
0.2
  3
txt
  4

  0
STYLE
  5
6E
330
3
100
AcDbSymbolTableRecord
100
AcDbTextStyleTableRecord
  2
ＭＳ_ゴシック
 70
     0
 40
0.0
 41
1.0
 50
0.0
 71
     0
 42
0.2
  3
ＭＳ ゴシック.shx
  4

  0
ENDTAB
  0
TABLE
  2
VIEW
  5
6
330
0
100
AcDbSymbolTable
 70
     0
  0
ENDTAB
  0
TABLE
  2
UCS
  5
7
330
0
100
AcDbSymbolTable
 70
     0
  0
ENDTAB
  0
TABLE
  2
APPID
  5
9
330
0
100
AcDbSymbolTable
 70
     2
  0
APPID
  5
12
330
9
100
AcDbSymbolTableRecord
100
AcDbRegAppTableRecord
  2
ACAD
 70
     0
  0
APPID
  5
239
330
9
100
AcDbSymbolTableRecord
100
AcDbRegAppTableRecord
  2
ACAD_MLEADERVER
 70
     0
  0
ENDTAB
  0
TABLE
  2
DIMSTYLE
  5
A
330
0
100
AcDbSymbolTable
 70
     1
  0
DIMSTYLE
105
27
330
A
100
AcDbSymbolTableRecord
100
AcDbDimStyleTableRecord
  2
STANDARD
 70
     0
  3

  4

  5

  6

  7

 40
1.0
 41
0.18
 42
0.0625
 43
0.38
 44
0.18
 45
0.0
 46
0.0
 47
0.0
 48
0.0
140
0.18
141
0.09
142
0.0
143
25.4
144
1.0
145
0.0
146
1.0
147
0.09
 71
     0
 72
     0
 73
     1
 74
     1
 75
     0
 76
     0
 77
     0
 78
     0
170
     0
171
     2
172
     0
173
     0
174
     0
175
     0
176
     0
177
     0
178
     0
270
     2
271
     4
272
     4
273
     2
274
     2
340
11
275
     0
280
     0
281
     0
282
     0
283
     1
284
     0
285
     0
286
     0
287
     3
288
     0
  0
ENDTAB
  0
TABLE
  2
BLOCK_RECORD
  5
1
330
0
100
AcDbSymbolTable
 70
     0
  0
BLOCK_RECORD
  5
1F
330
1
100
AcDbSymbolTableRecord
100
AcDbBlockTableRecord
  2
*MODEL_SPACE
  0
BLOCK_RECORD
  5
1B
330
1
100
AcDbSymbolTableRecord
100
AcDbBlockTableRecord
  2
*PAPER_SPACE
  0
ENDTAB
  0
ENDSEC
  0
SECTION
  2
BLOCKS
  0
BLOCK
  5
20
330
1F
100
AcDbEntity
  8
0
100
AcDbBlockBegin
  2
*MODEL_SPACE
 70
     0
 10
0.0
 20
0.0
 30
0.0
  3
*MODEL_SPACE
  1

  0
ENDBLK
  5
21
330
1F
100
AcDbEntity
  8
0
100
AcDbBlockEnd
  0
BLOCK
  5
1C
330
1B
100
AcDbEntity
 67
     1
  8
0
100
AcDbBlockBegin
  2
*PAPER_SPACE
 70
     0
 10
0.0
 20
0.0
 30
0.0
  3
*PAPER_SPACE
  1

  0
ENDBLK
  5
1D
330
1B
100
AcDbEntity
 67
     1
  8
0
100
AcDbBlockEnd
  0
ENDSEC
  0
SECTION
  2
ENTITIES
  0
POINT
  5
6F
330
1F
100
AcDbEntity
  8
0
 62
     1
100
AcDbPoint
 10
475.0
 20
125.0
 30
0.0
  0
CIRCLE
  5
70
330
1F
100
AcDbEntity
  8
0
  6
CONTINUOUS
 62
     7
100
AcDbCircle
 10
355.0
 20
125.0
 30
0.0
 40
20.85000000000001
  0
CIRCLE
  5
71
330
1F
100
AcDbEntity
  8
0
  6
CONTINUOUS
 62
     7
100
AcDbCircle
 10
355.0
 20
125.0
 30
0.0
 40
24.99999999999999
  0
CIRCLE
  5
72
330
1F
100
AcDbEntity
  8
0
  6
CONTINUOUS
 62
     7
100
AcDbCircle
 10
355.0
 20
125.0
 30
0.0
 40
14.00000000000001
  0
CIRCLE
  5
73
330
1F
100
AcDbEntity
  8
0
  6
CONTINUOUS
 62
     7
100
AcDbCircle
 10
355.0
 20
125.0
 30
0.0
 40
11.00000000000001
  0
CIRCLE
  5
74
330
1F
100
AcDbEntity
  8
0
  6
CONTINUOUS
 62
     7
100
AcDbCircle
 10
590.0
 20
125.0
 30
0.0
 40
24.99999999999999
  0
LINE
  5
75
330
1F
100
AcDbEntity
  8
0
  6
CONTINUOUS
 62
     7
100
AcDbLine
 10
595.1917405084537
 20
139.419391276419
 30
0.0
 11
595.3794674826386
 21
139.8511421105194
 31
0.0
  0
LINE
  5
76
330
1F
100
AcDbEntity
  8
0
  6
CONTINUOUS
 62
     7
100
AcDbLine
 10
594.5224373523394
 20
137.930018262544
 30
0.0
 11
595.1917405084537
 21
139.419391276419
 31
0.0
  0
LINE
  5
77
330
1F
100
AcDbEntity
  8
0
  6
CONTINUOUS
 62
     7
100
AcDbLine
 10
597.3351448237173
 20
138.4561757087468
 30
0.0
 11
597.5054976957675
 21
138.8263555674212
 31
0.0
  0
LINE
  5
78
330
1F
100
AcDbEntity
  8
0
  6
CONTINUOUS
 62
     7
100
AcDbLine
 10
597.5054976957675
 20
138.8263555674212
 30
0.0
 11
597.5333476966509
 21
138.8832188221955
 31
0.0
  0
LINE
  5
79
330
1F
100
AcDbEntity
  8
0
  6
CONTINUOUS
 62
     7
100
AcDbLine
 10
596.665841667603
 20
136.9668026948719
 30
0.0
 11
597.3351448237173
 21
138.4561757087468
 31
0.0
  0
LINE
  5
7A
330
1F
100
AcDbEntity
  8
0
  6
CONTINUOUS
 62
     7
100
AcDbLine
 10
584.90828255496
 20
139.4550139311399
 30
0.0
 11
584.7471736290597
 21
139.8293094598057
 31
0.0
  0
LINE
  5
7B
330
1F
100
AcDbEntity
  8
0
  6
CONTINUOUS
 62
     7
100
AcDbLine
 10
584.7471736290597
 20
139.8293094598057
 30
0.0
 11
584.7235512834924
 21
139.8880549879983
 31
0.0
  0
LINE
  5
7C
330
1F
100
AcDbEntity
  8
0
  6
CONTINUOUS
 62
     7
100
AcDbLine
 10
585.5672511767381
 20
137.9610396861291
 30
0.0
 11
584.90828255496
 21
139.4550139311399
 31
0.0
  0
LINE
  5
7D
330
1F
100
AcDbEntity
  8
0
  6
CONTINUOUS
 62
     7
100
AcDbLine
 10
582.7582564608805
 20
138.5066711221965
 30
0.0
 11
582.563016926689
 21
138.9350771490819
 31
0.0
  0
LINE
  5
7E
330
1F
100
AcDbEntity
  8
0
  6
CONTINUOUS
 62
     7
100
AcDbLine
 10
583.4172250826587
 20
137.0126968771857
 30
0.0
 11
582.7582564608805
 21
138.5066711221965
 31
0.0
  0
LINE
  5
7F
330
1F
100
AcDbEntity
  8
0
  6
CONTINUOUS
 62
     7
100
AcDbLine
 10
600.6077857617212
 20
136.0610982964157
 30
0.0
 11
600.9548917711722
 21
136.3791668704467
 31
0.0
  0
LINE
  5
80
330
1F
100
AcDbEntity
  8
0
  6
CONTINUOUS
 62
     7
100
AcDbLine
 10
599.3905643237157
 20
134.9727184637728
 30
0.0
 11
600.6077857617212
 21
136.0610982964157
 31
0.0
  0
LINE
  5
81
330
1F
100
AcDbEntity
  8
0
  6
CONTINUOUS
 62
     7
100
AcDbLine
 10
602.1741079712684
 20
134.3093560138936
 30
0.0
 11
602.480298776778
 21
134.5782433869803
 31
0.0
  0
LINE
  5
82
330
1F
100
AcDbEntity
  8
0
  6
CONTINUOUS
 62
     7
100
AcDbLine
 10
602.480298776778
 20
134.5782433869803
 30
0.0
 11
602.5288693879417
 21
134.6188629392171
 31
0.0
  0
LINE
  5
83
330
1F
100
AcDbEntity
  8
0
  6
CONTINUOUS
 62
     7
100
AcDbLine
 10
600.9568865332632
 20
133.2209761812507
 30
0.0
 11
602.1741079712684
 21
134.3093560138936
 31
0.0
  0
LINE
  5
84
330
1F
100
AcDbEntity
  8
0
  6
CONTINUOUS
 62
     7
100
AcDbLine
 10
579.4691008145214
 20
136.1343242558676
 30
0.0
 11
579.1696807802316
 21
136.410731332206
 31
0.0
  0
LINE
  5
85
330
1F
100
AcDbEntity
  8
0
  6
CONTINUOUS
 62
     7
100
AcDbLine
 10
579.1696807802316
 20
136.410731332206
 30
0.0
 11
579.1242067348068
 21
136.4547899691055
 31
0.0
  0
LINE
  5
86
330
1F
100
AcDbEntity
  8
0
  6
CONTINUOUS
 62
     7
100
AcDbLine
 10
580.6787526749332
 20
135.0375375556173
 30
0.0
 11
579.4691008145214
 21
136.1343242558676
 31
0.0
  0
LINE
  5
87
330
1F
100
AcDbEntity
  8
0
  6
CONTINUOUS
 62
     7
100
AcDbLine
 10
577.8906800130568
 20
134.3934755944381
 30
0.0
 11
577.5380713941947
 21
134.7054329015933
 31
0.0
  0
LINE
  5
88
330
1F
100
AcDbEntity
  8
0
  6
CONTINUOUS
 62
     7
100
AcDbLine
 10
579.1003318734686
 20
133.2966888941878
 30
0.0
 11
577.8906800130568
 21
134.3934755944381
 31
0.0
  0
LINE
  5
89
330
1F
100
AcDbEntity
  8
0
  6
CONTINUOUS
 62
     7
100
AcDbLine
 10
604.1896484880789
 20
130.7902409340401
 30
0.0
 11
604.6361157504028
 21
130.9396303019892
 31
0.0
  0
LINE
  5
8A
330
1F
100
AcDbEntity
  8
0
  6
CONTINUOUS
 62
     7
100
AcDbLine
 10
602.6349774129233
 20
130.2910450433135
 30
0.0
 11
604.1896484880789
 21
130.7902409340401
 31
0.0
  0
LINE
  5
8B
330
1F
100
AcDbEntity
  8
0
  6
CONTINUOUS
 62
     7
100
AcDbLine
 10
603.353386177133
 20
128.0536682006687
 30
0.0
 11
604.9080572522886
 21
128.5528640913952
 31
0.0
  0
LINE
  5
8C
330
1F
100
AcDbEntity
  8
0
  6
CONTINUOUS
 62
     7
100
AcDbLine
 10
604.9080572522886
 20
128.5528640913952
 30
0.0
 11
605.2971428193287
 21
128.6739659093223
 31
0.0
  0
LINE
  5
8D
330
1F
100
AcDbEntity
  8
0
  6
CONTINUOUS
 62
     7
100
AcDbLine
 10
605.2971428193287
 20
128.6739659093223
 30
0.0
 11
605.3580357408523
 21
128.6913182694229
 31
0.0
  0
LINE
  5
8E
330
1F
100
AcDbEntity
  8
0
  6
CONTINUOUS
 62
     7
100
AcDbLine
 10
575.8508072134679
 20
130.8884087645968
 30
0.0
 11
575.4648485148626
 21
131.0191340940292
 31
0.0
  0
LINE
  5
8F
330
1F
100
AcDbEntity
  8
0
  6
CONTINUOUS
 62
     7
100
AcDbLine
 10
575.4648485148626
 20
131.0191340940292
 30
0.0
 11
575.4053856451532
 21
131.0408877010555
 31
0.0
  0
LINE
  5
90
330
1F
100
AcDbEntity
  8
0
  6
CONTINUOUS
 62
     7
100
AcDbLine
 10
577.401982516506
 20
130.3784539935746
 30
0.0
 11
575.8508072134679
 21
130.8884087645968
 31
0.0
  0
LINE
  5
91
330
1F
100
AcDbEntity
  8
0
  6
CONTINUOUS
 62
     7
100
AcDbLine
 10
575.116915000694
 20
128.656062799356
 30
0.0
 11
574.6679065307115
 21
128.7976311343303
 31
0.0
  0
LINE
  5
92
330
1F
100
AcDbEntity
  8
0
  6
CONTINUOUS
 62
     7
100
AcDbLine
 10
576.6680903037322
 20
128.1461080283338
 30
0.0
 11
575.116915000694
 21
128.656062799356
 31
0.0
  0
LINE
  5
93
330
1F
100
AcDbEntity
  8
0
  6
CONTINUOUS
 62
     7
100
AcDbLine
 10
605.3179920819382
 20
124.5181983114827
 30
0.0
 11
605.7866223514517
 21
124.4730776944717
 31
0.0
  0
LINE
  5
94
330
1F
100
AcDbEntity
  8
0
  6
CONTINUOUS
 62
     7
100
AcDbLine
 10
603.6946881222701
 20
124.6945018672314
 30
0.0
 11
605.3179920819382
 21
124.5181983114827
 31
0.0
  0
LINE
  5
95
330
1F
100
AcDbEntity
  8
0
  6
CONTINUOUS
 62
     7
100
AcDbLine
 10
603.4409640392718
 20
122.3583532464876
 30
0.0
 11
605.0642679989397
 21
122.1820496907389
 31
0.0
  0
LINE
  5
96
330
1F
100
AcDbEntity
  8
0
  6
CONTINUOUS
 62
     7
100
AcDbLine
 10
605.0642679989397
 20
122.1820496907389
 30
0.0
 11
605.4689718982378
 21
122.1344263490112
 31
0.0
  0
LINE
  5
97
330
1F
100
AcDbEntity
  8
0
  6
CONTINUOUS
 62
     7
100
AcDbLine
 10
605.4689718982378
 20
122.1344263490112
 30
0.0
 11
605.5316581907952
 21
122.1255111362728
 31
0.0
  0
LINE
  5
98
330
1F
100
AcDbEntity
  8
0
  6
CONTINUOUS
 62
     7
100
AcDbLine
 10
574.679037586587
 20
124.6243339034142
 30
0.0
 11
574.27327598898
 21
124.5867738888795
 31
0.0
  0
LINE
  5
99
330
1F
100
AcDbEntity
  8
0
  6
CONTINUOUS
 62
     7
100
AcDbLine
 10
574.27327598898
 20
124.5867738888795
 30
0.0
 11
574.2101059653617
 21
124.5824610697524
 31
0.0
  0
LINE
  5
9A
330
1F
100
AcDbEntity
  8
0
  6
CONTINUOUS
 62
     7
100
AcDbLine
 10
576.3035240303709
 20
124.7893868743235
 30
0.0
 11
574.679037586587
 21
124.6243339034142
 31
0.0
  0
LINE
  5
9B
330
1F
100
AcDbEntity
  8
0
  6
CONTINUOUS
 62
     7
100
AcDbLine
 10
574.9165705932941
 20
122.2864835319786
 30
0.0
 11
574.4487999157648
 21
122.2331844435471
 31
0.0
  0
LINE
  5
9C
330
1F
100
AcDbEntity
  8
0
  6
CONTINUOUS
 62
     7
100
AcDbLine
 10
576.541057037078
 20
122.4515365028879
 30
0.0
 11
574.9165705932941
 21
122.2864835319786
 31
0.0
  0
LINE
  5
9D
330
1F
100
AcDbEntity
  8
0
  6
CONTINUOUS
 62
     7
100
AcDbLine
 10
603.7977156852413
 20
118.3294635779022
 30
0.0
 11
604.2074785309729
 21
118.0976347405201
 31
0.0
  0
LINE
  5
9E
330
1F
100
AcDbEntity
  8
0
  6
CONTINUOUS
 62
     7
100
AcDbLine
 10
602.3864628429408
 20
119.1507820936697
 30
0.0
 11
603.7977156852413
 21
118.3294635779022
 31
0.0
  0
LINE
  5
9F
330
1F
100
AcDbEntity
  8
0
  6
CONTINUOUS
 62
     7
100
AcDbLine
 10
601.2044771116955
 20
117.1198030145974
 30
0.0
 11
602.615729953996
 21
116.2984844988299
 31
0.0
  0
LINE
  5
A0
330
1F
100
AcDbEntity
  8
0
  6
CONTINUOUS
 62
     7
100
AcDbLine
 10
602.615729953996
 20
116.2984844988299
 30
0.0
 11
603.0022451659685
 21
116.0678807042903
 31
0.0
  0
LINE
  5
A1
330
1F
100
AcDbEntity
  8
0
  6
CONTINUOUS
 62
     7
100
AcDbLine
 10
603.0022451659685
 20
116.0678807042903
 30
0.0
 11
603.0197158388646
 21
116.0567292415738
 31
0.0
  0
LINE
  5
A2
330
1F
100
AcDbEntity
  8
0
  6
CONTINUOUS
 62
     7
100
AcDbLine
 10
576.1564015475593
 20
118.4252151231519
 30
0.0
 11
575.8009969174052
 21
118.225864232385
 31
0.0
  0
LINE
  5
A3
330
1F
100
AcDbEntity
  8
0
  6
CONTINUOUS
 62
     7
100
AcDbLine
 10
575.8009969174052
 20
118.225864232385
 30
0.0
 11
575.7450424108433
 21
118.1962307127123
 31
0.0
  0
LINE
  5
A4
330
1F
100
AcDbEntity
  8
0
  6
CONTINUOUS
 62
     7
100
AcDbLine
 10
577.5733106679627
 20
119.2367366778634
 30
0.0
 11
576.1564015475593
 21
118.4252151231519
 31
0.0
  0
LINE
  5
A5
330
1F
100
AcDbEntity
  8
0
  6
CONTINUOUS
 62
     7
100
AcDbLine
 10
577.324288158968
 20
116.3860959134466
 30
0.0
 11
576.9186370736
 21
116.147145298206
 31
0.0
  0
LINE
  5
A6
330
1F
100
AcDbEntity
  8
0
  6
CONTINUOUS
 62
     7
100
AcDbLine
 10
578.7411972793715
 20
117.1976174681581
 30
0.0
 11
577.324288158968
 21
116.3860959134466
 31
0.0
  0
LINE
  5
A7
330
1F
100
AcDbEntity
  8
0
  6
CONTINUOUS
 62
     7
100
AcDbLine
 10
599.8916888982544
 20
113.2941251916246
 30
0.0
 11
600.1717326015985
 21
112.9156734459534
 31
0.0
  0
LINE
  5
A8
330
1F
100
AcDbEntity
  8
0
  6
CONTINUOUS
 62
     7
100
AcDbLine
 10
598.9365056105848
 20
114.6184452345902
 30
0.0
 11
599.8916888982544
 21
113.2941251916246
 31
0.0
  0
LINE
  5
A9
330
1F
100
AcDbEntity
  8
0
  6
CONTINUOUS
 62
     7
100
AcDbLine
 10
597.0306343020283
 20
113.2438104308268
 30
0.0
 11
597.9858175896978
 21
111.9194903878612
 31
0.0
  0
LINE
  5
AA
330
1F
100
AcDbEntity
  8
0
  6
CONTINUOUS
 62
     7
100
AcDbLine
 10
597.9858175896978
 20
111.9194903878612
 30
0.0
 11
598.2451217926338
 21
111.5516134390288
 31
0.0
  0
LINE
  5
AB
330
1F
100
AcDbEntity
  8
0
  6
CONTINUOUS
 62
     7
100
AcDbLine
 10
598.2451217926338
 20
111.5516134390288
 30
0.0
 11
598.2565463379893
 21
111.5343201080721
 31
0.0
  0
LINE
  5
AC
330
1F
100
AcDbEntity
  8
0
  6
CONTINUOUS
 62
     7
100
AcDbLine
 10
580.9917847839923
 20
114.6806070674055
 30
0.0
 11
580.0274494461024
 21
113.3629363781435
 31
0.0
  0
LINE
  5
AD
330
1F
100
AcDbEntity
  8
0
  6
CONTINUOUS
 62
     7
100
AcDbLine
 10
580.0274494461024
 20
113.3629363781435
 30
0.0
 11
579.7656188860401
 21
113.0127312955972
 31
0.0
  0
LINE
  5
AE
330
1F
100
AcDbEntity
  8
0
  6
CONTINUOUS
 62
     7
100
AcDbLine
 10
579.7656188860401
 20
113.0127312955972
 30
0.0
 11
579.7447905257144
 21
112.9864338757489
 31
0.0
  0
LINE
  5
AF
330
1F
100
AcDbEntity
  8
0
  6
CONTINUOUS
 62
     7
100
AcDbLine
 10
581.9237514571834
 20
111.975130566343
 30
0.0
 11
581.6503607218613
 21
111.5918451564663
 31
0.0
  0
LINE
  5
B0
330
1F
100
AcDbEntity
  8
0
  6
CONTINUOUS
 62
     7
100
AcDbLine
 10
582.8880867950733
 20
113.292801255605
 30
0.0
 11
581.9237514571834
 21
111.975130566343
 31
0.0
  0
LINE
  5
B1
330
1F
100
AcDbEntity
  8
0
  6
CONTINUOUS
 62
     7
100
AcDbLine
 10
594.2752992375869
 20
110.2828389042505
 30
0.0
 11
594.3772016981181
 21
109.8232019952429
 31
0.0
  0
LINE
  5
B2
330
1F
100
AcDbEntity
  8
0
  6
CONTINUOUS
 62
     7
100
AcDbLine
 10
593.9413453725541
 20
111.8811735079156
 30
0.0
 11
594.2752992375869
 21
110.2828389042505
 31
0.0
  0
LINE
  5
B3
330
1F
100
AcDbEntity
  8
0
  6
CONTINUOUS
 62
     7
100
AcDbLine
 10
591.6411309502331
 20
111.4005698251969
 30
0.0
 11
591.9750848152659
 21
109.8022352215317
 31
0.0
  0
LINE
  5
B4
330
1F
100
AcDbEntity
  8
0
  6
CONTINUOUS
 62
     7
100
AcDbLine
 10
591.9750848152659
 20
109.8022352215317
 30
0.0
 11
592.0623419567728
 21
109.3606943849168
 31
0.0
  0
LINE
  5
B5
330
1F
100
AcDbEntity
  8
0
  6
CONTINUOUS
 62
     7
100
AcDbLine
 10
592.0623419567728
 20
109.3606943849168
 30
0.0
 11
592.0657449669071
 21
109.3402493597472
 31
0.0
  0
LINE
  5
B6
330
1F
100
AcDbEntity
  8
0
  6
CONTINUOUS
 62
     7
100
AcDbLine
 10
585.967861147936
 20
111.9087942437362
 30
0.0
 11
585.6228419331921
 21
110.3128116527593
 31
0.0
  0
LINE
  5
B7
330
1F
100
AcDbEntity
  8
0
  6
CONTINUOUS
 62
     7
100
AcDbLine
 10
585.6228419331921
 20
110.3128116527593
 30
0.0
 11
585.5229644607973
 21
109.8739533502851
 31
0.0
  0
LINE
  5
B8
330
1F
100
AcDbEntity
  8
0
  6
CONTINUOUS
 62
     7
100
AcDbLine
 10
585.5229644607973
 20
109.8739533502851
 30
0.0
 11
585.5177575243429
 21
109.8538917614916
 31
0.0
  0
LINE
  5
B9
330
1F
100
AcDbEntity
  8
0
  6
CONTINUOUS
 62
     7
100
AcDbLine
 10
587.9196714988665
 20
109.8162834715439
 30
0.0
 11
587.8258128554043
 21
109.3549367964374
 31
0.0
  0
LINE
  5
BA
330
1F
100
AcDbEntity
  8
0
  6
CONTINUOUS
 62
     7
100
AcDbLine
 10
588.2646907136103
 20
111.4122660625208
 30
0.0
 11
587.9196714988665
 21
109.8162834715439
 31
0.0
  0
LINE
  5
BB
330
1F
100
AcDbEntity
  8
0
  6
CONTINUOUS
 62
     7
100
AcDbLine
 10
591.3030809480802
 20
140.32110892724
 30
0.0
 11
591.3043611843765
 21
140.6906843064174
 31
0.0
  0
LINE
  5
BC
330
1F
100
AcDbEntity
  8
0
  6
CONTINUOUS
 62
     7
100
AcDbLine
 10
588.8043758293738
 20
140.6992420662177
 30
0.0
 11
588.8030959477021
 21
140.3297690591605
 31
0.0
  0
LINE
  5
BD
330
1F
100
AcDbEntity
  8
0
  6
CONTINUOUS
 62
     7
100
AcDbLine
 10
591.2991819339524
 20
139.1955513808039
 30
0.0
 11
591.3028622254722
 21
140.2579686374041
 31
0.0
  0
LINE
  5
BE
330
1F
100
AcDbEntity
  8
0
  6
CONTINUOUS
 62
     7
100
AcDbLine
 10
591.3028622254722
 20
140.2579686374041
 30
0.0
 11
591.3030809480802
 21
140.32110892724
 31
0.0
  0
LINE
  5
BF
330
1F
100
AcDbEntity
  8
0
  6
CONTINUOUS
 62
     7
100
AcDbLine
 10
588.8030959477021
 20
140.3297690591605
 30
0.0
 11
588.8028763149737
 21
140.2663660380609
 31
0.0
  0
LINE
  5
C0
330
1F
100
AcDbEntity
  8
0
  6
CONTINUOUS
 62
     7
100
AcDbLine
 10
588.8028763149737
 20
140.2663660380609
 30
0.0
 11
588.7991969335743
 21
139.2042115127244
 31
0.0
  0
LINE
  5
C1
330
1F
100
AcDbEntity
  8
0
  6
CONTINUOUS
 62
     7
100
AcDbLine
 10
591.2972358812501
 20
138.6337698040044
 30
0.0
 11
591.2991819339524
 21
139.1955513808039
 31
0.0
  0
LINE
  5
C2
330
1F
100
AcDbEntity
  8
0
  6
CONTINUOUS
 62
     7
100
AcDbLine
 10
588.7991969335743
 20
139.2042115127244
 30
0.0
 11
588.7972508808721
 21
138.6424299359249
 31
0.0
  0
ARC
  5
C3
330
1F
100
AcDbEntity
  8
0
  6
CONTINUOUS
 62
     7
100
AcDbCircle
 10
590.0000000000006
 20
125.0000000000067
 30
0.0
 40
13.25
100
AcDbArc
 50
72.81986179884734
 51
82.48950207316324
  0
ARC
  5
C4
330
1F
100
AcDbEntity
  8
0
  6
CONTINUOUS
 62
     7
100
AcDbCircle
 10
591.7972328813258
 20
138.6320377776203
 30
0.0
 40
0.5000000000000306
100
AcDbArc
 50
179.8015239994305
 51
262.4895020731632
  0
ARC
  5
C5
330
1F
100
AcDbEntity
  8
0
  6
CONTINUOUS
 62
     7
100
AcDbCircle
 10
588.2972538807965
 20
138.644161962309
 30
0.0
 40
0.5000000000000018
100
AcDbArc
 50
277.1135459256971
 51
359.8015239994297
  0
ARC
  5
C6
330
1F
100
AcDbEntity
  8
0
  6
CONTINUOUS
 62
     7
100
AcDbCircle
 10
590.0000000000006
 20
125.0000000000067
 30
0.0
 40
13.25000000000001
100
AcDbArc
 50
97.11354592569711
 51
106.783186200013
  0
ARC
  5
C7
330
1F
100
AcDbEntity
  8
0
  6
CONTINUOUS
 62
     7
100
AcDbCircle
 10
590.0000000000006
 20
125.0000000000067
 30
0.0
 40
13.25000000000005
100
AcDbArc
 50
48.81986179884727
 51
58.78318620001301
  0
ARC
  5
C8
330
1F
100
AcDbEntity
  8
0
  6
CONTINUOUS
 62
     7
100
AcDbCircle
 10
590.0000000000006
 20
125.0000000000067
 30
0.0
 40
13.24999999999999
100
AcDbArc
 50
120.8198617988473
 51
130.783186200013
  0
ARC
  5
C9
330
1F
100
AcDbEntity
  8
0
  6
CONTINUOUS
 62
     7
100
AcDbCircle
 10
590.0000000000006
 20
125.0000000000067
 30
0.0
 40
13.25000000000001
100
AcDbArc
 50
24.81986179884733
 51
34.78318620001301
  0
ARC
  5
CA
330
1F
100
AcDbEntity
  8
0
  6
CONTINUOUS
 62
     7
100
AcDbCircle
 10
590.0000000000006
 20
125.0000000000067
 30
0.0
 40
13.25000000000004
100
AcDbArc
 50
144.8198617988472
 51
154.783186200013
  0
ARC
  5
CB
330
1F
100
AcDbEntity
  8
0
  6
CONTINUOUS
 62
     7
100
AcDbCircle
 10
590.0000000000006
 20
125.0000000000067
 30
0.0
 40
13.25000000000001
100
AcDbArc
 50
0.8198617988473417
 51
10.78318620001301
  0
ARC
  5
CC
330
1F
100
AcDbEntity
  8
0
  6
CONTINUOUS
 62
     7
100
AcDbCircle
 10
590.0000000000006
 20
125.0000000000067
 30
0.0
 40
13.24999999999999
100
AcDbArc
 50
168.8198617988473
 51
178.783186200013
  0
LWPOLYLINE
  5
CD
330
1F
100
AcDbEntity
  8
0
  6
CONTINUOUS
 62
     7
100
AcDbPolyline
 90
        8
 70
     0
 43
0.0
 10
576.3036343794705
 20
124.794629150451
 10
576.4047456755983
 20
124.8156158796332
 10
576.499388341376
 20
124.8569231208495
 10
576.5835252604608
 20
124.9167888554881
 10
576.6535674539471
 20
124.9926594262349
 10
576.7065271733212
 20
125.0812984669271
 10
576.740145347087
 20
125.1789249543144
 10
576.7529879446453
 20
125.2813744929366
  0
ARC
  5
CE
330
1F
100
AcDbEntity
  8
0
  6
CONTINUOUS
 62
     7
100
AcDbCircle
 10
590.0000000000006
 20
125.0000000000067
 30
0.0
 40
13.25000000000007
100
AcDbArc
 50
336.8198617988473
 51
346.7831862000131
  0
ARC
  5
CF
330
1F
100
AcDbEntity
  8
0
  6
CONTINUOUS
 62
     7
100
AcDbCircle
 10
590.0000000000006
 20
125.0000000000067
 30
0.0
 40
13.24999999999995
100
AcDbArc
 50
192.8198617988473
 51
202.783186200013
  0
LWPOLYLINE
  5
D0
330
1F
100
AcDbEntity
  8
0
  6
CONTINUOUS
 62
     7
100
AcDbPolyline
 90
        8
 70
     0
 43
0.0
 10
577.5712792510869
 20
119.2415706184295
 10
577.6551129446042
 20
119.3018686187088
 10
577.7247721533976
 20
119.3780993014599
 10
577.7772854657053
 20
119.4670109394347
 10
577.8104128521543
 20
119.5648108813615
 10
577.82274121737
 20
119.6673273328321
 10
577.8137446775528
 20
119.7701873100743
 10
577.7838069927926
 20
119.8690031757395
  0
ARC
  5
D1
330
1F
100
AcDbEntity
  8
0
  6
CONTINUOUS
 62
     7
100
AcDbCircle
 10
590.0000000000006
 20
125.0000000000067
 30
0.0
 40
13.24999999999999
100
AcDbArc
 50
312.8198617988472
 51
322.7831862000131
  0
ARC
  5
D2
330
1F
100
AcDbEntity
  8
0
  6
CONTINUOUS
 62
     7
100
AcDbCircle
 10
590.0000000000006
 20
125.0000000000067
 30
0.0
 40
13.24999999999997
100
AcDbArc
 50
216.8198617988474
 51
226.783186200013
  0
LWPOLYLINE
  5
D3
330
1F
100
AcDbEntity
  8
0
  6
CONTINUOUS
 62
     7
100
AcDbPolyline
 90
        8
 70
     0
 43
0.0
 10
580.9879628515739
 20
114.6841968401715
 10
581.0400233352664
 20
114.7733800395094
 10
581.072654377041
 20
114.8713531862136
 10
581.0844640538053
 20
114.9739370975819
 10
581.0749486071469
 20
115.0767559122449
 10
581.0445139318587
 20
115.175423748702
 10
580.9944582619238
 20
115.2657317912803
 10
580.9269167925155
 20
115.3438278231009
  0
ARC
  5
D4
330
1F
100
AcDbEntity
  8
0
  6
CONTINUOUS
 62
     7
100
AcDbCircle
 10
590.0000000000006
 20
125.0000000000067
 30
0.0
 40
13.25000000000001
100
AcDbArc
 50
288.8198617988473
 51
298.7831862000132
  0
ARC
  5
D5
330
1F
100
AcDbEntity
  8
0
  6
CONTINUOUS
 62
     7
100
AcDbCircle
 10
590.0000000000006
 20
125.0000000000067
 30
0.0
 40
13.24999999999999
100
AcDbArc
 50
240.8198617988472
 51
250.783186200013
  0
ARC
  5
D6
330
1F
100
AcDbEntity
  8
0
  6
CONTINUOUS
 62
     7
100
AcDbCircle
 10
590.0000000000006
 20
125.0000000000067
 30
0.0
 40
13.24999999999999
100
AcDbArc
 50
264.8198617988473
 51
274.783186200013
  0
ARC
  5
D7
330
1F
100
AcDbEntity
  8
0
  6
CONTINUOUS
 62
     7
100
AcDbCircle
 10
590.0000000000229
 20
125.0000000002254
 30
0.0
 40
13.25000000061561
100
AcDbArc
 50
72.79865203373771
 51
72.81986179865942
  0
LWPOLYLINE
  5
D8
330
1F
100
AcDbEntity
  8
0
  6
CONTINUOUS
 62
     7
100
AcDbPolyline
 90
       38
 70
     0
 43
0.0
 10
-594.5224373523394
 20
137.930018262544
 10
-594.513567601688
 20
137.9113253213552
 10
-594.5038973289535
 20
137.892952770453
 10
-594.493453870695
 20
137.8749668949664
 10
-594.4821260358376
 20
137.8572132877726
 10
-594.4700384341468
 20
137.8399222324633
 10
-594.457065285328
 20
137.8229475699007
 10
-594.4433530529926
 20
137.8065131440341
 10
-594.4288956872614
 20
137.7906235101934
 10
-594.4142715142389
 20
137.7758558831556
 10
-594.3990464907664
 20
137.761708518975
 10
-594.3831339009155
 20
137.7481142481867
 10
-594.3666665813204
 20
137.7351975106528
 10
-594.353798339774
 20
137.7258485959144
 10
-594.3406393206558
 20
137.716913604836
 10
-594.327147370132
 20
137.7083679610195
 10
-594.3133894568598
 20
137.7002574380943
 10
-594.2944879754975
 20
137.6900485490163
 10
-594.2805559820368
 20
137.6831771796826
 10
-594.2664173213367
 20
137.6767417749444
 10
-594.2520294803298
 20
137.6707263281713
 10
-594.237461105617
 20
137.6651623341767
 10
-594.2175236150373
 20
137.6583740086024
 10
-594.197281796025
 20
137.6524213941586
 10
-594.1765461866001
 20
137.6472689244893
 10
-594.1555709110347
 20
137.6429998808914
 10
-594.1343540918431
 20
137.6396215932836
 10
-594.1189307755552
 20
137.637748044198
 10
-594.1034567154572
 20
137.636354366616
 10
-594.0878864883995
 20
137.6354395277244
 10
-594.0722953093232
 20
137.6350105320544
 10
-594.0512315458757
 20
137.635203262449
 10
-594.030157187158
 20
137.6362854924093
 10
-594.0088816356567
 20
137.6382863791293
 10
-593.9876723169456
 20
137.6412004137113
 10
-593.966529886628
 20
137.6450351461913
 10
-593.9423564880077
 20
137.6505857929404
 10
-593.9184294465413
 20
137.6573461149117
210
0.0
220
0.0
230
-1.0
  0
ARC
  5
D9
330
1F
100
AcDbEntity
  8
0
  6
CONTINUOUS
 62
     7
100
AcDbCircle
 10
590.0000000000229
 20
125.0000000002254
 30
0.0
 40
13.25000000118358
100
AcDbArc
 50
58.78318619960481
 51
58.80439596452878
  0
LWPOLYLINE
  5
DA
330
1F
100
AcDbEntity
  8
0
  6
CONTINUOUS
 62
     7
100
AcDbPolyline
 90
       38
 70
     0
 43
0.0
 10
-596.8629882959721
 20
136.3341030368321
 10
-596.8455088649002
 20
136.3451877874708
 10
-596.8284450667729
 20
136.3570282613248
 10
-596.8118593776311
 20
136.3695892513157
 10
-596.7956120592835
 20
136.3829999642996
 10
-596.7799165544372
 20
136.3971086463754
 10
-596.7646430930498
 20
136.4120579889713
 10
-596.7499960734384
 20
136.4276753279204
 10
-596.7359807715685
 20
136.4439661304237
 10
-596.7262898828028
 20
136.4561123487956
 10
-596.7169809058266
 20
136.4685536868249
 10
-596.7080291202242
 20
136.4813282859025
 10
-596.6994799893899
 20
136.494375784027
 10
-596.6885875927583
 20
136.5124085562085
 10
-596.6784470118531
 20
136.530917346496
 10
-596.6689830195164
 20
136.5500797980555
 10
-596.6603313728234
 20
136.5696652804561
 10
-596.6524988695561
 20
136.5896772106677
 10
-596.6473754868118
 20
136.6043455501911
 10
-596.6427101733586
 20
136.6191659443591
 10
-596.6384922300911
 20
136.6341825708494
 10
-596.6347445785552
 20
136.6493234170029
 10
-596.6304361749771
 20
136.6699438247173
 10
-596.6269947874372
 20
136.6907645346685
 10
-596.6244082403542
 20
136.7119780948645
 10
-596.622728294437
 20
136.7333219140731
 10
-596.6219624969489
 20
136.754796966379
 10
-596.622100586056
 20
136.7755827540376
 10
-596.6231021489237
 20
136.7963448565509
 10
-596.6249822974354
 20
136.8171919697538
 10
-596.6277330218716
 20
136.837942164809
 10
-596.6304032807077
 20
136.8536245505848
 10
-596.6335710012636
 20
136.8692140679183
 10
-596.6372491793952
 20
136.8847577864746
 10
-596.6414219073765
 20
136.9001761041742
 10
-596.6478076913706
 20
136.9206907292026
 10
-596.6562423878328
 20
136.9439417880359
 10
-596.665841667603
 20
136.9668026948719
210
0.0
220
0.0
230
-1.0
  0
ARC
  5
DB
330
1F
100
AcDbEntity
  8
0
  6
CONTINUOUS
 62
     7
100
AcDbCircle
 10
590.0000000000229
 20
125.0000000002254
 30
0.0
 40
13.25000000045528
100
AcDbArc
 50
106.7831862003779
 51
106.8043959652991
  0
LWPOLYLINE
  5
DC
330
1F
100
AcDbEntity
  8
0
  6
CONTINUOUS
 62
     7
100
AcDbPolyline
 90
       38
 70
     0
 43
0.0
 10
-586.1693554966739
 20
137.6841894770347
 10
-586.1494218992831
 20
137.6786168741976
 10
-586.1292048028196
 20
137.6738588243658
 10
-586.1087721758727
 20
137.6699381981522
 10
-586.087934495935
 20
137.6668376061049
 10
-586.0669473591812
 20
137.6646141238875
 10
-586.0456178921074
 20
137.6632667927661
 10
-586.0242111783657
 20
137.6628319754138
 10
-586.002726685344
 20
137.6633172509089
 10
-585.9872158157359
 20
137.6642429235326
 10
-585.9717411783487
 20
137.6656498855216
 10
-585.9562578874187
 20
137.6675452875992
 10
-585.9408412216029
 20
137.669922525589
 10
-585.9201518243043
 20
137.6738941771792
 10
-585.8996117395266
 20
137.6787430550202
 10
-585.8790386158757
 20
137.6845321209182
 10
-585.8586946843776
 20
137.6912079401609
 10
-585.8385819543323
 20
137.6987778508842
 10
-585.8242530415149
 20
137.7047854704284
 10
-585.8101176382578
 20
137.7112352462127
 10
-585.7961357550491
 20
137.7181487878881
 10
-585.7823762452322
 20
137.725494943609
 10
-585.7641694112413
 20
137.7360909217012
 10
-585.746393870647
 20
137.7474652466329
 10
-585.7288983853393
 20
137.7597377099494
 10
-585.7119127333084
 20
137.7727710695229
 10
-585.6954412407729
 20
137.7865715858532
 10
-585.6800867898788
 20
137.8005826127583
 10
-585.665327717199
 20
137.8152194772649
 10
-585.6510933578097
 20
137.8305661414008
 10
-585.6375135516367
 20
137.8464949186312
 10
-585.6276460197105
 20
137.8589728719712
 10
-585.6181803693488
 20
137.8717583702971
 10
-585.6090903168986
 20
137.8848925671654
 10
-585.6004243738868
 20
137.8983103766442
 10
-585.5894519599664
 20
137.9167829024606
 10
-585.5778169694656
 20
137.9386090985865
 10
-585.5672511767381
 20
137.9610396861291
210
0.0
220
0.0
230
-1.0
  0
ARC
  5
DD
330
1F
100
AcDbEntity
  8
0
  6
CONTINUOUS
 62
     7
100
AcDbCircle
 10
590.0000000000229
 20
125.0000000002254
 30
0.0
 40
13.25000000134392
100
AcDbArc
 50
120.7986520344899
 51
120.8198617994142
  0
LWPOLYLINE
  5
DE
330
1F
100
AcDbEntity
  8
0
  6
CONTINUOUS
 62
     7
100
AcDbPolyline
 90
       38
 70
     0
 43
0.0
 10
-583.4172250826587
 20
137.0126968771857
 10
-583.4251816235446
 20
136.9935973488136
 10
-583.4323644142197
 20
136.9741172995444
 10
-583.4387424869625
 20
136.9543213978095
 10
-583.4443561872752
 20
136.9340236940046
 10
-583.4491177613065
 20
136.9134708810319
 10
-583.4530516630188
 20
136.8924716863639
 10
-583.456089547224
 20
136.8712847345128
 10
-583.4582239804932
 20
136.8499085776529
 10
-583.459412984349
 20
136.8291592279101
 10
-583.459738995646
 20
136.8083783961262
 10
-583.4591939067427
 20
136.7874566946629
 10
-583.4577741258574
 20
136.7665761068982
 10
-583.4561111892003
 20
136.7507574947922
 10
-583.4539460791443
 20
136.7349997618282
 10
-583.451268853092
 20
136.7192551367821
 10
-583.4480903053857
 20
136.7036040156017
 10
-583.4430294287929
 20
136.6827263973944
 10
-583.438813528125
 20
136.6677750650167
 10
-583.4341353552487
 20
136.6529618662036
 10
-583.4289783586138
 20
136.6382444970628
 10
-583.4233650665547
 20
136.6236950461038
 10
-583.415068990418
 20
136.6043363267389
 10
-583.4059482244106
 20
136.5853106471695
 10
-583.3959024246761
 20
136.5664534111683
 10
-583.3850397434778
 20
136.5480091959376
 10
-583.373353477342
 20
136.5299815109068
 10
-583.3644255826703
 20
136.51726610418
 10
-583.3551071197376
 20
136.5048340841637
 10
-583.3453684620538
 20
136.4926510037918
 10
-583.3352547328568
 20
136.4807774456054
 10
-583.3210170974536
 20
136.4652529806002
 10
-583.3061113454313
 20
136.4503158331584
 10
-583.2903882741423
 20
136.4358438716953
 10
-583.2740309201317
 20
136.42203214597
 10
-583.2570341113138
 20
136.408886195151
 10
-583.2367340160276
 20
136.394635966677
 10
-583.2156998019713
 20
136.3813782479621
210
0.0
220
0.0
230
-1.0
  0
LWPOLYLINE
  5
DF
330
1F
100
AcDbEntity
  8
0
  6
CONTINUOUS
 62
     7
100
AcDbPolyline
 90
       38
 70
     0
 43
0.0
 10
-599.3905643237157
 20
134.9727184637728
 10
-599.3748582991495
 20
134.9592492648646
 10
-599.35855127574
 20
134.9463983587123
 10
-599.3416951872678
 20
134.9342151810139
 10
-599.3241256525964
 20
134.9226038993284
 10
-599.3060501731861
 20
134.9117242048273
 10
-599.2872943947434
 20
134.9014937339489
 10
-599.2680831639715
 20
134.8920574061987
 10
-599.2484128068501
 20
134.8834218437852
 10
-599.229046424966
 20
134.8758791322276
 10
-599.2093834225151
 20
134.8691474468807
 10
-599.1893172602719
 20
134.8632006959308
 10
-599.1690199047923
 20
134.8580985313216
 10
-599.1534616349825
 20
134.8547918580973
 10
-599.137806084563
 20
134.8519815928459
 10
-599.1220047479684
 20
134.8496624294193
 10
-599.1061374219238
 20
134.8478489455019
 10
-599.0847177302094
 20
134.8462105863355
 10
-599.0691953831714
 20
134.8455999303445
 10
-599.0536615589915
 20
134.8454716069686
 10
-599.0380709095674
 20
134.8458282850457
 10
-599.0224989567836
 20
134.8466708154313
 10
-599.0015240920717
 20
134.8485786794276
 10
-598.9806111238422
 20
134.8513737850562
 10
-598.9595725038239
 20
134.8551007019637
 10
-598.9386742596461
 20
134.8597321497475
 10
-598.917917657487
 20
134.8652755882635
 10
-598.9030657158847
 20
134.8698372438987
 10
-598.8883625988298
 20
134.8748579233333
 10
-598.8737663901268
 20
134.8803551583048
 10
-598.8593486510437
 20
134.8863047550983
 10
-598.8401843361391
 20
134.8950482275099
 10
-598.821372134041
 20
134.9046086076941
 10
-598.8027497845558
 20
134.9150900550655
 10
-598.7845593524312
 20
134.9263787652159
 10
-598.7668045074671
 20
134.9384813687881
 10
-598.7469786603874
 20
134.9533843439193
 10
-598.7278698910055
 20
134.9692922098732
210
0.0
220
0.0
230
-1.0
  0
LWPOLYLINE
  5
E0
330
1F
100
AcDbEntity
  8
0
  6
CONTINUOUS
 62
     7
100
AcDbPolyline
 90
       38
 70
     0
 43
0.0
 10
-600.8796468051131
 20
132.5627895247799
 10
-600.8681871245193
 20
132.580025473492
 10
-600.8574145238377
 20
132.5977827565661
 10
-600.8473717577629
 20
132.6160037994404
 10
-600.837983722268
 20
132.6348634750943
 10
-600.829383683096
 20
132.6541363344706
 10
-600.8215111272467
 20
132.6740055149066
 10
-600.8144825530305
 20
132.6942301435519
 10
-600.808305003993
 20
132.7148130690144
 10
-600.8043922486673
 20
132.7298508312005
 10
-600.8009484231009
 20
132.7450028610899
 10
-600.7979664575714
 20
132.7603140572759
 10
-600.7954633335187
 20
132.7757107846979
 10
-600.7928472232753
 20
132.7966148786541
 10
-600.7911115448806
 20
132.8176480457839
 10
-600.7902598288905
 20
132.8390031688365
 10
-600.7903222897177
 20
132.8604143390522
 10
-600.7913065272515
 20
132.8818819130817
 10
-600.7925922353951
 20
132.897365975523
 10
-600.7943582568545
 20
132.9128026332283
 10
-600.7966127861906
 20
132.928236596233
 10
-600.7993474730912
 20
132.9435927546666
 10
-600.8037986259853
 20
132.9641828200772
 10
-600.8091233077022
 20
132.9846032234935
 10
-600.8153887116255
 20
133.0050348185287
 10
-600.822535318039
 20
133.0252166631784
 10
-600.8305704179069
 20
133.0451465775646
 10
-600.8391509100794
 20
133.0640791735638
 10
-600.8485105911673
 20
133.0826389256873
 10
-600.8587074771417
 20
133.1009189859647
 10
-600.8696602536356
 20
133.1187564119794
 10
-600.8784782574119
 20
133.1319968921547
 10
-600.8877129420842
 20
133.1449501968764
 10
-600.8973953249152
 20
133.1576540405325
 10
-600.9074784963916
 20
133.1700421732598
 10
-600.9216562500709
 20
133.1861858834247
 10
-600.9388187863283
 20
133.2039960824828
 10
-600.9568865332632
 20
133.2209761812507
210
0.0
220
0.0
230
-1.0
  0
LWPOLYLINE
  5
E1
330
1F
100
AcDbEntity
  8
0
  6
CONTINUOUS
 62
     7
100
AcDbPolyline
 90
       38
 70
     0
 43
0.0
 10
-581.3414074661193
 20
135.0295201945239
 10
-581.3254638005398
 20
135.0163216440276
 10
-581.308929837115
 20
135.0037519152683
 10
-581.2918583659248
 20
134.991859546906
 10
-581.2740833224708
 20
134.980551567138
 10
-581.2558149907135
 20
134.969984077507
 10
-581.2368775618917
 20
134.9600777534449
 10
-581.2174984119401
 20
134.9509736331413
 10
-581.1976739716044
 20
134.9426784237957
 10
-581.1831275821544
 20
134.9372152287808
 10
-581.1684185344643
 20
134.9322064504513
 10
-581.1535029148874
 20
134.927640364633
 10
-581.1384521800597
 20
134.923541556699
 10
-581.117936058901
 20
134.918754704964
 10
-581.0971995414569
 20
134.9148299701594
 10
-581.0760504325664
 20
134.9117507017631
 10
-581.054750026047
 20
134.9095747437038
 10
-581.0332971727975
 20
134.9083096169582
 10
-581.0177635405739
 20
134.9079697566058
 10
-581.0022268469853
 20
134.9081125335069
 10
-580.986641770358
 20
134.9087414238606
 10
-580.9710838819478
 20
134.9098559742172
 10
-580.950141338898
 20
134.9121304953341
 10
-580.9292762197911
 20
134.9152914944991
 10
-580.9083016381273
 20
134.9193868926529
 10
-580.8874833279484
 20
134.9243847720016
 10
-580.8668226950771
 20
134.9302926114279
 10
-580.8470969081588
 20
134.9368471036011
 10
-580.8276604752186
 20
134.9442154890085
 10
-580.808414690203
 20
134.9524457287655
 10
-580.7895301025791
 20
134.9614739860737
 10
-580.7754404227558
 20
134.9688596768571
 10
-580.761592790195
 20
134.9766897839237
 10
-580.7479464549256
 20
134.9849912123935
 10
-580.7345722072662
 20
134.9937242347247
 10
-580.71703495523
 20
135.006136843971
 10
-580.6975283487652
 20
135.021343689321
 10
-580.6787526749332
 20
135.0375375556173
210
0.0
220
0.0
230
-1.0
  0
LWPOLYLINE
  5
E2
330
1F
100
AcDbEntity
  8
0
  6
CONTINUOUS
 62
     7
100
AcDbPolyline
 90
       38
 70
     0
 43
0.0
 10
-579.1003318734686
 20
133.2966888941878
 10
-579.1153690133078
 20
133.2824768235308
 10
-579.1298540689492
 20
133.2676024171735
 10
-579.1437324469499
 20
133.2521121569602
 10
-579.1571166372789
 20
133.2358525794691
 10
-579.1698261337609
 20
133.2190133571734
 10
-579.1819610737474
 20
133.2014297002468
 10
-579.1933538287369
 20
133.1833100754458
 10
-579.2039981968378
 20
133.1646501366674
 10
-579.2135239267697
 20
133.1461782738976
 10
-579.2222740786693
 20
133.127326640156
 10
-579.2302857377982
 20
133.1079920071873
 10
-579.2374816035925
 20
133.0883391641707
 10
-579.2423964445492
 20
133.0732117656616
 10
-579.2468277655005
 20
133.0579357306934
 10
-579.250785913739
 20
133.042463374063
 10
-579.2542480504094
 20
133.0268725315777
 10
-579.2581164019314
 20
133.0057414343418
 10
-579.2603462397672
 20
132.9903679512772
 10
-579.2620975869444
 20
132.9749326364569
 10
-579.2633725294128
 20
132.9593901112302
 10
-579.2641623267913
 20
132.9438153948267
 10
-579.2644573846493
 20
132.9227560065266
 10
-579.2638635913332
 20
132.9016654336293
 10
-579.2623562254862
 20
132.8803524964756
 10
-579.2599346106068
 20
132.8590846169465
 10
-579.2565911953534
 20
132.8378622745166
 10
-579.2536069795773
 20
132.8226148705508
 10
-579.2501506981808
 20
132.8074674948036
 10
-579.2462092969031
 20
132.7923766281354
 10
-579.2417993567335
 20
132.7774159687256
 10
-579.2351069983652
 20
132.7574426962086
 10
-579.2275654015199
 20
132.7377342174729
 10
-579.219087938188
 20
132.7181182735801
 10
-579.2097624866891
 20
132.6988474990218
 10
-579.1995820691053
 20
132.6799248504031
 10
-579.1868330993593
 20
132.6586498262995
 10
-579.1730097886581
 20
132.6379829119738
210
0.0
220
0.0
230
-1.0
  0
LWPOLYLINE
  5
E3
330
1F
100
AcDbEntity
  8
0
  6
CONTINUOUS
 62
     7
100
AcDbPolyline
 90
       38
 70
     0
 43
0.0
 10
-602.6349774129233
 20
130.2910450433135
 10
-602.6151508287743
 20
130.285128533541
 10
-602.595026687182
 20
130.2800213105591
 10
-602.5746725393255
 20
130.2757474127536
 10
-602.553899236999
 20
130.2722861526652
 10
-602.53296129447
 20
130.2696990169904
 10
-602.5116659308869
 20
130.267981679152
 10
-602.4902774980075
 20
130.2671750763125
 10
-602.4687953329418
 20
130.2672867525191
 10
-602.448035365562
 20
130.2682731597934
 10
-602.4273342958891
 20
130.2701211228321
 10
-602.406584183001
 20
130.2728501389843
 10
-602.3859663887949
 20
130.2764447579125
 10
-602.3704082569144
 20
130.2797520800431
 10
-602.3549631620872
 20
130.283552461011
 10
-602.3395846340696
 20
130.2878607823997
 10
-602.3243515000759
 20
130.2926579053345
 10
-602.3041172572986
 20
130.2998733632637
 10
-602.2896885115022
 20
130.3056290085838
 10
-602.2754454631638
 20
130.3118299548477
 10
-602.2613477702444
 20
130.3184970848949
 10
-602.2474647714928
 20
130.3256004585031
 10
-602.2290792773078
 20
130.3358746250526
 10
-602.2111112020564
 20
130.3469341515976
 10
-602.1934073399756
 20
130.3588960372907
 10
-602.1761996234584
 20
130.3716271570589
 10
-602.1594922434131
 20
130.3851338108188
 10
-602.1477797121249
 20
130.3953419194742
 10
-602.1363898406254
 20
130.4059088348397
 10
-602.1252914673646
 20
130.4168676218069
 10
-602.1145401263431
 20
130.4281670717278
 10
-602.1005889441308
 20
130.4439494603446
 10
-602.0872916992984
 20
130.4603349141654
 10
-602.0745425252339
 20
130.4774845847169
 10
-602.0625162706654
 20
130.4951960498959
 10
-602.0512189850465
 20
130.513473874454
 10
-602.0391687585796
 20
130.5351523181778
 10
-602.0281823411063
 20
130.5574571135724
210
0.0
220
0.0
230
-1.0
  0
LWPOLYLINE
  5
E4
330
1F
100
AcDbEntity
  8
0
  6
CONTINUOUS
 62
     7
100
AcDbPolyline
 90
       38
 70
     0
 43
0.0
 10
-578.0106087455167
 20
130.6406557550506
 10
-578.0014118163706
 20
130.6221134061811
 10
-577.991419858467
 20
130.603905418789
 10
-577.9806613554917
 20
130.5860976068069
 10
-577.9690224150158
 20
130.5685374917496
 10
-577.9566316487784
 20
130.551453209665
 10
-577.9433607116931
 20
130.5347007860887
 10
-577.9293599566123
 20
130.5185015479425
 10
-577.9146233947963
 20
130.5028601708117
 10
-577.9035566883899
 20
130.4919527442078
 10
-577.89215655837
 20
130.4813942888362
 10
-577.8803876562754
 20
130.4711562328417
 10
-577.868305261219
 20
130.4612901001122
 10
-577.8515098399316
 20
130.4485724352042
 10
-577.8341624220726
 20
130.4365527100566
 10
-577.8160942010031
 20
130.4251375408462
 10
-577.7975203532579
 20
130.4144860484013
 10
-577.778436770024
 20
130.4046046360943
 10
-577.7643843245241
 20
130.3979760607878
 10
-577.7501327760721
 20
130.3917871513825
 10
-577.7356393073608
 20
130.386022649559
 10
-577.7209731406026
 20
130.3807128786694
 10
-577.7009160444444
 20
130.3742726574465
 10
-577.6805691154718
 20
130.3686737653723
 10
-577.65974213317
 20
130.3638839668171
 10
-577.6386908398014
 20
130.3599821871973
 10
-577.6174134777136
 20
130.3569758306118
 10
-577.5967271225325
 20
130.3549404568106
 10
-577.5759740651617
 20
130.3537663023422
 10
-577.5550446255914
 20
130.3534570344969
 10
-577.5341205732776
 20
130.3540237041752
 10
-577.5182449791995
 20
130.3550400793685
 10
-577.5024097459113
 20
130.3565608985298
 10
-577.4865667031639
 20
130.3585941662026
 10
-577.4707966797783
 20
130.3611323824882
 10
-577.4497269398247
 20
130.3653388222606
 10
-577.4257215868652
 20
130.3712969151238
 10
-577.401982516506
 20
130.3784539935746
210
0.0
220
0.0
230
-1.0
  0
LWPOLYLINE
  5
E5
330
1F
100
AcDbEntity
  8
0
  6
CONTINUOUS
 62
     7
100
AcDbPolyline
 90
       38
 70
     0
 43
0.0
 10
-603.0151155431618
 20
127.4838009981086
 10
-603.0116570959286
 20
127.5042078927781
 10
-603.0090383732168
 20
127.524811589509
 10
-603.007275015699
 20
127.5455421014207
 10
-603.0063695396814
 20
127.5665897304893
 10
-603.0063519910855
 20
127.5876943146914
 10
-603.0072415772004
 20
127.6090477711644
 10
-603.0090467527142
 20
127.6303826674781
 10
-603.0117751108589
 20
127.6516987410973
 10
-603.0143170399152
 20
127.6670278814019
 10
-603.0173338344849
 20
127.6822706795317
 10
-603.0208372979589
 20
127.6974710279077
 10
-603.0248129935767
 20
127.712554750581
 10
-603.0309255189494
 20
127.7327156585591
 10
-603.0378948576275
 20
127.7526363768541
 10
-603.0458026874165
 20
127.7724916766188
 10
-603.0545684557194
 20
127.7920263488051
 10
-603.0641992504434
 20
127.8112376280757
 10
-603.0716717388563
 20
127.8248600783706
 10
-603.079563734074
 20
127.8382438612585
 10
-603.0879009074101
 20
127.851426488361
 10
-603.0966450805379
 20
127.864342739775
 10
-603.1090861451314
 20
127.8813422535175
 10
-603.1222562102631
 20
127.8978314771347
 10
-603.1362902199347
 20
127.9139482986123
 10
-603.1510276655054
 20
127.9294785444168
 10
-603.1664743209656
 20
127.9444172576285
 10
-603.1820135711556
 20
127.9582230441227
 10
-603.1981129965734
 20
127.9713712961042
 10
-603.21486348579
 20
127.983923514965
 10
-603.2321244797828
 20
127.9957639189333
 10
-603.2455655155374
 20
128.0042730941998
 10
-603.2592704034518
 20
128.0123504422463
 10
-603.273282819029
 20
128.0200178010233
 10
-603.2875329620493
 20
128.0272337280871
 10
-603.3070512230018
 20
128.0362151292399
 10
-603.3299740406189
 20
128.0455049233051
 10
-603.353386177133
 20
128.0536682006687
210
0.0
220
0.0
230
-1.0
  0
LWPOLYLINE
  5
E6
330
1F
100
AcDbEntity
  8
0
  6
CONTINUOUS
 62
     7
100
AcDbPolyline
 90
       38
 70
     0
 43
0.0
 10
-576.6680903037322
 20
128.1461080283338
 10
-576.6876079844385
 20
128.1392408115211
 10
-576.7068907073328
 20
128.1315439680644
 10
-576.7258696929545
 20
128.1230377560883
 10
-576.7447101252003
 20
128.1136277335729
 10
-576.7631699567288
 20
128.1034137564686
 10
-576.7814076936236
 20
128.0922860113086
 10
-576.7991854085597
 20
128.0803667612973
 10
-576.8164992035464
 20
128.0676495135353
 10
-576.8327145743107
 20
128.0546490906232
 10
-576.8483758860569
 20
128.0409862736595
 10
-576.8635590045712
 20
128.0265818428753
 10
-576.8781262864767
 20
128.011554899705
 10
-576.8887690843959
 20
127.9997343794229
 10
-576.8990306207047
 20
127.9875814076751
 10
-576.908939743445
 20
127.9750566304837
 10
-576.9184439296091
 20
127.9622218649976
 10
-576.9305726361249
 20
127.944491047415
 10
-576.9388626532451
 20
127.9313536285491
 10
-576.9467406966385
 20
127.9179651038795
 10
-576.9542271290749
 20
127.9042848663781
 10
-576.9612834527493
 20
127.890377894488
 10
-576.9701186264175
 20
127.8712591968084
 10
-576.9781544780517
 20
127.8517504822389
 10
-576.985446183341
 20
127.8316670443886
 10
-576.991884353993
 20
127.8112529101443
 10
-576.9974618964933
 20
127.7905054461203
 10
-577.000937357631
 20
127.7753624595795
 10
-577.0039408802239
 20
127.7601188469778
 10
-577.0064782394395
 20
127.7447295419564
 10
-577.0085346070156
 20
127.7292686152485
 10
-577.0105446952422
 20
127.7083000954893
 10
-577.0116712641818
 20
127.687228060479
 10
-577.0119052392324
 20
127.665859909061
 10
-577.0112241455284
 20
127.6444621776601
 10
-577.0096204058651
 20
127.6230347290948
 10
-577.0066269743494
 20
127.5984135543066
 10
-577.0024047430043
 20
127.57391094161
210
0.0
220
0.0
230
-1.0
  0
LWPOLYLINE
  5
E7
330
1F
100
AcDbEntity
  8
0
  6
CONTINUOUS
 62
     7
100
AcDbPolyline
 90
       38
 70
     0
 43
0.0
 10
-603.6946881222701
 20
124.6945018672314
 10
-603.6741691750567
 20
124.697161064884
 10
-603.653707562185
 20
124.7006806103238
 10
-603.6333747720204
 20
124.705054988169
 10
-603.6129895947305
 20
124.7103422329914
 10
-603.5928095495611
 20
124.7164949954045
 10
-603.5726567626635
 20
124.7235877339199
 10
-603.5527893820291
 20
124.7315503249498
 10
-603.5332098705186
 20
124.7403899299459
 10
-603.5146459046015
 20
124.7497348972731
 10
-603.4964861707163
 20
124.7598429790998
 10
-603.4786399902104
 20
124.7707758906691
 10
-603.4612667612028
 20
124.7824457508659
 10
-603.4483989095949
 20
124.7917952023089
 10
-603.43583486757
 20
124.8015491091014
 10
-603.4235382353332
 20
124.8117399673974
 10
-603.4115732406465
 20
124.8223182310484
 10
-603.3960231312049
 20
124.8371398878468
 10
-603.3851828478794
 20
124.8482666311139
 10
-603.3746933278339
 20
124.8597246470747
 10
-603.3645262105986
 20
124.871549421738
 10
-603.3547326624866
 20
124.8836854007397
 10
-603.3421155578002
 20
124.9005493731081
 10
-603.3301992189726
 20
124.9179610279573
 10
-603.3188912734175
 20
124.9360895637293
 10
-603.3083494550739
 20
124.9547190292155
 10
-603.2985801549339
 20
124.97385347508
 10
-603.2920322370248
 20
124.9879429620313
 10
-603.2859250233366
 20
125.0022289976635
 10
-603.2802434950802
 20
125.0167544628024
 10
-603.2750175566559
 20
125.0314499883071
 10
-603.2686917932829
 20
125.0515423747587
 10
-603.2632087201495
 20
125.0719197083935
 10
-603.2585371695243
 20
125.0927722682868
 10
-603.2547545411813
 20
125.1138440152613
 10
-603.2518682182242
 20
125.1351366588903
 10
-603.2496772059991
 20
125.1598421713444
 10
-603.2487127918239
 20
125.1846871944233
210
0.0
220
0.0
230
-1.0
  0
LWPOLYLINE
  5
E8
330
1F
100
AcDbEntity
  8
0
  6
CONTINUOUS
 62
     7
100
AcDbPolyline
 90
       38
 70
     0
 43
0.0
 10
-576.7528846930144
 20
125.2764706917815
 10
-576.7520247329027
 20
125.2557906851103
 10
-576.7503024808159
 20
125.23509276552
 10
-576.747717188958
 20
125.2144486423884
 10
-576.7442268300049
 20
125.193672695464
 10
-576.7398561053363
 20
125.1730256485041
 10
-576.7345463255723
 20
125.1523237716409
 10
-576.7283448231086
 20
125.1318304110931
 10
-576.7212442252276
 20
125.1115474023804
 10
-576.7155707359403
 20
125.0970817373381
 10
-576.7094507096382
 20
125.0827992577789
 10
-576.702863475115
 20
125.0686594844992
 10
-576.6958385757003
 20
125.0547319709542
 10
-576.6856679352064
 20
125.0362824926723
 10
-576.6747091430767
 20
125.0182460968555
 10
-576.6628459693958
 20
125.000468813291
 10
-576.650210267438
 20
124.9831835262699
 10
-576.6367956791296
 20
124.9663944143594
 10
-576.6266542158431
 20
124.9546232649878
 10
-576.6161520347262
 20
124.9431727879369
 10
-576.6052562263403
 20
124.9320116286703
 10
-576.5940176947045
 20
124.9211956441589
 10
-576.5783140995763
 20
124.9071542533533
 10
-576.5620035296038
 20
124.8937635693439
 10
-576.5449253211108
 20
124.8809167737639
 10
-576.527281004421
 20
124.8687899883184
 10
-576.5090659623206
 20
124.8573892620865
 10
-576.4909958976169
 20
124.847115956932
 10
-576.4725146079707
 20
124.8376022845623
 10
-576.4535204040855
 20
124.8288069843348
 10
-576.4341748458161
 20
124.8208140840477
 10
-576.4192583719243
 20
124.8152854031466
 10
-576.4041735936029
 20
124.8102339709534
 10
-576.3888732493979
 20
124.8056475073768
 10
-576.3734342305959
 20
124.801552036962
 10
-576.352475152175
 20
124.7968249756097
 10
-576.3281217963295
 20
124.7925041076024
 10
-576.3035240303709
 20
124.7893868743235
210
0.0
220
0.0
230
-1.0
  0
LWPOLYLINE
  5
E9
330
1F
100
AcDbEntity
  8
0
  6
CONTINUOUS
 62
     7
100
AcDbPolyline
 90
       38
 70
     0
 43
0.0
 10
-602.9001525651852
 20
121.975340714242
 10
-602.9052933482583
 20
121.9953900173897
 10
-602.9112813044633
 20
122.0152775614338
 10
-602.918102256037
 20
122.0349330485427
 10
-602.925835904526
 20
122.0545293047483
 10
-602.9344038808179
 20
122.0738164394385
 10
-602.9439017913762
 20
122.0929619653343
 10
-602.954228585374
 20
122.1117181319223
 10
-602.9653910927916
 20
122.130081610919
 10
-602.9739481836033
 20
122.1430515817225
 10
-602.9829039671215
 20
122.1557495298196
 10
-602.9922870789361
 20
122.1682107520605
 10
-603.0020541603341
 20
122.1803733573036
 10
-603.0158384101553
 20
122.1963050751581
 10
-603.0303077039345
 20
122.2116688714511
 10
-603.0456077438917
 20
122.2265911862189
 10
-603.061561138696
 20
122.2408716380878
 10
-603.0781732387094
 20
122.2545048178848
 10
-603.0905404462596
 20
122.2639102106211
 10
-603.1031938175661
 20
122.2729269410424
 10
-603.1161720618913
 20
122.2815788362562
 10
-603.1294137742744
 20
122.2898218434408
 10
-603.1476935774757
 20
122.3002914351533
 10
-603.1664318021146
 20
122.3099983424081
 10
-603.1858078097674
 20
122.3190136454778
 10
-603.2055878562703
 20
122.3272069718497
 10
-603.2257752002654
 20
122.3345714446586
 10
-603.2455863309453
 20
122.3408632757414
 10
-603.2656417637797
 20
122.3463265753652
 10
-603.2860495444794
 20
122.3509805601349
 10
-603.3066341732987
 20
122.354776628644
 10
-603.3223741638413
 20
122.3570831852948
 10
-603.3381795553724
 20
122.3588879298084
 10
-603.354099129744
 20
122.3601930477179
 10
-603.3700522651217
 20
122.3609890697744
 10
-603.3915361487109
 20
122.3612551960622
 10
-603.4162556842741
 20
122.3604182953457
 10
-603.4409640392718
 20
122.3583532464876
210
0.0
220
0.0
230
-1.0
  0
LWPOLYLINE
  5
EA
330
1F
100
AcDbEntity
  8
0
  6
CONTINUOUS
 62
     7
100
AcDbPolyline
 90
       38
 70
     0
 43
0.0
 10
-576.541057037078
 20
122.4515365028879
 10
-576.5616804743446
 20
122.4532015440931
 10
-576.5824267065254
 20
122.4540131176945
 10
-576.6032246607353
 20
122.4539617552827
 10
-576.6242636530028
 20
122.4530283661232
 10
-576.6452819470043
 20
122.4512057236428
 10
-576.6664690104135
 20
122.44845797848
 10
-576.6875577568783
 20
122.4448000498682
 10
-576.7085472663068
 20
122.4402244207934
 10
-576.7286484929864
 20
122.4349433289655
 10
-576.7485129814996
 20
122.4288317539555
 10
-576.7682422602736
 20
122.4218481822986
 10
-576.7876621429095
 20
122.4140454339641
 10
-576.8021926613442
 20
122.407575667252
 10
-576.8165101001597
 20
122.400647117946
 10
-576.8306568200583
 20
122.393235567954
 10
-576.8445596955855
 20
122.3853761270199
 10
-576.8628515935527
 20
122.3741114085301
 10
-576.8757683706849
 20
122.3654816329345
 10
-576.8884109250218
 20
122.3564548959618
 10
-576.9008143752459
 20
122.3470023835308
 10
-576.9129171227481
 20
122.3371677979348
 10
-576.9287647304345
 20
122.3232955873924
 10
-576.9440407552678
 20
122.3087419651309
 10
-576.9588707296061
 20
122.2933606354406
 10
-576.9730554675946
 20
122.2773300357485
 10
-576.98658956008
 20
122.260644875145
 10
-576.9959237593273
 20
122.2482246659718
 10
-577.004867749567
 20
122.2355205756183
 10
-577.0134451368164
 20
122.2224937828893
 10
-577.021612247503
 20
122.2092059235692
 10
-577.0319772198087
 20
122.1908678041272
 10
-577.0415771605292
 20
122.1720757591291
 10
-577.0504821175502
 20
122.1526501476895
 10
-577.0585631489304
 20
122.1328253215976
 10
-577.0658133883447
 20
122.1125980736049
 10
-577.0730930865627
 20
122.0888879729294
 10
-577.0792019967311
 20
122.0647863861963
210
0.0
220
0.0
230
-1.0
  0
LWPOLYLINE
  5
EB
330
1F
100
AcDbEntity
  8
0
  6
CONTINUOUS
 62
     7
100
AcDbPolyline
 90
       38
 70
     0
 43
0.0
 10
-602.3864628429408
 20
119.1507820936697
 10
-602.3687994450448
 20
119.1615571993153
 10
-602.3515383596472
 20
119.1730949517961
 10
-602.3347426513113
 20
119.1853612356226
 10
-602.3182703814051
 20
119.1984827726928
 10
-602.3023375467353
 20
119.2123115646766
 10
-602.28681193646
 20
119.2269879806209
 10
-602.271900858672
 20
119.2423429611933
 10
-602.2576094761308
 20
119.2583820469697
 10
-602.2444513900317
 20
119.2744697446026
 10
-602.231972974899
 20
119.2910901660405
 10
-602.2201164935124
 20
119.3083365732941
 10
-602.2089918188295
 20
119.3260638499142
 10
-602.2010392159381
 20
119.3398388255779
 10
-602.1935286637222
 20
119.3538597190991
 10
-602.1864401266914
 20
119.3681710223221
 10
-602.1798121275915
 20
119.3827013488035
 10
-602.1716349066763
 20
119.4025664053602
 10
-602.1662574692896
 20
119.41714033158
 10
-602.1613352108475
 20
119.4318742221853
 10
-602.1568566562314
 20
119.4468120305007
 10
-602.1528459521991
 20
119.4618821938746
 10
-602.1481788490343
 20
119.4824200380351
 10
-602.1443746898703
 20
119.5031731878851
 10
-602.1414179073571
 20
119.5243337852084
 10
-602.1393647633481
 20
119.5456403925866
 10
-602.1382227438588
 20
119.5670941110349
 10
-602.1379716338213
 20
119.5826287759892
 10
-602.1382030706735
 20
119.5981637465427
 10
-602.138920775272
 20
119.6137443049711
 10
-602.1401238516747
 20
119.6292949161953
 10
-602.1425172890958
 20
119.6502231443306
 10
-602.1457964608182
 20
119.6710689316715
 10
-602.150010287175
 20
119.6920187838615
 10
-602.1551253358625
 20
119.7128073161489
 10
-602.1611490470275
 20
119.7334330873278
 10
-602.1691960949628
 20
119.7568938609663
 10
-602.178420440058
 20
119.7799831815293
210
0.0
220
0.0
230
-1.0
  0
LWPOLYLINE
  5
EC
330
1F
100
AcDbEntity
  8
0
  6
CONTINUOUS
 62
     7
100
AcDbPolyline
 90
       38
 70
     0
 43
0.0
 10
-577.7857072233545
 20
119.8644813342473
 10
-577.7933329271929
 20
119.8452394307997
 10
-577.800178173955
 20
119.8256304373431
 10
-577.8062131136633
 20
119.8057195594976
 10
-577.811474851005
 20
119.7853201306728
 10
-577.8158799059073
 20
119.7646803808294
 10
-577.8194493926234
 20
119.7436085932596
 10
-577.8221194388917
 20
119.7223645985252
 10
-577.8238825628263
 20
119.7009470747024
 10
-577.8245832884982
 20
119.6854244161241
 10
-577.8248015740597
 20
119.6698874828452
 10
-577.8245349998003
 20
119.6542908875363
 10
-577.8237822649553
 20
119.6387101867952
 10
-577.8219950013937
 20
119.6177189775424
 10
-577.8193197097102
 20
119.5967845677488
 10
-577.8157128339207
 20
119.5757190236599
 10
-577.8112001054106
 20
119.5547887252207
 10
-577.8057740162141
 20
119.5339949036801
 10
-577.8012970862753
 20
119.5191165189075
 10
-577.7963601950179
 20
119.5043843657173
 10
-577.7909460312125
 20
119.4897564148407
 10
-577.7850783789178
 20
119.4753043986898
 10
-577.7764435790801
 20
119.4560897223337
 10
-577.7669896138326
 20
119.4372226173049
 10
-577.7566131565477
 20
119.4185401523653
 10
-577.745426679186
 20
119.400285192466
 10
-577.7334235033305
 20
119.3824613857256
 10
-577.7210942074531
 20
119.3657264970091
 10
-577.7080802684084
 20
119.3495183071197
 10
-577.6943055706168
 20
119.3337577618221
 10
-577.6798835291655
 20
119.3185873366426
 10
-577.668505369308
 20
119.3074695588013
 10
-577.6567793411658
 20
119.2967193137706
 10
-577.6446672640159
 20
119.2863061601638
 10
-577.632228796407
 20
119.2762851470895
 10
-577.6150043945854
 20
119.2634419364642
 10
-577.5945139523227
 20
119.2495892249189
 10
-577.5733106679627
 20
119.2367366778634
210
0.0
220
0.0
230
-1.0
  0
LWPOLYLINE
  5
ED
330
1F
100
AcDbEntity
  8
0
  6
CONTINUOUS
 62
     7
100
AcDbPolyline
 90
       38
 70
     0
 43
0.0
 10
-600.5546360144812
 20
116.9898714990511
 10
-600.5674871397647
 20
117.0060965040207
 10
-600.5810464028598
 20
117.0218291583401
 10
-600.5952722590315
 20
117.0370110083605
 10
-600.6103078139456
 20
117.0517675209787
 10
-600.6259798341866
 20
117.0659022853511
 10
-600.6424437941672
 20
117.0795294453106
 10
-600.6595066101509
 20
117.0924637705754
 10
-600.6771731679003
 20
117.1046994426041
 10
-600.6902658217275
 20
117.1130676181262
 10
-600.703612057863
 20
117.1210251256073
 10
-600.7172523927427
 20
117.128592563181
 10
-600.7311220428159
 20
117.1357310260536
 10
-600.7501945950658
 20
117.1446788150324
 10
-600.7696619716021
 20
117.1528291493686
 10
-600.7897087058222
 20
117.1602382753511
 10
-600.8100912402346
 20
117.1667952870406
 10
-600.8308122625286
 20
117.1724930667235
 10
-600.8459357866784
 20
117.1760551240519
 10
-600.8611626512222
 20
117.1791457274023
 10
-600.8765379101893
 20
117.181770899445
 10
-600.8919875494594
 20
117.1839153715726
 10
-600.912945347228
 20
117.1860447537347
 10
-600.9340117221026
 20
117.1872909321782
 10
-600.955379439988
 20
117.1876458890379
 10
-600.9767819376867
 20
117.1870855954135
 10
-600.9982193950437
 20
117.1856024435668
 10
-601.0188768817405
 20
117.1832924044844
 10
-601.0394205554566
 20
117.180126097613
 10
-601.0599569369574
 20
117.176077132045
 10
-601.0803059312748
 20
117.1711724903634
 10
-601.0956232892477
 20
117.1668776037991
 10
-601.1107962886123
 20
117.1620976880579
 10
-601.1258703827443
 20
117.1568148983568
 10
-601.1407680684428
 20
117.1510533759606
 10
-601.1605028160212
 20
117.1425582117307
 10
-601.182744837262
 20
117.1317393239691
 10
-601.2044771116955
 20
117.1198030145974
210
0.0
220
0.0
230
-1.0
  0
LWPOLYLINE
  5
EE
330
1F
100
AcDbEntity
  8
0
  6
CONTINUOUS
 62
     7
100
AcDbPolyline
 90
       38
 70
     0
 43
0.0
 10
-578.7411972793715
 20
117.1976174681581
 10
-578.759360493537
 20
117.2075268666304
 10
-578.7779830229866
 20
117.2167065288412
 10
-578.7970037905583
 20
117.2251188970213
 10
-578.816603509951
 20
117.232823532683
 10
-578.8365460124475
 20
117.2397073762695
 10
-578.8570189666294
 20
117.245814741205
 10
-578.8777723087737
 20
117.2510506230811
 10
-578.8988082557802
 20
117.2554077805287
 10
-578.9193196536683
 20
117.2587591685393
 10
-578.9399525684214
 20
117.2612555823241
 10
-578.9608166359204
 20
117.2629003927777
 10
-578.9817312451547
 20
117.2636710053518
 10
-578.9976370254617
 20
117.2636706736502
 10
-579.0135347515428
 20
117.263164555905
 10
-579.0294729722106
 20
117.2621477574378
 10
-579.0453706036187
 20
117.2606226097938
 10
-579.0666628577019
 20
117.2577717625605
 10
-579.0819729667346
 20
117.2551417968348
 10
-579.0971940195165
 20
117.252037652387
 10
-579.1123698183025
 20
117.248447290299
 10
-579.1274263146395
 20
117.2443855801911
 10
-579.1475461610039
 20
117.2381584880137
 10
-579.1674209955646
 20
117.2310764115647
 10
-579.1872250016625
 20
117.2230567616729
 10
-579.2067036369249
 20
117.2141815328532
 10
-579.2258541118514
 20
117.2044436915184
 10
-579.2394330813598
 20
117.196893826713
 10
-579.2527710420802
 20
117.1889259112428
 10
-579.265905349185
 20
117.1805140816138
 10
-579.2787710353482
 20
117.1716968812744
 10
-579.295698693859
 20
117.1591599895977
 10
-579.3121120893969
 20
117.1458972499122
 10
-579.3281482804207
 20
117.1317730431451
 10
-579.3435941531451
 20
117.1169490148964
 10
-579.3584447393762
 20
117.101419442413
 10
-579.374738841372
 20
117.0827201076564
 10
-579.3901226069879
 20
117.0631869301892
210
0.0
220
0.0
230
-1.0
  0
LWPOLYLINE
  5
EF
330
1F
100
AcDbEntity
  8
0
  6
CONTINUOUS
 62
     7
100
AcDbPolyline
 90
       38
 70
     0
 43
0.0
 10
-598.9365056105848
 20
114.6184452345902
 10
-598.9247519239696
 20
114.6354731345739
 10
-598.9136759645231
 20
114.6530341118746
 10
-598.9033214685717
 20
114.671071349773
 10
-598.8936103111618
 20
114.6897583461264
 10
-598.884679618851
 20
114.7088720439161
 10
-598.8764657042606
 20
114.7285944516415
 10
-598.8690891901311
 20
114.7486868061198
 10
-598.862557046434
 20
114.7691520690353
 10
-598.8570799927769
 20
114.789200787901
 10
-598.8524405277361
 20
114.8094597270917
 10
-598.848623838813
 20
114.8300375695368
 10
-598.8456712757721
 20
114.8507570554052
 10
-598.8440089988841
 20
114.8665757368558
 10
-598.8428505791867
 20
114.8824392772401
 10
-598.8421958098118
 20
114.8983964710486
 10
-598.8420508475567
 20
114.914366434908
 10
-598.8426604309518
 20
114.9358400424758
 10
-598.8436756472804
 20
114.9513411874051
 10
-598.8451717536436
 20
114.966803329116
 10
-598.8471561444264
 20
114.9822712883201
 10
-598.849621771637
 20
114.9976698679106
 10
-598.8537116545303
 20
115.0183304040274
 10
-598.8586774487092
 20
115.0388366407327
 10
-598.8645830837958
 20
115.0593704400922
 10
-598.8713736213729
 20
115.0796700833823
 10
-598.879056348079
 20
115.0997335315936
 10
-598.8851454651196
 20
115.1140272898524
 10
-598.891675534978
 20
115.1281250577878
 10
-598.8986683747863
 20
115.1420666894084
 10
-598.9060924431761
 20
115.1557835443985
 10
-598.9167912343177
 20
115.1739289334459
 10
-598.9282656523148
 20
115.1916387484837
 10
-598.9406362467951
 20
115.2090634732034
 10
-598.9537645341262
 20
115.2259742647132
 10
-598.9676567250294
 20
115.242366780226
 10
-598.9845504254317
 20
115.2605262341524
 10
-599.0023685567298
 20
115.2778674989141
210
0.0
220
0.0
230
-1.0
  0
LWPOLYLINE
  5
F0
330
1F
100
AcDbEntity
  8
0
  6
CONTINUOUS
 62
     7
100
AcDbPolyline
 90
       38
 70
     0
 43
0.0
 10
-580.9304919381432
 20
115.3404698087454
 10
-580.9452847524608
 20
115.3259931084348
 10
-580.9595138927193
 20
115.3108636142226
 10
-580.9731255680925
 20
115.2951287533273
 10
-580.986229599541
 20
115.278633089169
 10
-580.9986487600031
 20
115.2615694366962
 10
-581.0104803165185
 20
115.2437712419218
 10
-581.0215602362624
 20
115.225449892686
 10
-581.0318822218666
 20
115.2066011381942
 10
-581.038836000663
 20
115.192705494767
 10
-581.0453548545319
 20
115.1786005846809
 10
-581.0514550336472
 20
115.1642439603624
 10
-581.0571046180652
 20
115.1497041171295
 10
-581.0640097655426
 20
115.1298007476849
 10
-581.0700805565411
 20
115.1095880735508
 10
-581.0753536402348
 20
115.0888766928851
 10
-581.0797441769286
 20
115.0679204217735
 10
-581.0832448069604
 20
115.0467173312532
 10
-581.0852065122275
 20
115.0313043189726
 10
-581.0866885441783
 20
115.0158378127671
 10
-581.0876921830616
 20
115.0002723758779
 10
-581.0882099804955
 20
114.9846832129724
 10
-581.0881370112852
 20
114.9636176431676
 10
-581.0871743272405
 20
114.9425364109811
 10
-581.0852938048954
 20
114.921248644595
 10
-581.0824994104235
 20
114.9000219586495
 10
-581.0787835589639
 20
114.8788569695103
 10
-581.0743268791779
 20
114.8585541115224
 10
-581.0690305190234
 20
114.8384539473921
 10
-581.0628570977129
 20
114.8184532984864
 10
-581.0558522750669
 20
114.7987284527469
 10
-581.0499798164502
 20
114.7839439427562
 10
-581.0436400752808
 20
114.7693536999167
 10
-581.0368105533596
 20
114.7549143851388
 10
-581.0295233609936
 20
114.7407005536035
 10
-581.019011891325
 20
114.7219619014993
 10
-581.0059273462623
 20
114.70097260609
 10
-580.9917847839923
 20
114.6806070674055
210
0.0
220
0.0
230
-1.0
  0
ARC
  5
F1
330
1F
100
AcDbEntity
  8
0
  6
CONTINUOUS
 62
     7
100
AcDbCircle
 10
590.0000000000229
 20
125.0000000002254
 30
0.0
 40
13.25000000149684
100
AcDbArc
 50
298.7831861994737
 51
298.8043959643971
  0
LWPOLYLINE
  5
F2
330
1F
100
AcDbEntity
  8
0
  6
CONTINUOUS
 62
     7
100
AcDbPolyline
 90
       38
 70
     0
 43
0.0
 10
-596.3841270110156
 20
113.3894262714085
 10
-596.4024664021991
 20
113.3990215274411
 10
-596.4212524524132
 20
113.4078789731774
 10
-596.440423433413
 20
113.415962106318
 10
-596.4601611107138
 20
113.4233273402585
 10
-596.4802273402285
 20
113.4298657051426
 10
-596.50081058138
 20
113.43561823941
 10
-596.5216591034552
 20
113.4404942610087
 10
-596.5427750032061
 20
113.444486467218
 10
-596.5581393812589
 20
113.4468059138884
 10
-596.5735683845375
 20
113.4486470554184
 10
-596.5891074046629
 20
113.4500122296205
 10
-596.6046814349118
 20
113.4508922450409
 10
-596.6257444720374
 20
113.4513089511414
 10
-596.6468438450722
 20
113.4508365566707
 10
-596.66817101109
 20
113.4494513886757
 10
-596.6894583597407
 20
113.4471511932962
 10
-596.7107054513166
 20
113.4439283749951
 10
-596.7259702973472
 20
113.4410311848432
 10
-596.7411377919173
 20
113.4376612677262
 10
-596.7562515435708
 20
113.4338058005026
 10
-596.7712377267425
 20
113.4294809388604
 10
-596.7912497254487
 20
113.4229019219515
 10
-596.8110016829612
 20
113.4154718960097
 10
-596.830666438537
 20
113.4071051313937
 10
-596.8499907011441
 20
113.3978880976307
 10
-596.8689715407327
 20
113.3878137715567
 10
-596.8869035163291
 20
113.3773012890526
 10
-596.9043832431078
 20
113.366052858909
 10
-596.9214972984813
 20
113.3540010459335
 10
-596.9380921323145
 20
113.3412437511654
 10
-596.9503383473702
 20
113.3310900462908
 10
-596.9622554051357
 20
113.3205519611505
 10
-596.973877571209
 20
113.3095947061707
 10
-596.9851438620298
 20
113.298271858886
 10
-596.9997171564565
 20
113.2824842952099
 10
-597.0156358158399
 20
113.2635541043838
 10
-597.0306343020283
 20
113.2438104308268
210
0.0
220
0.0
230
-1.0
  0
LWPOLYLINE
  5
F3
330
1F
100
AcDbEntity
  8
0
  6
CONTINUOUS
 62
     7
100
AcDbPolyline
 90
       38
 70
     0
 43
0.0
 10
-593.9413453725541
 20
111.8811735079156
 10
-593.9375337164141
 20
111.9015099236366
 10
-593.9345580169294
 20
111.9220576732454
 10
-593.9324351197797
 20
111.94274706292
 10
-593.9311642222054
 20
111.9637683671209
 10
-593.9307798700871
 20
111.9848620387262
 10
-593.9312979116352
 20
112.0062202547646
 10
-593.932731427471
 20
112.0275758325262
 10
-593.9350879896057
 20
112.0489286427016
 10
-593.9382390007254
 20
112.0694717771714
 10
-593.9422406914301
 20
112.089866279482
 10
-593.9471237351592
 20
112.1102174612161
 10
-593.952853808733
 20
112.1303465689956
 10
-593.9577692806237
 20
112.1454737625019
 10
-593.9631632947344
 20
112.1604369995011
 10
-593.9690555085887
 20
112.1752809401192
 10
-593.9754186484693
 20
112.1899291895226
 10
-593.9847096336678
 20
112.2092983662716
 10
-593.9919419635856
 20
112.2230464411285
 10
-593.9995977443722
 20
112.2365632891741
 10
-594.0077019613599
 20
112.2498868485984
 10
-594.0162175904692
 20
112.2629512901028
 10
-594.028357281513
 20
112.2801621237861
 10
-594.0412343981081
 20
112.2968757327271
 10
-594.0549813128372
 20
112.3132322536698
 10
-594.0694413863631
 20
112.3290149401304
 10
-594.0846204460219
 20
112.3442189656384
 10
-594.0959969264864
 20
112.3548002965439
 10
-594.1076965209485
 20
112.365023229711
 10
-594.1197553704358
 20
112.3749152997609
 10
-594.1321167419429
 20
112.3844266296754
 10
-594.149270968621
 20
112.3966516770229
 10
-594.1669566017794
 20
112.408163331849
 10
-594.185344976214
 20
112.4190500358956
 10
-594.2042165020424
 20
112.4291590571461
 10
-594.22357508667
 20
112.4384839021392
 10
-594.2463943652654
 20
112.4482021017962
 10
-594.2697253659924
 20
112.456796848539
210
0.0
220
0.0
230
-1.0
  0
ARC
  5
F4
330
1F
100
AcDbEntity
  8
0
  6
CONTINUOUS
 62
     7
100
AcDbCircle
 10
590.0000000000229
 20
125.0000000002254
 30
0.0
 40
13.25000000062762
100
AcDbArc
 50
288.7986520335309
 51
288.8198617984513
  0
LWPOLYLINE
  5
F5
330
1F
100
AcDbEntity
  8
0
  6
CONTINUOUS
 62
     7
100
AcDbPolyline
 90
       38
 70
     0
 43
0.0
 10
-582.8880867950733
 20
113.292801255605
 10
-582.9006492014008
 20
113.3092415863245
 10
-582.9139280235974
 20
113.3252020901539
 10
-582.9278827410194
 20
113.3406236140437
 10
-582.9426542179965
 20
113.3556340730262
 10
-582.9580726891344
 20
113.3700341235857
 10
-582.9742915743199
 20
113.3839405797384
 10
-582.9911210707489
 20
113.3971649405595
 10
-583.0085661489902
 20
113.4097014924233
 10
-583.0259411110518
 20
113.421105874839
 10
-583.0437748336398
 20
113.4317786247961
 10
-583.0621661030491
 20
113.4417674146901
 10
-583.0809591129419
 20
113.450978142258
 10
-583.0954899012069
 20
113.4574473029211
 10
-583.1102190532879
 20
113.4634511290926
 10
-583.125192911577
 20
113.4690048958426
 10
-583.14033645397
 20
113.474077753372
 10
-583.1609474400043
 20
113.4801337147809
 10
-583.1760036239978
 20
113.4839583038916
 10
-583.1911713169194
 20
113.4873134867439
 10
-583.2064954307897
 20
113.4902060812214
 10
-583.2219022709609
 20
113.4926195531787
 10
-583.2428154517839
 20
113.4951143001751
 10
-583.2638525566191
 20
113.4967283248954
 10
-583.2852063019085
 20
113.4974570251246
 10
-583.3066108014502
 20
113.4972717748691
 10
-583.3280663677263
 20
113.4961650140354
 10
-583.3435421803069
 20
113.4947909338108
 10
-583.3589678569278
 20
113.492936918195
 10
-583.3743880428681
 20
113.490594533428
 10
-583.3897277104893
 20
113.4877725661097
 10
-583.4102911092657
 20
113.4832046446633
 10
-583.4306799344214
 20
113.4777644584703
 10
-583.4510745563356
 20
113.4713838600401
 10
-583.4712145386891
 20
113.4641238387909
 10
-583.4910976704641
 20
113.4559771459808
 10
-583.5135887779754
 20
113.4455218620007
 10
-583.535587406207
 20
113.4339345576367
210
0.0
220
0.0
230
-1.0
  0
ARC
  5
F6
330
1F
100
AcDbEntity
  8
0
  6
CONTINUOUS
 62
     7
100
AcDbCircle
 10
590.0000000000229
 20
125.0000000002254
 30
0.0
 40
13.25000000135485
100
AcDbArc
 50
240.7986520343017
 51
240.8198617992246
  0
ARC
  5
F7
330
1F
100
AcDbEntity
  8
0
  6
CONTINUOUS
 62
     7
100
AcDbCircle
 10
590.0000000000229
 20
125.0000000002254
 30
0.0
 40
13.25000000079929
100
AcDbArc
 50
250.7831862002335
 51
250.8043959651548
  0
LWPOLYLINE
  5
F8
330
1F
100
AcDbEntity
  8
0
  6
CONTINUOUS
 62
     7
100
AcDbPolyline
 90
       38
 70
     0
 43
0.0
 10
-585.6434769907211
 20
112.4866788073896
 10
-585.6628791035338
 20
112.4794704632164
 10
-585.6820317896705
 20
112.471436495245
 10
-585.7008666183784
 20
112.4625983516954
 10
-585.71954713785
 20
112.4528587023949
 10
-585.7378330182032
 20
112.4423216078237
 10
-585.75588086091
 20
112.4308744754128
 10
-585.7734548353479
 20
112.4186436994027
 10
-585.7905509175387
 20
112.4056228351291
 10
-585.8025553779325
 20
112.3957568898395
 10
-585.8142476310528
 20
112.3855228700392
 10
-585.8256597871557
 20
112.3748886074815
 10
-585.8367348263656
 20
112.3639036927421
 10
-585.8511384221516
 20
112.3485296364991
 10
-585.8649056009177
 20
112.3325336530087
 10
-585.8781468800191
 20
112.3157576216402
 10
-585.8906815182357
 20
112.2983989075132
 10
-585.9025035767613
 20
112.2804527549882
 10
-585.910564720572
 20
112.2671701650458
 10
-585.9182094189428
 20
112.2536436052567
 10
-585.9254573222341
 20
112.2398320878006
 10
-585.9322710375164
 20
112.2258012860299
 10
-585.9407725159726
 20
112.2065272511705
 10
-585.948467569948
 20
112.1868770283883
 10
-585.95540814194
 20
112.166664808757
 10
-585.9614890065484
 20
112.1461366836037
 10
-585.9667029839594
 20
112.1252901309657
 10
-585.9708895206876
 20
112.1049298522983
 10
-585.97422652821
 20
112.0844132149095
 10
-585.976721824009
 20
112.0636307562917
 10
-585.9783454176403
 20
112.0427620950152
 10
-585.978994061709
 20
112.0268672289653
 10
-585.9791368063554
 20
112.0109597738522
 10
-585.9787707260475
 20
111.9949909866054
 10
-585.9778948306865
 20
111.9790420372103
 10
-585.9759138217701
 20
111.9576480268113
 10
-585.9724976106181
 20
111.9331513873961
 10
-585.967861147936
 20
111.9087942437362
210
0.0
220
0.0
230
-1.0
  0
ARC
  5
F9
330
1F
100
AcDbEntity
  8
0
  6
CONTINUOUS
 62
     7
100
AcDbCircle
 10
590.0000000000229
 20
125.0000000002254
 30
0.0
 40
13.25000000117158
100
AcDbArc
 50
274.7831861998386
 51
274.8043959647611
  0
LWPOLYLINE
  5
FA
330
1F
100
AcDbEntity
  8
0
  6
CONTINUOUS
 62
     7
100
AcDbPolyline
 90
       38
 70
     0
 43
0.0
 10
-591.1097444493724
 20
111.7965547201917
 10
-591.1304010591123
 20
111.797861120349
 10
-591.1511656176974
 20
111.7983118246671
 10
-591.1719668867474
 20
111.7978985937749
 10
-591.1929938627183
 20
111.7965990331782
 10
-591.2139846681276
 20
111.7944104558866
 10
-591.2351281610623
 20
111.7912936990268
 10
-591.2561574903593
 20
111.7872683085278
 10
-591.2770716012128
 20
111.782326760196
 10
-591.2920510629449
 20
111.7781964246139
 10
-591.3068950185312
 20
111.773602850096
 10
-591.3216458861555
 20
111.7685297099046
 10
-591.3362314052644
 20
111.7629991152121
 10
-591.3556429367952
 20
111.7548126861639
 10
-591.374726033049
 20
111.7457992441817
 10
-591.3936459701084
 20
111.7358592903394
 10
-591.4121573570266
 20
111.7250996125686
 10
-591.4302567027266
 20
111.7135134508462
 10
-591.4430234400829
 20
111.7046579637114
 10
-591.4555089670755
 20
111.6954102154113
 10
-591.4677479064507
 20
111.6857407542301
 10
-591.4796793863084
 20
111.6756943666862
 10
-591.4952853295725
 20
111.6615445224984
 10
-591.510307576828
 20
111.6467230111563
 10
-591.5248691552068
 20
111.6310812146763
 10
-591.5387738421618
 20
111.6148011496465
 10
-591.5520161043817
 20
111.5978775918458
 10
-591.5641219673902
 20
111.5809803696477
 10
-591.5755153436733
 20
111.5635947719927
 10
-591.5862478972689
 20
111.5456239795605
 10
-591.5962191730888
 20
111.5272198838676
 10
-591.6032767633908
 20
111.512963028499
 10
-591.6098773120066
 20
111.498488904616
 10
-591.616037971923
 20
111.483751793287
 10
-591.6217248238321
 20
111.4688254442741
 10
-591.6286168101066
 20
111.4484752943368
 10
-591.6354596268087
 20
111.4247070024155
 10
-591.6411309502331
 20
111.4005698251969
210
0.0
220
0.0
230
-1.0
  0
LWPOLYLINE
  5
FB
330
1F
100
AcDbEntity
  8
0
  6
CONTINUOUS
 62
     7
100
AcDbPolyline
 90
       38
 70
     0
 43
0.0
 10
-588.2646907136103
 20
111.4122660625208
 10
-588.26948015792
 20
111.4323946429503
 10
-588.2751192438711
 20
111.4523762722896
 10
-588.2815950137266
 20
111.4721404303084
 10
-588.2889841257241
 20
111.4918612678879
 10
-588.2972125717713
 20
111.5112876258583
 10
-588.3063729953678
 20
111.5305886206233
 10
-588.3163686732579
 20
111.5495148482639
 10
-588.3272064702226
 20
111.5680631108356
 10
-588.3384407076704
 20
111.5855485663312
 10
-588.3503916254438
 20
111.6025522370341
 10
-588.363130079203
 20
111.6191578538505
 10
-588.3765520076147
 20
111.6352160779388
 10
-588.3871952985386
 20
111.6470361543175
 10
-588.3982090724144
 20
111.6585118083177
 10
-588.4096294521934
 20
111.6696758435594
 10
-588.4214004495169
 20
111.6804695631099
 10
-588.4377663407721
 20
111.6943852024168
 10
-588.4499652487328
 20
111.7040030401611
 10
-588.4624569498941
 20
111.7132374087176
 10
-588.475279700345
 20
111.722112803897
 10
-588.488372901718
 20
111.7305841466924
 10
-588.506463338045
 20
111.7413693684429
 10
-588.5250252066126
 20
111.7514004147953
 10
-588.5442364345405
 20
111.7607514662558
 10
-588.5638657659368
 20
111.7692882260168
 10
-588.5839165612357
 20
111.7770039146868
 10
-588.5986133083
 20
111.7820432099972
 10
-588.6134594611958
 20
111.7866236703789
 10
-588.6284992357346
 20
111.7907557500799
 10
-588.6436605169256
 20
111.7944169595688
 10
-588.6643040575062
 20
111.798607843469
 10
-588.6851428991838
 20
111.8019308683838
 10
-588.7063695365802
 20
111.8043971417251
 10
-588.7277212426478
 20
111.8059564511045
 10
-588.7491989458503
 20
111.8066012751651
 10
-588.7739981420631
 20
111.8061978555449
 10
-588.7988078702377
 20
111.804559974476
210
0.0
220
0.0
230
-1.0
  0
ARC
  5
FC
330
1F
100
AcDbEntity
  8
0
  6
CONTINUOUS
 62
     7
100
AcDbCircle
 10
590.0000000000229
 20
125.0000000002254
 30
0.0
 40
13.2500000009999
100
AcDbArc
 50
264.7986520339154
 51
264.8198617988371
  0
ARC
  5
FD
330
1F
100
AcDbEntity
  8
0
  6
CONTINUOUS
 62
     7
100
AcDbCircle
 10
590.0
 20
125.0000000009765
 30
0.0
 40
15.05
100
AcDbArc
 50
253.3239253894049
 51
262.2791226110251
  0
ARC
  5
FE
330
1F
100
AcDbEntity
  8
0
  6
CONTINUOUS
 62
     7
100
AcDbCircle
 10
590.0
 20
125.0000000009765
 30
0.0
 40
15.04999999999998
100
AcDbArc
 50
229.3239253908085
 51
238.2791226124278
  0
ARC
  5
FF
330
1F
100
AcDbEntity
  8
0
  6
CONTINUOUS
 62
     7
100
AcDbCircle
 10
590.0
 20
125.0000000009765
 30
0.0
 40
15.05000000000004
100
AcDbArc
 50
205.3239253918339
 51
214.2791226134519
  0
ARC
  5
100
330
1F
100
AcDbEntity
  8
0
  6
CONTINUOUS
 62
     7
100
AcDbCircle
 10
590.0
 20
125.0000000009765
 30
0.0
 40
15.04999999999998
100
AcDbArc
 50
181.3239253923034
 51
190.2791226139208
  0
ARC
  5
101
330
1F
100
AcDbEntity
  8
0
  6
CONTINUOUS
 62
     7
100
AcDbCircle
 10
590.0
 20
125.0000000009765
 30
0.0
 40
15.04999999999996
100
AcDbArc
 50
157.3239253921358
 51
166.2791226137535
  0
ARC
  5
102
330
1F
100
AcDbEntity
  8
0
  6
CONTINUOUS
 62
     7
100
AcDbCircle
 10
590.0
 20
125.0000000009765
 30
0.0
 40
15.05000000000003
100
AcDbArc
 50
133.3239253913603
 51
142.279122612979
  0
ARC
  5
103
330
1F
100
AcDbEntity
  8
0
  6
CONTINUOUS
 62
     7
100
AcDbCircle
 10
590.0
 20
125.0000000009765
 30
0.0
 40
15.04999999999998
100
AcDbArc
 50
109.3239253901109
 51
118.2791226117308
  0
ARC
  5
104
330
1F
100
AcDbEntity
  8
0
  6
CONTINUOUS
 62
     7
100
AcDbCircle
 10
590.0
 20
125.0000000009765
 30
0.0
 40
15.05
100
AcDbArc
 50
85.03586572463558
 51
94.56741629563071
  0
ARC
  5
105
330
1F
100
AcDbEntity
  8
0
  6
CONTINUOUS
 62
     7
100
AcDbCircle
 10
590.0
 20
125.0000000009765
 30
0.0
 40
15.05
100
AcDbArc
 50
61.32392538710076
 51
70.27912260872068
  0
ARC
  5
106
330
1F
100
AcDbEntity
  8
0
  6
CONTINUOUS
 62
     7
100
AcDbCircle
 10
590.0
 20
125.0000000009765
 30
0.0
 40
15.04999999999997
100
AcDbArc
 50
37.32392538586026
 51
46.27912260747905
  0
ARC
  5
107
330
1F
100
AcDbEntity
  8
0
  6
CONTINUOUS
 62
     7
100
AcDbCircle
 10
590.0
 20
125.0000000009765
 30
0.0
 40
15.05000000000001
100
AcDbArc
 50
13.32392538509708
 51
22.27912260671468
  0
ARC
  5
108
330
1F
100
AcDbEntity
  8
0
  6
CONTINUOUS
 62
     7
100
AcDbCircle
 10
590.0
 20
125.0000000009765
 30
0.0
 40
15.05000000000003
100
AcDbArc
 50
349.3239253849428
 51
358.2791226065601
  0
ARC
  5
109
330
1F
100
AcDbEntity
  8
0
  6
CONTINUOUS
 62
     7
100
AcDbCircle
 10
590.0
 20
125.0000000009765
 30
0.0
 40
15.05000000000001
100
AcDbArc
 50
325.323925385424
 51
334.2791226070422
  0
ARC
  5
10A
330
1F
100
AcDbEntity
  8
0
  6
CONTINUOUS
 62
     7
100
AcDbCircle
 10
590.0
 20
125.0000000009765
 30
0.0
 40
15.04999999999999
100
AcDbArc
 50
301.3239253864579
 51
310.2791226080772
  0
ARC
  5
10B
330
1F
100
AcDbEntity
  8
0
  6
CONTINUOUS
 62
     7
100
AcDbCircle
 10
590.0
 20
125.0000000009765
 30
0.0
 40
15.04999999999999
100
AcDbArc
 50
277.323925387866
 51
286.2791226094862
  0
CIRCLE
  5
10C
330
1F
100
AcDbEntity
  8
0
  6
CONTINUOUS
 62
     7
100
AcDbCircle
 10
590.0
 20
125.0000000001306
 30
0.0
 40
12.9
  0
ARC
  5
10D
330
1F
100
AcDbEntity
  8
0
  6
CONTINUOUS
 62
     7
100
AcDbCircle
 10
589.9999999989767
 20
125.0000000010233
 30
0.0
 40
15.74999999999993
100
AcDbArc
 50
180.0
 51
225.0
  0
ARC
  5
10E
330
1F
100
AcDbEntity
  8
0
  6
CONTINUOUS
 62
     7
100
AcDbCircle
 10
589.9999999989767
 20
125.0000000010233
 30
0.0
 40
15.75000000000001
100
AcDbArc
 50
225.0
 51
180.0
  0
ARC
  5
10F
330
1F
100
AcDbEntity
  8
0
  6
CONTINUOUS
 62
     7
100
AcDbCircle
 10
589.9999999991646
 20
125.0000000008354
 30
0.0
 40
23.00000000000003
100
AcDbArc
 50
168.3377102707015
 51
191.6622897292994
  0
ARC
  5
110
330
1F
100
AcDbEntity
  8
0
  6
CONTINUOUS
 62
     7
100
AcDbCircle
 10
589.9999999991646
 20
125.0000000008354
 30
0.0
 40
23.0
100
AcDbArc
 50
123.3377102707009
 51
146.6622897292991
  0
ARC
  5
111
330
1F
100
AcDbEntity
  8
0
  6
CONTINUOUS
 62
     7
100
AcDbCircle
 10
589.9999999991646
 20
125.0000000008354
 30
0.0
 40
22.99999999999997
100
AcDbArc
 50
78.33771027070067
 51
101.6622897292985
  0
ARC
  5
112
330
1F
100
AcDbEntity
  8
0
  6
CONTINUOUS
 62
     7
100
AcDbCircle
 10
589.9999999991646
 20
125.0000000008354
 30
0.0
 40
22.99999999999997
100
AcDbArc
 50
33.33771027070125
 51
56.66228972929881
  0
ARC
  5
113
330
1F
100
AcDbEntity
  8
0
  6
CONTINUOUS
 62
     7
100
AcDbCircle
 10
589.9999999991646
 20
125.0000000008354
 30
0.0
 40
22.99999999999992
100
AcDbArc
 50
348.3377102707015
 51
11.6622897292994
  0
ARC
  5
114
330
1F
100
AcDbEntity
  8
0
  6
CONTINUOUS
 62
     7
100
AcDbCircle
 10
589.9999999991646
 20
125.0000000008354
 30
0.0
 40
23.0
100
AcDbArc
 50
303.3377102707009
 51
326.6622897292991
  0
ARC
  5
115
330
1F
100
AcDbEntity
  8
0
  6
CONTINUOUS
 62
     7
100
AcDbCircle
 10
589.9999999991646
 20
125.0000000008354
 30
0.0
 40
23.00000000000002
100
AcDbArc
 50
258.3377102707007
 51
281.6622897292985
  0
ARC
  5
116
330
1F
100
AcDbEntity
  8
0
  6
CONTINUOUS
 62
     7
100
AcDbCircle
 10
589.9999999991646
 20
125.0000000008354
 30
0.0
 40
23.00000000000006
100
AcDbArc
 50
213.3377102707012
 51
236.6622897292987
  0
ARC
  5
117
330
1F
100
AcDbEntity
  8
0
  6
CONTINUOUS
 62
     7
100
AcDbCircle
 10
589.9999999999975
 20
125.0000000000024
 30
0.0
 40
23.50000000000001
100
AcDbArc
 50
180.0000000000059
 51
45.0
  0
ARC
  5
118
330
1F
100
AcDbEntity
  8
0
  6
CONTINUOUS
 62
     7
100
AcDbCircle
 10
589.9999999999975
 20
125.0000000000024
 30
0.0
 40
23.49999999999996
100
AcDbArc
 50
45.0
 51
180.0000000000059
  0
ARC
  5
119
330
1F
100
AcDbEntity
  8
0
  6
CONTINUOUS
 62
     7
100
AcDbCircle
 10
590.0
 20
125.0
 30
0.0
 40
23.49999999999996
100
AcDbArc
 50
45.00000000000829
 51
180.0
  0
ARC
  5
11A
330
1F
100
AcDbEntity
  8
0
  6
CONTINUOUS
 62
     7
100
AcDbCircle
 10
590.0
 20
125.0
 30
0.0
 40
23.5
100
AcDbArc
 50
180.0
 51
45.00000000000829
  0
ARC
  5
11B
330
1F
100
AcDbEntity
  8
0
  6
CONTINUOUS
 62
     7
100
AcDbCircle
 10
590.0
 20
125.0
 30
0.0
 40
11.25000000000001
100
AcDbArc
 50
191.3077294341373
 51
258.6922705658625
  0
ARC
  5
11C
330
1F
100
AcDbEntity
  8
0
  6
CONTINUOUS
 62
     7
100
AcDbCircle
 10
590.0
 20
125.0
 30
0.0
 40
11.25000000000001
100
AcDbArc
 50
101.3077294341374
 51
168.6922705658627
  0
ARC
  5
11D
330
1F
100
AcDbEntity
  8
0
  6
CONTINUOUS
 62
     7
100
AcDbCircle
 10
577.4975002499499
 20
127.5
 30
0.0
 40
1.500000000000025
100
AcDbArc
 50
270.0
 51
348.6922705658626
  0
ARC
  5
11E
330
1F
100
AcDbEntity
  8
0
  6
CONTINUOUS
 62
     7
100
AcDbCircle
 10
577.4975002499499
 20
122.5
 30
0.0
 40
1.500000000000001
100
AcDbArc
 50
11.30772943413734
 51
90.0
  0
LINE
  5
11F
330
1F
100
AcDbEntity
  8
0
  6
CONTINUOUS
 62
     7
100
AcDbLine
 10
577.4975002499499
 20
126.0
 30
0.0
 11
577.2824985570649
 21
126.0
 31
0.0
  0
LINE
  5
120
330
1F
100
AcDbEntity
  8
0
  6
CONTINUOUS
 62
     7
100
AcDbLine
 10
577.1388180947407
 20
126.0
 30
0.0
 11
577.2824985570649
 21
126.0
 31
0.0
  0
LINE
  5
121
330
1F
100
AcDbEntity
  8
0
  6
CONTINUOUS
 62
     7
100
AcDbLine
 10
577.2824985570649
 20
124.0
 30
0.0
 11
577.1388180947611
 21
124.0
 31
0.0
  0
LINE
  5
122
330
1F
100
AcDbEntity
  8
0
  6
CONTINUOUS
 62
     7
100
AcDbLine
 10
577.2824985570649
 20
124.0
 30
0.0
 11
577.4975002499499
 21
124.0
 31
0.0
  0
ARC
  5
123
330
1F
100
AcDbEntity
  8
0
  6
CONTINUOUS
 62
     7
100
AcDbCircle
 10
587.4999999999999
 20
137.50249975005
 30
0.0
 40
1.500000000000057
100
AcDbArc
 50
281.3077294341374
 51
0.0
  0
ARC
  5
124
330
1F
100
AcDbEntity
  8
0
  6
CONTINUOUS
 62
     7
100
AcDbCircle
 10
587.4999999999999
 20
112.49750024995
 30
0.0
 40
1.500000000000009
100
AcDbArc
 50
0.0
 51
78.69227056586254
  0
ARC
  5
125
330
1F
100
AcDbEntity
  8
0
  6
CONTINUOUS
 62
     7
100
AcDbCircle
 10
590.0
 20
125.0
 30
0.0
 40
11.25000000000001
100
AcDbArc
 50
11.30772943413733
 51
78.6922705658627
  0
ARC
  5
126
330
1F
100
AcDbEntity
  8
0
  6
CONTINUOUS
 62
     7
100
AcDbCircle
 10
590.0
 20
125.0
 30
0.0
 40
11.25000000000001
100
AcDbArc
 50
281.3077294341373
 51
348.6922705658627
  0
LINE
  5
127
330
1F
100
AcDbEntity
  8
0
  6
CONTINUOUS
 62
     7
100
AcDbLine
 10
589.0
 20
112.49750024995
 30
0.0
 11
589.0
 21
112.2824985570648
 31
0.0
  0
LINE
  5
128
330
1F
100
AcDbEntity
  8
0
  6
CONTINUOUS
 62
     7
100
AcDbLine
 10
589.0
 20
112.138818094886
 30
0.0
 11
589.0
 21
112.2824985570648
 31
0.0
  0
LINE
  5
129
330
1F
100
AcDbEntity
  8
0
  6
CONTINUOUS
 62
     7
100
AcDbLine
 10
589.0
 20
137.7175014429351
 30
0.0
 11
589.0
 21
137.8611819053751
 31
0.0
  0
LINE
  5
12A
330
1F
100
AcDbEntity
  8
0
  6
CONTINUOUS
 62
     7
100
AcDbLine
 10
589.0
 20
137.7175014429351
 30
0.0
 11
589.0
 21
137.50249975005
 31
0.0
  0
LINE
  5
12B
330
1F
100
AcDbEntity
  8
0
  6
CONTINUOUS
 62
     7
100
AcDbLine
 10
591.0
 20
112.2824985570648
 30
0.0
 11
591.0
 21
112.138818094886
 31
0.0
  0
LINE
  5
12C
330
1F
100
AcDbEntity
  8
0
  6
CONTINUOUS
 62
     7
100
AcDbLine
 10
591.0
 20
112.2824985570648
 30
0.0
 11
591.0
 21
112.49750024995
 31
0.0
  0
ARC
  5
12D
330
1F
100
AcDbEntity
  8
0
  6
CONTINUOUS
 62
     7
100
AcDbCircle
 10
592.4999999999999
 20
137.50249975005
 30
0.0
 40
1.499999999999987
100
AcDbArc
 50
180.0
 51
258.6922705658627
  0
LINE
  5
12E
330
1F
100
AcDbEntity
  8
0
  6
CONTINUOUS
 62
     7
100
AcDbLine
 10
591.0
 20
137.50249975005
 30
0.0
 11
591.0
 21
137.7175014429352
 31
0.0
  0
LINE
  5
12F
330
1F
100
AcDbEntity
  8
0
  6
CONTINUOUS
 62
     7
100
AcDbLine
 10
591.0
 20
137.8611819053752
 30
0.0
 11
591.0
 21
137.7175014429352
 31
0.0
  0
ARC
  5
130
330
1F
100
AcDbEntity
  8
0
  6
CONTINUOUS
 62
     7
100
AcDbCircle
 10
592.4999999999999
 20
112.49750024995
 30
0.0
 40
1.499999999999946
100
AcDbArc
 50
101.3077294341373
 51
180.0
  0
ARC
  5
131
330
1F
100
AcDbEntity
  8
0
  6
CONTINUOUS
 62
     7
100
AcDbCircle
 10
602.50249975005
 20
127.5
 30
0.0
 40
1.500000000000001
100
AcDbArc
 50
191.3077294341374
 51
270.0
  0
ARC
  5
132
330
1F
100
AcDbEntity
  8
0
  6
CONTINUOUS
 62
     7
100
AcDbCircle
 10
602.50249975005
 20
122.5
 30
0.0
 40
1.500000000000025
100
AcDbArc
 50
90.0
 51
168.6922705658626
  0
LINE
  5
133
330
1F
100
AcDbEntity
  8
0
  6
CONTINUOUS
 62
     7
100
AcDbLine
 10
602.7175014429351
 20
126.0
 30
0.0
 11
602.8611819052592
 21
126.0
 31
0.0
  0
LINE
  5
134
330
1F
100
AcDbEntity
  8
0
  6
CONTINUOUS
 62
     7
100
AcDbLine
 10
602.7175014429351
 20
126.0
 30
0.0
 11
602.50249975005
 21
126.0
 31
0.0
  0
LINE
  5
135
330
1F
100
AcDbEntity
  8
0
  6
CONTINUOUS
 62
     7
100
AcDbLine
 10
602.50249975005
 20
124.0
 30
0.0
 11
602.7175014429351
 21
124.0
 31
0.0
  0
LINE
  5
136
330
1F
100
AcDbEntity
  8
0
  6
CONTINUOUS
 62
     7
100
AcDbLine
 10
602.8611819052388
 20
124.0
 30
0.0
 11
602.7175014429351
 21
124.0
 31
0.0
  0
ARC
  5
137
330
1F
100
AcDbEntity
  8
0
  6
CONTINUOUS
 62
     7
100
AcDbCircle
 10
590.0
 20
125.0
 30
0.0
 40
12.7567567567567
100
AcDbArc
 50
175.5039808655698
 51
184.4960191344302
  0
ARC
  5
138
330
1F
100
AcDbEntity
  8
0
  6
CONTINUOUS
 62
     7
100
AcDbCircle
 10
590.0
 20
125.0
 30
0.0
 40
12.75675675675673
100
AcDbArc
 50
85.50398086556989
 51
94.49601913443036
  0
ARC
  5
139
330
1F
100
AcDbEntity
  8
0
  6
CONTINUOUS
 62
     7
100
AcDbCircle
 10
590.0
 20
125.0
 30
0.0
 40
12.75675675675674
100
AcDbArc
 50
265.5039808655697
 51
274.4960191344302
  0
ARC
  5
13A
330
1F
100
AcDbEntity
  8
0
  6
CONTINUOUS
 62
     7
100
AcDbCircle
 10
590.0
 20
125.0
 30
0.0
 40
12.7567567567567
100
AcDbArc
 50
355.5039808655697
 51
4.496019134430185
  0
CIRCLE
  5
13B
330
1F
100
AcDbEntity
  8
0
  6
CONTINUOUS
 62
     7
100
AcDbCircle
 10
590.0
 20
125.0
 30
0.0
 40
11.00000000000001
  0
LINE
  5
13C
330
1F
100
AcDbEntity
  8
0
  6
CONTINUOUS
 62
     7
100
AcDbLine
 10
453.2499999994538
 20
100.0
 30
0.0
 11
453.2499999994538
 21
125.0
 31
0.0
  0
LINE
  5
13D
330
1F
100
AcDbEntity
  8
0
  6
CONTINUOUS
 62
     7
100
AcDbLine
 10
457.2499999994538
 20
100.0
 30
0.0
 11
457.2499999994538
 21
125.0
 31
0.0
  0
LINE
  5
13E
330
1F
100
AcDbEntity
  8
0
  6
CONTINUOUS
 62
     7
100
AcDbLine
 10
457.2499999994538
 20
125.0
 30
0.0
 11
457.2499999994538
 21
150.0
 31
0.0
  0
LINE
  5
13F
330
1F
100
AcDbEntity
  8
0
  6
CONTINUOUS
 62
     7
100
AcDbLine
 10
453.2499999994538
 20
125.0
 30
0.0
 11
453.2499999994538
 21
150.0
 31
0.0
  0
LINE
  5
140
330
1F
100
AcDbEntity
  8
0
  6
CONTINUOUS
 62
   253
100
AcDbLine
 10
452.7522371135267
 20
103.9522271270064
 30
0.0
 11
452.7522371135267
 21
146.0477728729936
 31
0.0
  0
LINE
  5
141
330
1F
100
AcDbEntity
  8
0
  6
CONTINUOUS
 62
     7
100
AcDbLine
 10
408.5499999994539
 20
104.15
 30
0.0
 11
408.5499999994539
 21
125.0
 31
0.0
  0
LINE
  5
142
330
1F
100
AcDbEntity
  8
0
  6
CONTINUOUS
 62
     7
100
AcDbLine
 10
408.5499999994539
 20
125.0
 30
0.0
 11
408.5499999994539
 21
145.85
 31
0.0
  0
LINE
  5
143
330
1F
100
AcDbEntity
  8
0
  6
CONTINUOUS
 62
     7
100
AcDbLine
 10
459.4499999994538
 20
101.75
 30
0.0
 11
459.4499999994538
 21
125.0
 31
0.0
  0
LINE
  5
144
330
1F
100
AcDbEntity
  8
0
  6
CONTINUOUS
 62
     7
100
AcDbLine
 10
462.4499999994538
 20
101.75
 30
0.0
 11
462.4499999994538
 21
125.0
 31
0.0
  0
LINE
  5
145
330
1F
100
AcDbEntity
  8
0
  6
CONTINUOUS
 62
     7
100
AcDbLine
 10
459.4499999994538
 20
125.0
 30
0.0
 11
459.4499999994538
 21
148.25
 31
0.0
  0
LINE
  5
146
330
1F
100
AcDbEntity
  8
0
  6
CONTINUOUS
 62
     7
100
AcDbLine
 10
462.4499999994538
 20
125.0
 30
0.0
 11
462.4499999994538
 21
148.25
 31
0.0
  0
LINE
  5
147
330
1F
100
AcDbEntity
  8
0
  6
CONTINUOUS
 62
   253
100
AcDbLine
 10
458.9540507924349
 20
107.8040181070013
 30
0.0
 11
458.9540507924349
 21
142.1959818929987
 31
0.0
  0
LINE
  5
148
330
1F
100
AcDbEntity
  8
0
  6
CONTINUOUS
 62
   253
100
AcDbLine
 10
528.1526179611518
 20
101.5846734646039
 30
0.0
 11
528.1526179611454
 21
101.727753321833
 31
0.0
  0
LINE
  5
149
330
1F
100
AcDbEntity
  8
0
  6
CONTINUOUS
 62
     7
100
AcDbLine
 10
518.4500000005062
 20
101.5000000000026
 30
0.0
 11
518.44999999871
 21
141.6170093578861
 31
0.0
  0
LINE
  5
14A
330
1F
100
AcDbEntity
  8
0
  6
CONTINUOUS
 62
     7
100
AcDbLine
 10
518.44999999871
 20
141.6170093578861
 30
0.0
 11
518.4499999984018
 21
148.5000000000021
 31
0.0
  0
LINE
  5
14B
330
1F
100
AcDbEntity
  8
0
  6
CONTINUOUS
 62
   253
100
AcDbLine
 10
528.1526179609222
 20
106.7164628534323
 30
0.0
 11
528.1526179607586
 21
110.3716102676676
 31
0.0
  0
ARC
  5
14C
330
1F
100
AcDbEntity
  8
0
  6
CONTINUOUS
 62
   253
100
AcDbCircle
 10
529.8214991569982
 20
107.8665691025819
 30
0.0
 40
2.234081596392461
100
AcDbArc
 50
232.10461668202
 51
271.7519033000741
  0
LWPOLYLINE
  5
14D
330
1F
100
AcDbEntity
  8
0
  6
CONTINUOUS
 62
   253
100
AcDbPolyline
 90
        7
 70
     0
 43
0.0
 10
-528.4492779471843
 20
106.1035802964132
 10
-528.3613247457049
 20
106.1933543645885
 10
-528.2873862822896
 20
106.2898489351416
 10
-528.2289455167385
 20
106.3912335994469
 10
-528.1868178274323
 20
106.4962471422842
 10
-528.1612125468812
 20
106.605261576825
 10
-528.1526179602671
 20
106.716462853432
210
0.0
220
0.0
230
-1.0
  0
LINE
  5
14E
330
1F
100
AcDbEntity
  8
0
  6
CONTINUOUS
 62
   253
100
AcDbLine
 10
535.6737354231143
 20
105.5536015763894
 30
0.0
 11
529.8897988663181
 21
105.6335317699235
 31
0.0
  0
LINE
  5
14F
330
1F
100
AcDbEntity
  8
0
  6
CONTINUOUS
 62
   253
100
AcDbLine
 10
535.6737354238472
 20
102.1102376334618
 30
0.0
 11
535.673735423693
 21
105.5536015763897
 31
0.0
  0
LINE
  5
150
330
1F
100
AcDbEntity
  8
0
  6
CONTINUOUS
 62
     7
100
AcDbLine
 10
529.8897988668707
 20
102.0185440297413
 30
0.0
 11
535.6737354236408
 21
102.1102376334615
 31
0.0
  0
LINE
  5
151
330
1F
100
AcDbEntity
  8
0
  6
CONTINUOUS
 62
   253
100
AcDbLine
 10
528.1526179610297
 20
101.7277533218327
 30
0.0
 11
528.2555258857798
 21
101.8042050557793
 31
0.0
  0
ARC
  5
152
330
1F
100
AcDbEntity
  8
0
  6
CONTINUOUS
 62
   253
100
AcDbCircle
 10
529.8381998973921
 20
96.07437129708269
 30
0.0
 40
5.944396683376128
100
AcDbArc
 50
89.50265090586356
 51
105.4410251904818
  0
LINE
  5
153
330
1F
100
AcDbEntity
  8
0
  6
CONTINUOUS
 62
   253
100
AcDbLine
 10
528.1526179590614
 20
148.2722466790407
 30
0.0
 11
528.152617959055
 21
148.4153265362698
 31
0.0
  0
ARC
  5
154
330
1F
100
AcDbEntity
  8
0
  6
CONTINUOUS
 62
   253
100
AcDbCircle
 10
529.8782033941484
 20
154.4324359240182
 30
0.0
 40
6.4509903740021
100
AcDbArc
 50
256.0448637282179
 51
270.1029875801648
  0
LWPOLYLINE
  5
155
330
1F
100
AcDbEntity
  8
0
  6
CONTINUOUS
 62
   253
100
AcDbPolyline
 90
        3
 70
     0
 43
0.0
 10
-528.3224692615127
 20
148.171847444169
 10
-528.2057915750395
 20
148.2187205856302
 10
-528.1526179589457
 20
148.2722466790409
210
0.0
220
0.0
230
-1.0
  0
LINE
  5
156
330
1F
100
AcDbEntity
  8
0
  6
CONTINUOUS
 62
     7
100
AcDbLine
 10
535.6737354215909
 20
147.8897623680856
 30
0.0
 11
529.8897988648125
 21
147.9814559712879
 31
0.0
  0
LINE
  5
157
330
1F
100
AcDbEntity
  8
0
  6
CONTINUOUS
 62
   253
100
AcDbLine
 10
535.6737354219516
 20
144.4463984251576
 30
0.0
 11
535.6737354217975
 21
147.8897623680854
 31
0.0
  0
LINE
  5
158
330
1F
100
AcDbEntity
  8
0
  6
CONTINUOUS
 62
   253
100
AcDbLine
 10
529.8897988645838
 20
144.3664682311056
 30
0.0
 11
535.673735421373
 21
144.4463984251577
 31
0.0
  0
LWPOLYLINE
  5
159
330
1F
100
AcDbEntity
  8
0
  6
CONTINUOUS
 62
   253
100
AcDbPolyline
 90
        7
 70
     0
 43
0.0
 10
-528.1526179586298
 20
143.2835371474415
 10
-528.1611921157162
 20
143.3939730068549
 10
-528.18663697071
 20
143.5026261185399
 10
-528.2285360992173
 20
143.6080853677873
 10
-528.2864789220702
 20
143.7090051269839
 10
-528.3603163205995
 20
143.8053162968388
 10
-528.4491487309282
 20
143.8962138521731
210
0.0
220
0.0
230
-1.0
  0
ARC
  5
15A
330
1F
100
AcDbEntity
  8
0
  6
CONTINUOUS
 62
   253
100
AcDbCircle
 10
529.8233077767386
 20
142.128284714236
 30
0.0
 40
2.239170944780545
100
AcDbArc
 50
88.29837967042478
 51
127.8568671371496
  0
LINE
  5
15B
330
1F
100
AcDbEntity
  8
0
  6
CONTINUOUS
 62
   253
100
AcDbLine
 10
528.1526179594484
 20
139.628389733206
 30
0.0
 11
528.1526179592848
 21
143.2835371474414
 31
0.0
  0
ARC
  5
15C
330
1F
100
AcDbEntity
  8
0
  6
CONTINUOUS
 62
   253
100
AcDbCircle
 10
529.9032799464264
 20
139.9906588083605
 30
0.0
 40
1.856489269244181
100
AcDbArc
 50
209.4945057401137
 51
269.5839373304675
  0
LWPOLYLINE
  5
15D
330
1F
100
AcDbEntity
  8
0
  6
CONTINUOUS
 62
   253
100
AcDbPolyline
 90
        5
 70
     0
 43
0.0
 10
-528.2873862806142
 20
139.0766347016727
 10
-528.228945515072
 20
139.2112419872947
 10
-528.1868178257753
 20
139.3483333553346
 10
-528.161212545234
 20
139.4881833891858
 10
-528.1526179586298
 20
139.6283897332061
210
0.0
220
0.0
230
-1.0
  0
LINE
  5
15E
330
1F
100
AcDbEntity
  8
0
  6
CONTINUOUS
 62
   253
100
AcDbLine
 10
535.673735421373
 20
137.9246139557393
 30
0.0
 11
529.8897988645838
 21
138.1342184868712
 31
0.0
  0
LINE
  5
15F
330
1F
100
AcDbEntity
  8
0
  6
CONTINUOUS
 62
   253
100
AcDbLine
 10
535.6737354226159
 20
129.6115980245362
 30
0.0
 11
535.6737354222436
 21
137.9246139557391
 31
0.0
  0
LINE
  5
160
330
1F
100
AcDbEntity
  8
0
  6
CONTINUOUS
 62
   253
100
AcDbLine
 10
529.8897988648126
 20
129.4068660567107
 30
0.0
 11
535.673735421591
 21
129.6115980245362
 31
0.0
  0
ARC
  5
161
330
1F
100
AcDbEntity
  8
0
  6
CONTINUOUS
 62
   253
100
AcDbCircle
 10
529.965605401078
 20
127.595431651858
 30
0.0
 40
1.813019921022473
100
AcDbArc
 50
92.39636702491806
 51
180.3429553487227
  0
LINE
  5
162
330
1F
100
AcDbEntity
  8
0
  6
CONTINUOUS
 62
   253
100
AcDbLine
 10
528.1526179602191
 20
122.4154204775944
 30
0.0
 11
528.1526179599877
 21
127.5845795232789
 31
0.0
  0
ARC
  5
163
330
1F
100
AcDbEntity
  8
0
  6
CONTINUOUS
 62
   253
100
AcDbCircle
 10
529.965610619687
 20
122.4045733238421
 30
0.0
 40
1.81302510953573
100
AcDbArc
 50
179.6572028515862
 51
267.6034747850347
  0
LINE
  5
164
330
1F
100
AcDbEntity
  8
0
  6
CONTINUOUS
 62
   253
100
AcDbLine
 10
535.6737354220039
 20
120.3884019770106
 30
0.0
 11
529.8897988652072
 21
120.5931339443182
 31
0.0
  0
LINE
  5
165
330
1F
100
AcDbEntity
  8
0
  6
CONTINUOUS
 62
   253
100
AcDbLine
 10
535.673735423401
 20
112.0753860458079
 30
0.0
 11
535.6737354230288
 21
120.3884019770107
 31
0.0
  0
LINE
  5
166
330
1F
100
AcDbEntity
  8
0
  6
CONTINUOUS
 62
   253
100
AcDbLine
 10
529.8897988657599
 20
111.8657815141578
 30
0.0
 11
535.6737354225304
 21
112.0753860458076
 31
0.0
  0
LWPOLYLINE
  5
167
330
1F
100
AcDbEntity
  8
0
  6
CONTINUOUS
 62
   253
100
AcDbPolyline
 90
        5
 70
     0
 43
0.0
 10
-528.1526179599398
 20
110.3716102676673
 10
-528.1611921170137
 20
110.5108691677658
 10
-528.1866369719951
 20
110.6502538367838
 10
-528.22853610049
 20
110.7878451263094
 10
-528.286478923331
 20
110.921799925914
210
0.0
220
0.0
230
-1.0
  0
ARC
  5
168
330
1F
100
AcDbEntity
  8
0
  6
CONTINUOUS
 62
   253
100
AcDbCircle
 10
529.9039753539081
 20
110.0081208284331
 30
0.0
 40
1.857714777920275
100
AcDbArc
 50
90.43723656213069
 51
150.5390936922431
  0
LWPOLYLINE
  5
169
330
1F
100
AcDbEntity
  8
0
  6
CONTINUOUS
 62
   253
100
AcDbPolyline
 90
        9
 70
     0
 43
0.0
 10
528.449999998311
 20
127.5514668382394
 10
528.4442992505179
 20
127.5578916171344
 10
528.4274136639801
 20
127.5640722224017
 10
528.3999849751652
 20
127.5697737602291
 10
528.3630556109877
 20
127.5747795437554
 10
528.3180290713888
 20
127.5788993282515
 10
528.266616589343
 20
127.5819765413683
 10
528.2107720954731
 20
127.5838942336666
 10
528.1526179589457
 20
127.5845795232789
  0
LINE
  5
16A
330
1F
100
AcDbEntity
  8
0
  6
CONTINUOUS
 62
     7
100
AcDbLine
 10
528.4499999993398
 20
127.5514668382393
 30
0.0
 11
528.4499999995681
 21
122.4485331626607
 31
0.0
  0
LWPOLYLINE
  5
16B
330
1F
100
AcDbEntity
  8
0
  6
CONTINUOUS
 62
   253
100
AcDbPolyline
 90
        9
 70
     0
 43
0.0
 10
528.1526179591771
 20
122.4154204775944
 10
528.2107720957044
 20
122.4161057672119
 10
528.2666165895741
 20
122.4180234595152
 10
528.3180290716197
 20
122.4211006726366
 10
528.3630556112181
 20
122.4252204571368
 10
528.3999849753952
 20
122.4302262406664
 10
528.4274136642097
 20
122.4359277784962
 10
528.4442992507469
 20
122.442108383765
 10
528.4499999985394
 20
122.4485331626606
  0
ARC
  5
16C
330
1F
100
AcDbEntity
  8
0
  6
CONTINUOUS
 62
     7
100
AcDbCircle
 10
529.950025097263
 20
127.5514426005299
 30
0.0
 40
1.500025099147857
100
AcDbArc
 50
92.00092580143871
 51
179.999074203184
  0
LWPOLYLINE
  5
16D
330
1F
100
AcDbEntity
  8
0
  6
CONTINUOUS
 62
   253
100
AcDbPolyline
 90
       10
 70
     0
 43
0.0
 10
529.897650753203
 20
129.0505530788328
 10
529.8983582687356
 20
129.0562981422239
 10
529.8986397872061
 20
129.0732510253198
 10
529.8984845792479
 20
129.1007656117345
 10
529.897898560221
 20
129.1377932523954
 10
529.8969040647628
 20
129.1829227321581
 10
529.8955389955595
 20
129.2344340547126
 10
529.8938553787815
 20
129.2903639959054
 10
529.8919173812362
 20
129.3485809270765
 10
529.8897988648126
 20
129.4068660567107
  0
ARC
  5
16E
330
1F
100
AcDbEntity
  8
0
  6
CONTINUOUS
 62
     7
100
AcDbCircle
 10
529.9500235539032
 20
122.4485559098785
 30
0.0
 40
1.500023555536109
100
AcDbArc
 50
180.0008688660752
 51
267.9991311395645
  0
LWPOLYLINE
  5
16F
330
1F
100
AcDbEntity
  8
0
  6
CONTINUOUS
 62
   253
100
AcDbPolyline
 90
       10
 70
     0
 43
0.0
 10
529.8897988652072
 20
120.5931339443183
 10
529.8919173816255
 20
120.6514190739526
 10
529.8938553791656
 20
120.7096360051238
 10
529.8955389959386
 20
120.7655659463166
 10
529.8969040651373
 20
120.8170772688712
 10
529.8978985605914
 20
120.8622067486339
 10
529.8984845796151
 20
120.8992343892949
 10
529.8986397875708
 20
120.9267489757097
 10
529.8983582690988
 20
120.9437018588057
 10
529.8976507535657
 20
120.9494469221968
  0
LINE
  5
170
330
1F
100
AcDbEntity
  8
0
  6
CONTINUOUS
 62
     7
100
AcDbLine
 10
535.6817071502355
 20
129.2526369324338
 30
0.0
 11
534.852197509075
 21
129.2235696642528
 31
0.0
  0
LWPOLYLINE
  5
171
330
1F
100
AcDbEntity
  8
0
  6
CONTINUOUS
 62
     7
100
AcDbPolyline
 90
        5
 70
     0
 43
0.0
 10
-537.0534243356906
 20
129.6492834344767
 10
-537.012900648345
 20
129.5415402872925
 10
-536.9307943548823
 20
129.4646343599711
 10
-536.8237821855677
 20
129.4045303431596
 10
-536.7143435011297
 20
129.3626858942614
210
0.0
220
0.0
230
-1.0
  0
ARC
  5
172
330
1F
100
AcDbEntity
  8
0
  6
CONTINUOUS
 62
     7
100
AcDbCircle
 10
535.8107954563513
 20
132.9412044525835
 30
0.0
 40
3.690825672052179
100
AcDbArc
 50
267.9956452684903
 51
284.1705577602553
  0
LINE
  5
173
330
1F
100
AcDbEntity
  8
0
  6
CONTINUOUS
 62
     7
100
AcDbLine
 10
537.0534243366991
 20
129.6492834344766
 30
0.0
 11
537.0534243371154
 21
120.3507165671938
 31
0.0
  0
ARC
  5
174
330
1F
100
AcDbEntity
  8
0
  6
CONTINUOUS
 62
     7
100
AcDbCircle
 10
535.7386256185611
 20
116.0660432271642
 30
0.0
 40
4.681665854653039
100
AcDbArc
 50
79.2011344646026
 51
90.6966042506803
  0
LWPOLYLINE
  5
175
330
1F
100
AcDbEntity
  8
0
  6
CONTINUOUS
 62
     7
100
AcDbPolyline
 90
        6
 70
     0
 43
0.0
 10
-536.6157912649641
 20
120.664801277268
 10
-536.7768063979663
 20
120.6150996141016
 10
-536.8917139888854
 20
120.5605427491507
 10
-536.982410813347
 20
120.4928099662597
 10
-537.0428607298203
 20
120.4055577529236
 10
-537.0534243361069
 20
120.3507165671937
210
0.0
220
0.0
230
-1.0
  0
LINE
  5
176
330
1F
100
AcDbEntity
  8
0
  6
CONTINUOUS
 62
     7
100
AcDbLine
 10
534.8521975094533
 20
120.7764303372206
 30
0.0
 11
535.6817071506165
 21
120.7473630691138
 31
0.0
  0
LINE
  5
177
330
1F
100
AcDbEntity
  8
0
  6
CONTINUOUS
 62
     7
100
AcDbLine
 10
537.0534243358775
 20
148.0000000008351
 30
0.0
 11
537.0534243358986
 21
147.5251895350803
 31
0.0
  0
LINE
  5
178
330
1F
100
AcDbEntity
  8
0
  6
CONTINUOUS
 62
   253
100
AcDbLine
 10
538.5453332942485
 20
146.1262621051143
 30
0.0
 11
538.5453332958633
 21
110.0614768058894
 31
0.0
  0
LINE
  5
179
330
1F
100
AcDbEntity
  8
0
  6
CONTINUOUS
 62
   253
100
AcDbLine
 10
537.0534243361069
 20
120.3507165671937
 30
0.0
 11
535.6737354220039
 21
120.3884019770106
 31
0.0
  0
LINE
  5
17A
330
1F
100
AcDbEntity
  8
0
  6
CONTINUOUS
 62
   253
100
AcDbLine
 10
535.6737354215909
 20
129.6115980245362
 30
0.0
 11
537.0534243356905
 21
129.6492834344767
 31
0.0
  0
ARC
  5
17B
330
1F
100
AcDbEntity
  8
0
  6
CONTINUOUS
 62
   253
100
AcDbCircle
 10
535.5527440974015
 20
133.8493925672837
 30
0.0
 40
4.077017079361061
100
AcDbArc
 50
68.40256722919895
 51
88.29941596418277
  0
LINE
  5
17C
330
1F
100
AcDbEntity
  8
0
  6
CONTINUOUS
 62
     7
100
AcDbLine
 10
537.053424336047
 20
144.2152541115984
 30
0.0
 11
537.0534243363414
 21
137.640174424426
 31
0.0
  0
ARC
  5
17D
330
1F
100
AcDbEntity
  8
0
  6
CONTINUOUS
 62
   253
100
AcDbCircle
 10
535.7369409225744
 20
140.5904495001789
 30
0.0
 40
3.856466912528507
100
AcDbArc
 50
70.03961553834637
 51
90.9390902839673
  0
ARC
  5
17E
330
1F
100
AcDbEntity
  8
0
  6
CONTINUOUS
 62
   253
100
AcDbCircle
 10
535.6265031774115
 20
144.9180839249065
 30
0.0
 40
2.972053777196093
100
AcDbArc
 50
61.30722843791693
 51
89.0894100923524
  0
LINE
  5
17F
330
1F
100
AcDbEntity
  8
0
  6
CONTINUOUS
 62
     7
100
AcDbLine
 10
537.0534243379159
 20
102.4748104665905
 30
0.0
 11
537.0534243379373
 21
102.0000000008356
 31
0.0
  0
ARC
  5
180
330
1F
100
AcDbEntity
  8
0
  6
CONTINUOUS
 62
   253
100
AcDbCircle
 10
535.6262401689622
 20
105.0829114121899
 30
0.0
 40
2.973053177115442
100
AcDbArc
 50
270.9153530865426
 51
298.6880083934498
  0
ARC
  5
181
330
1F
100
AcDbEntity
  8
0
  6
CONTINUOUS
 62
   253
100
AcDbCircle
 10
535.7374131103087
 20
109.4067320446013
 30
0.0
 40
3.853656608068443
100
AcDbArc
 50
269.0532034513917
 51
289.9680907365566
  0
LINE
  5
182
330
1F
100
AcDbEntity
  8
0
  6
CONTINUOUS
 62
     7
100
AcDbLine
 10
537.0534243374733
 20
112.3598255772446
 30
0.0
 11
537.0534243377676
 21
105.7847458900725
 31
0.0
  0
ARC
  5
183
330
1F
100
AcDbEntity
  8
0
  6
CONTINUOUS
 62
   253
100
AcDbCircle
 10
535.5522420021641
 20
116.1530428774648
 30
0.0
 40
4.079466372940493
100
AcDbArc
 50
271.7066177332978
 51
291.5913990835836
  0
LINE
  5
184
330
1F
100
AcDbEntity
  8
0
  6
CONTINUOUS
 62
   253
100
AcDbLine
 10
538.5453332958633
 20
110.0614768058894
 30
0.0
 11
538.5453332961404
 21
103.8737378966901
 31
0.0
  0
LWPOLYLINE
  5
185
330
1F
100
AcDbEntity
  8
0
  6
CONTINUOUS
 62
   253
100
AcDbPolyline
 90
       10
 70
     0
 43
0.0
 10
535.6737354220039
 20
120.3884019770106
 10
535.6758434597559
 20
120.4460850774054
 10
535.6777747269032
 20
120.5038267179041
 10
535.6794569865907
 20
120.5594671379951
 10
535.6808273158047
 20
120.6109251709308
 10
535.6818344589365
 20
120.6562760874072
 10
535.6824407449405
 20
120.6938235878782
 10
535.6826234963772
 20
120.7221632507146
 10
535.6823758776366
 20
120.7402350630006
 10
535.6817071506165
 20
120.7473630691137
  0
LINE
  5
186
330
1F
100
AcDbEntity
  8
0
  6
CONTINUOUS
 62
     7
100
AcDbLine
 10
529.8976507535365
 20
120.9494469222334
 30
0.0
 11
534.8521975094411
 21
120.7764303372565
 31
0.0
  0
LINE
  5
187
330
1F
100
AcDbEntity
  8
0
  6
CONTINUOUS
 62
     7
100
AcDbLine
 10
534.8521975090626
 20
129.2235696642171
 30
0.0
 11
529.8976507531738
 21
129.0505530787965
 31
0.0
  0
LWPOLYLINE
  5
188
330
1F
100
AcDbEntity
  8
0
  6
CONTINUOUS
 62
   253
100
AcDbPolyline
 90
       10
 70
     0
 43
0.0
 10
535.6817071502356
 20
129.2526369324339
 10
535.6823758772551
 20
129.2597649385471
 10
535.6826234959941
 20
129.2778367508331
 10
535.6824407445549
 20
129.3061764136694
 10
535.6818344585473
 20
129.3437239141404
 10
535.6808273154115
 20
129.3890748306167
 10
535.679456986193
 20
129.4405328635523
 10
535.6777747265006
 20
129.4961732836431
 10
535.675843459348
 20
129.5539149241416
 10
535.673735421591
 20
129.6115980245362
  0
LINE
  5
189
330
1F
100
AcDbEntity
  8
0
  6
CONTINUOUS
 62
   253
100
AcDbLine
 10
539.0528023236948
 20
105.7676380911302
 30
0.0
 11
539.0528023219725
 21
144.2323619107196
 31
0.0
  0
LINE
  5
18A
330
1F
100
AcDbEntity
  8
0
  6
CONTINUOUS
 62
     7
100
AcDbLine
 10
536.7768063973606
 20
137.8645669041943
 30
0.0
 11
537.0534243355002
 21
137.6401744244262
 31
0.0
  0
LWPOLYLINE
  5
18B
330
1F
100
AcDbEntity
  8
0
  6
CONTINUOUS
 62
   253
100
AcDbPolyline
 90
        6
 70
     0
 43
0.0
 10
535.6819018238165
 20
138.0583691180049
 10
535.6809075951109
 20
138.0526376501451
 10
535.6795346963343
 20
138.0355317482494
 10
535.6778362294828
 20
138.0077130470659
 10
535.6758778891158
 20
137.9702575389306
 10
535.673735421373
 20
137.9246139557395
  0
LWPOLYLINE
  5
18C
330
1F
100
AcDbEntity
  8
0
  6
CONTINUOUS
 62
   253
100
AcDbPolyline
 90
        6
 70
     0
 43
0.0
 10
535.6737354225304
 20
112.0753860458074
 10
535.6758778881034
 20
112.0297425066693
 10
535.6778362267705
 20
111.9922870236882
 10
535.679534692617
 20
111.9644683247447
 10
535.6809075912603
 20
111.947362399829
 10
535.6819018208209
 20
111.9416308831899
  0
LINE
  5
18D
330
1F
100
AcDbEntity
  8
0
  6
CONTINUOUS
 62
     7
100
AcDbLine
 10
537.0534243366129
 20
112.3598255772445
 30
0.0
 11
536.7874010336952
 21
112.1389531921034
 31
0.0
  0
LINE
  5
18E
330
1F
100
AcDbEntity
  8
0
  6
CONTINUOUS
 62
     7
100
AcDbLine
 10
528.4442472491661
 20
110.5224965259954
 30
0.0
 11
528.4499999992925
 21
110.5590238325454
 31
0.0
  0
LWPOLYLINE
  5
18F
330
1F
100
AcDbEntity
  8
0
  6
CONTINUOUS
 62
   253
100
AcDbPolyline
 90
        6
 70
     0
 43
0.0
 10
529.8897988657599
 20
111.8657815141578
 10
529.8919133686913
 20
111.8208751886298
 10
529.8938482119717
 20
111.7840658957899
 10
529.8955299426807
 20
111.7567510356617
 10
529.8968947168715
 20
111.7399675688394
 10
529.897890723294
 20
111.7343526501047
  0
LWPOLYLINE
  5
190
330
1F
100
AcDbEntity
  8
0
  6
CONTINUOUS
 62
   253
100
AcDbPolyline
 90
        8
 70
     0
 43
0.0
 10
528.1526179599399
 20
110.3716102676673
 10
528.2107346848169
 20
110.3754840859747
 10
528.2665461890841
 20
110.3863242630079
 10
528.3179341143641
 20
110.4037193534897
 10
528.3629480018141
 20
110.4270091165589
 10
528.3998793229354
 20
110.4553095755988
 10
528.4273263277747
 20
110.4875465700886
 10
528.4442472491661
 20
110.5224965259954
  0
LINE
  5
191
330
1F
100
AcDbEntity
  8
0
  6
CONTINUOUS
 62
     7
100
AcDbLine
 10
528.4499999979992
 20
139.4409761683546
 30
0.0
 11
528.444244261004
 21
139.4775128644592
 31
0.0
  0
LWPOLYLINE
  5
192
330
1F
100
AcDbEntity
  8
0
  6
CONTINUOUS
 62
   253
100
AcDbPolyline
 90
        8
 70
     0
 43
0.0
 10
528.444244261004
 20
139.4775128644592
 10
528.4273213170675
 20
139.512461016152
 10
528.3998732645355
 20
139.5446961207964
 10
528.362941832672
 20
139.5729947673034
 10
528.3179286711312
 20
139.5962829440226
 10
528.2665421534888
 20
139.6136768004452
 10
528.2107325397549
 20
139.6245161917675
 10
528.1526179586298
 20
139.6283897332061
  0
LWPOLYLINE
  5
193
330
1F
100
AcDbEntity
  8
0
  6
CONTINUOUS
 62
   253
100
AcDbPolyline
 90
        6
 70
     0
 43
0.0
 10
529.8978930080516
 20
138.2656470848474
 10
529.8968974398076
 20
138.2600582576195
 10
529.8955325785059
 20
138.2432871274255
 10
529.8938502979636
 20
138.2159711088791
 10
529.8919145360422
 20
138.1791483925625
 10
529.8897988645837
 20
138.1342184868709
  0
ARC
  5
194
330
1F
100
AcDbEntity
  8
0
  6
CONTINUOUS
 62
     7
100
AcDbCircle
 10
529.8549275648398
 20
108.0042579237338
 30
0.0
 40
1.878180702203846
100
AcDbArc
 50
231.9400580140763
 51
271.3034260281022
  0
LWPOLYLINE
  5
195
330
1F
100
AcDbEntity
  8
0
  6
CONTINUOUS
 62
     7
100
AcDbPolyline
 90
        6
 70
     0
 43
0.0
 10
-528.6970563142348
 20
106.5254418712265
 10
-528.6238762203778
 20
106.600186526996
 10
-528.5624286953374
 20
106.6801802828675
 10
-528.4944978677676
 20
106.8071133480472
 10
-528.4572068495875
 20
106.9409558115846
 10
-528.4499999996154
 20
107.0327650324597
210
0.0
220
0.0
230
-1.0
  0
ARC
  5
196
330
1F
100
AcDbEntity
  8
0
  6
CONTINUOUS
 62
     7
100
AcDbCircle
 10
535.8952522230363
 20
101.5165989908118
 30
0.0
 40
4.498365009553805
100
AcDbArc
 50
77.20188403481859
 51
92.72095115472655
  0
LWPOLYLINE
  5
197
330
1F
100
AcDbEntity
  8
0
  6
CONTINUOUS
 62
     7
100
AcDbPolyline
 90
        3
 70
     0
 43
0.0
 10
-536.8917139899798
 20
105.903209493945
 10
-536.9940505702286
 20
105.8580628439391
 10
-537.0534243372017
 20
105.7847458900721
210
0.0
220
0.0
230
-1.0
  0
LINE
  5
198
330
1F
100
AcDbEntity
  8
0
  6
CONTINUOUS
 62
     7
100
AcDbLine
 10
534.8521975107894
 20
106.0265928183336
 30
0.0
 11
535.6817071517073
 21
106.0098924668369
 31
0.0
  0
LINE
  5
199
330
1F
100
AcDbEntity
  8
0
  6
CONTINUOUS
 62
     7
100
AcDbLine
 10
529.8976507546553
 20
106.1265631990299
 30
0.0
 11
534.8521975107878
 21
106.0265928183341
 31
0.0
  0
LWPOLYLINE
  5
19A
330
1F
100
AcDbEntity
  8
0
  6
CONTINUOUS
 62
     7
100
AcDbPolyline
 90
        6
 70
     0
 43
0.0
 10
-528.4499999980065
 20
142.9672349684404
 10
-528.4660193910138
 20
143.1031966281268
 10
-528.5132663651457
 20
143.2350091237156
 10
-528.5907966846211
 20
143.3593286616521
 10
-528.6587974905566
 20
143.4374516015016
 10
-528.73878203585
 20
143.5107179779844
210
0.0
220
0.0
230
-1.0
  0
ARC
  5
19B
330
1F
100
AcDbEntity
  8
0
  6
CONTINUOUS
 62
     7
100
AcDbCircle
 10
529.8727073907141
 20
141.9205060598167
 30
0.0
 40
1.953090027389039
100
AcDbArc
 50
89.26824251989503
 51
125.4913595893604
  0
LINE
  5
19C
330
1F
100
AcDbEntity
  8
0
  6
CONTINUOUS
 62
     7
100
AcDbLine
 10
534.8521975090897
 20
143.9734071831398
 30
0.0
 11
529.8976507529662
 21
143.8734368020003
 31
0.0
  0
LINE
  5
19D
330
1F
100
AcDbEntity
  8
0
  6
CONTINUOUS
 62
     7
100
AcDbLine
 10
535.6817071500067
 20
143.9901075347109
 30
0.0
 11
534.8521975090904
 21
143.9734071831398
 31
0.0
  0
LWPOLYLINE
  5
19E
330
1F
100
AcDbEntity
  8
0
  6
CONTINUOUS
 62
     7
100
AcDbPolyline
 90
        3
 70
     0
 43
0.0
 10
-537.0534243354809
 20
144.2152541115985
 10
-536.9799405752374
 20
144.1338348973844
 10
-536.8788320282824
 20
144.0925976472616
210
0.0
220
0.0
230
-1.0
  0
ARC
  5
19F
330
1F
100
AcDbEntity
  8
0
  6
CONTINUOUS
 62
     7
100
AcDbCircle
 10
535.9299889675008
 20
148.1327682028096
 30
0.0
 40
4.150094128078302
100
AcDbArc
 50
266.5701983426612
 51
283.2165273779833
  0
LINE
  5
1A0
330
1F
100
AcDbEntity
  8
0
  6
CONTINUOUS
 62
   253
100
AcDbLine
 10
540.9569307954403
 20
107.2498078480917
 30
0.0
 11
540.9569307952074
 21
112.4487187623173
 31
0.0
  0
LINE
  5
1A1
330
1F
100
AcDbEntity
  8
0
  6
CONTINUOUS
 62
   253
100
AcDbLine
 10
540.9569307952074
 20
112.4487187623173
 30
0.0
 11
540.9569307938507
 21
142.7501921539286
 31
0.0
  0
LINE
  5
1A2
330
1F
100
AcDbEntity
  8
0
  6
CONTINUOUS
 62
     7
100
AcDbLine
 10
528.4500000001005
 20
110.5590238325457
 30
0.0
 11
528.4500000002621
 21
106.9507048265989
 31
0.0
  0
LWPOLYLINE
  5
1A3
330
1F
100
AcDbEntity
  8
0
  6
CONTINUOUS
 62
   253
100
AcDbPolyline
 90
        9
 70
     0
 43
0.0
 10
528.1526179602671
 20
106.716462853432
 10
528.2107720967941
 20
106.7213106509274
 10
528.2666165906631
 20
106.7348765706894
 10
528.3180290727073
 20
106.7566450401372
 10
528.3630556123039
 20
106.7857887489102
 10
528.399984976479
 20
106.8212000907858
 10
528.4274136652909
 20
106.8615332582377
 10
528.4442992518256
 20
106.9052553898309
 10
528.4499999996154
 20
106.9507048265985
  0
LWPOLYLINE
  5
1A4
330
1F
100
AcDbEntity
  8
0
  6
CONTINUOUS
 62
   253
100
AcDbPolyline
 90
        9
 70
     0
 43
0.0
 10
528.4499999979992
 20
143.0492951743016
 10
528.4442992502052
 20
143.0947446110686
 10
528.4274136636667
 20
143.1384667426604
 10
528.3999849748511
 20
143.1787999101098
 10
528.3630556106729
 20
143.2142112519821
 10
528.3180290710736
 20
143.243354960751
 10
528.2666165890275
 20
143.2651234301943
 10
528.2107720951574
 20
143.2786893499513
 10
528.1526179586298
 20
143.2835371474415
  0
LINE
  5
1A5
330
1F
100
AcDbEntity
  8
0
  6
CONTINUOUS
 62
     7
100
AcDbLine
 10
528.4499999986458
 20
143.0492951743015
 30
0.0
 11
528.4499999988074
 21
139.4409761683546
 31
0.0
  0
LINE
  5
1A6
330
1F
100
AcDbEntity
  8
0
  6
CONTINUOUS
 62
     7
100
AcDbLine
 10
541.4499999986815
 20
142.2502401921803
 30
0.0
 11
541.4499999999999
 21
112.8022381847747
 31
0.0
  0
LINE
  5
1A7
330
1F
100
AcDbEntity
  8
0
  6
CONTINUOUS
 62
     7
100
AcDbLine
 10
541.45
 20
112.8022381847747
 30
0.0
 11
541.4500000002264
 21
107.7497598098842
 31
0.0
  0
ARC
  5
1A8
330
1F
100
AcDbEntity
  8
0
  6
CONTINUOUS
 62
   253
100
AcDbCircle
 10
529.8322926901208
 20
141.9800704860557
 30
0.0
 40
1.927226664247338
100
AcDbArc
 50
88.05655484171578
 51
126.084167552886
  0
LWPOLYLINE
  5
1A9
330
1F
100
AcDbEntity
  8
0
  6
CONTINUOUS
 62
   253
100
AcDbPolyline
 90
        6
 70
     0
 43
0.0
 10
528.697208095952
 20
143.5375638502364
 10
528.6231815794497
 20
143.4655976700339
 10
528.5357566019878
 20
143.3494138836737
 10
528.4783847139144
 20
143.2247199652132
 10
528.4517979527137
 20
143.0937081097177
 10
528.4499999979993
 20
143.0492951743016
  0
LWPOLYLINE
  5
1AA
330
1F
100
AcDbEntity
  8
0
  6
CONTINUOUS
 62
   253
100
AcDbPolyline
 90
       10
 70
     0
 43
0.0
 10
529.8976507529636
 20
143.9061885870577
 10
529.8983582684954
 20
143.9514614972144
 10
529.8986397869655
 20
144.0030888970018
 10
529.8984845790076
 20
144.0591031382754
 10
529.8978985599815
 20
144.1173693794902
 10
529.8969040645247
 20
144.1756669498031
 10
529.8955389953231
 20
144.2317739843412
 10
529.8938553785474
 20
144.2835521049784
 10
529.8919173810045
 20
144.329027919225
 10
529.8897988645838
 20
144.3664682311057
  0
LWPOLYLINE
  5
1AB
330
1F
100
AcDbEntity
  8
0
  6
CONTINUOUS
 62
   253
100
AcDbPolyline
 90
        5
 70
     0
 43
0.0
 10
528.4499999996154
 20
106.9507048265985
 10
528.4660786174209
 20
106.817700577349
 10
528.513654863556
 20
106.6906291205552
 10
528.5916182945253
 20
106.5710935420772
 10
528.6972717273077
 20
106.4623091610872
  0
ARC
  5
1AC
330
1F
100
AcDbEntity
  8
0
  6
CONTINUOUS
 62
   253
100
AcDbCircle
 10
529.8306502147053
 20
108.0149199201369
 30
0.0
 40
1.922276505816139
100
AcDbArc
 50
233.8712146853387
 51
271.9974368165554
  0
LWPOLYLINE
  5
1AD
330
1F
100
AcDbEntity
  8
0
  6
CONTINUOUS
 62
   253
100
AcDbPolyline
 90
       10
 70
     0
 43
0.0
 10
529.889798866318
 20
105.6335317699234
 10
529.8919173827354
 20
105.6709720818043
 10
529.8938553802742
 20
105.7164478960511
 10
529.8955389970455
 20
105.7682260166884
 10
529.8969040662419
 20
105.8243330512267
 10
529.8978985616936
 20
105.8826306215396
 10
529.8984845807144
 20
105.9408968627545
 10
529.8986397886672
 20
105.9969111040281
 10
529.8983582701925
 20
106.0485385038155
 10
529.8976507546566
 20
106.093811413972
  0
LINE
  5
1AE
330
1F
100
AcDbEntity
  8
0
  6
CONTINUOUS
 62
   253
100
AcDbLine
 10
529.8976507529667
 20
143.8734368020003
 30
0.0
 11
529.8976507529637
 21
143.9061885870577
 31
0.0
  0
LINE
  5
1AF
330
1F
100
AcDbEntity
  8
0
  6
CONTINUOUS
 62
   253
100
AcDbLine
 10
529.8976507546566
 20
106.0938114139721
 30
0.0
 11
529.8976507546568
 21
106.1265631990294
 31
0.0
  0
LWPOLYLINE
  5
1B0
330
1F
100
AcDbEntity
  8
0
  6
CONTINUOUS
 62
   253
100
AcDbPolyline
 90
       10
 70
     0
 43
0.0
 10
535.6737354231144
 20
105.5536015763894
 10
535.6758434608655
 20
105.5902325293767
 10
535.6777747280115
 20
105.6348383417905
 10
535.6794569876973
 20
105.6857505838562
 10
535.680827316909
 20
105.7410649409578
 10
535.6818344600383
 20
105.7987124423635
 10
535.6824407460397
 20
105.8565368487277
 10
535.6826234974737
 20
105.9123753037758
 10
535.6823758787302
 20
105.9641392334874
 10
535.6817071517074
 20
106.0098924668368
  0
LINE
  5
1B1
330
1F
100
AcDbEntity
  8
0
  6
CONTINUOUS
 62
   253
100
AcDbLine
 10
529.8976507546615
 20
106.093811413972
 30
0.0
 11
534.8521975107878
 21
106.0265928183341
 31
0.0
  0
LINE
  5
1B2
330
1F
100
AcDbEntity
  8
0
  6
CONTINUOUS
 62
   253
100
AcDbLine
 10
534.8521975090894
 20
143.9734071831398
 30
0.0
 11
529.8976507529736
 21
143.9061885870583
 31
0.0
  0
LWPOLYLINE
  5
1B3
330
1F
100
AcDbEntity
  8
0
  6
CONTINUOUS
 62
   253
100
AcDbPolyline
 90
       10
 70
     0
 43
0.0
 10
535.6817071500068
 20
143.9901075347109
 10
535.6823758770256
 20
144.0358607680603
 10
535.6826234957645
 20
144.0876246977719
 10
535.6824407443254
 20
144.14346315282
 10
535.6818344583188
 20
144.2012875591843
 10
535.6808273151844
 20
144.2589350605899
 10
535.6794569859677
 20
144.3142494176914
 10
535.6777747262773
 20
144.365161659757
 10
535.6758434591273
 20
144.4097674721706
 10
535.673735421373
 20
144.4463984251577
  0
LINE
  5
1B4
330
1F
100
AcDbEntity
  8
0
  6
CONTINUOUS
 62
     7
100
AcDbLine
 10
537.0534243377076
 20
102.4748104665903
 30
0.0
 11
537.0360339798252
 21
102.4603716236543
 31
0.0
  0
LWPOLYLINE
  5
1B5
330
1F
100
AcDbEntity
  8
0
  6
CONTINUOUS
 62
     7
100
AcDbPolyline
 90
        3
 70
     0
 43
0.0
 10
535.6737354236407
 20
102.1102376334615
 10
535.6754076855135
 20
102.1046701986551
 10
535.6769803148302
 20
102.1060615166478
  0
LINE
  5
1B6
330
1F
100
AcDbEntity
  8
0
  6
CONTINUOUS
 62
     7
100
AcDbLine
 10
537.0368717473342
 20
147.5392767088083
 30
0.0
 11
537.0534243357098
 21
147.5251895350805
 31
0.0
  0
LWPOLYLINE
  5
1B7
330
1F
100
AcDbEntity
  8
0
  6
CONTINUOUS
 62
     7
100
AcDbPolyline
 90
        3
 70
     0
 43
0.0
 10
535.6769803218523
 20
147.8939384556276
 10
535.6754076883549
 20
147.8953298091874
 10
535.673735421591
 20
147.8897623680856
  0
LWPOLYLINE
  5
1B8
330
1F
100
AcDbEntity
  8
0
  6
CONTINUOUS
 62
     7
100
AcDbPolyline
 90
        3
 70
     0
 43
0.0
 10
529.8897988668707
 20
102.0185440297413
 10
529.8914472146664
 20
102.0134187125936
 10
529.8929985566142
 20
102.015108917689
  0
LWPOLYLINE
  5
1B9
330
1F
100
AcDbEntity
  8
0
  6
CONTINUOUS
 62
   253
100
AcDbPolyline
 90
        5
 70
     0
 43
0.0
 10
528.1526179610297
 20
101.7277533218327
 10
528.2144255772772
 20
101.7346986096955
 10
528.2734635999623
 20
101.7541627439635
 10
528.3271940412944
 20
101.7853089802325
 10
528.3733070812992
 20
101.8267983717735
  0
LWPOLYLINE
  5
1BA
330
1F
100
AcDbEntity
  8
0
  6
CONTINUOUS
 62
   253
100
AcDbPolyline
 90
        5
 70
     0
 43
0.0
 10
528.373381831693
 20
148.1731187827978
 10
528.3272617930609
 20
148.2146417156014
 10
528.2735146174556
 20
148.2458143536921
 10
528.2144529130215
 20
148.2652954154875
 10
528.1526179589457
 20
148.2722466790409
  0
LWPOLYLINE
  5
1BB
330
1F
100
AcDbEntity
  8
0
  6
CONTINUOUS
 62
     7
100
AcDbPolyline
 90
        3
 70
     0
 43
0.0
 10
529.8929987749356
 20
147.984890329658
 10
529.8914473313039
 20
147.9865814158465
 10
529.8897988648127
 20
147.9814559712879
  0
LINE
  5
1BC
330
1F
100
AcDbEntity
  8
0
  6
CONTINUOUS
 62
     7
100
AcDbLine
 10
518.4499999994538
 20
101.5
 30
0.0
 11
518.4499999994538
 21
125.0
 31
0.0
  0
LINE
  5
1BD
330
1F
100
AcDbEntity
  8
0
  6
CONTINUOUS
 62
   253
100
AcDbLine
 10
517.2173269874327
 20
148.5
 30
0.0
 11
517.2173269874327
 21
101.5
 31
0.0
  0
LINE
  5
1BE
330
1F
100
AcDbEntity
  8
0
  6
CONTINUOUS
 62
     7
100
AcDbLine
 10
518.4499999994538
 20
125.0
 30
0.0
 11
518.4499999994538
 21
141.6170093578863
 31
0.0
  0
LINE
  5
1BF
330
1F
100
AcDbEntity
  8
0
  6
CONTINUOUS
 62
     7
100
AcDbLine
 10
518.4499999994538
 20
141.6170093578863
 30
0.0
 11
518.4499999994538
 21
148.5
 31
0.0
  0
LINE
  5
1C0
330
1F
100
AcDbEntity
  8
0
  6
CONTINUOUS
 62
   253
100
AcDbLine
 10
516.2514011611437
 20
102.2411809548975
 30
0.0
 11
516.2514011611437
 21
125.0
 31
0.0
  0
LINE
  5
1C1
330
1F
100
AcDbEntity
  8
0
  6
CONTINUOUS
 62
   253
100
AcDbLine
 10
516.2514011611437
 20
125.0
 30
0.0
 11
516.2514011611437
 21
147.7588190451025
 31
0.0
  0
LINE
  5
1C2
330
1F
100
AcDbEntity
  8
0
  6
CONTINUOUS
 62
   253
100
AcDbLine
 10
515.9716366886464
 20
146.7147238195899
 30
0.0
 11
515.9716366886464
 21
103.2852761804101
 31
0.0
  0
LINE
  5
1C3
330
1F
100
AcDbEntity
  8
0
  6
CONTINUOUS
 62
   253
100
AcDbLine
 10
512.1079333834901
 20
106.25
 30
0.0
 11
512.1079333834901
 21
125.0
 31
0.0
  0
LINE
  5
1C4
330
1F
100
AcDbEntity
  8
0
  6
CONTINUOUS
 62
   253
100
AcDbLine
 10
512.1079333834901
 20
125.0
 30
0.0
 11
512.1079333834901
 21
143.75
 31
0.0
  0
LINE
  5
1C5
330
1F
100
AcDbEntity
  8
0
  6
CONTINUOUS
 62
     7
100
AcDbLine
 10
499.4499999994538
 20
108.0
 30
0.0
 11
499.4499999994538
 21
125.0
 31
0.0
  0
LINE
  5
1C6
330
1F
100
AcDbEntity
  8
0
  6
CONTINUOUS
 62
     7
100
AcDbLine
 10
500.9499999994538
 20
106.25
 30
0.0
 11
500.9499999994538
 21
143.75
 31
0.0
  0
LINE
  5
1C7
330
1F
100
AcDbEntity
  8
0
  6
CONTINUOUS
 62
     7
100
AcDbLine
 10
499.4499999994538
 20
125.0
 30
0.0
 11
499.4499999994538
 21
142.0
 31
0.0
  0
LINE
  5
1C8
330
1F
100
AcDbEntity
  8
0
  6
CONTINUOUS
 62
     7
100
AcDbLine
 10
453.2499999994538
 20
100.0
 30
0.0
 11
457.2499999994538
 21
100.0
 31
0.0
  0
LINE
  5
1C9
330
1F
100
AcDbEntity
  8
0
  6
CONTINUOUS
 62
     7
100
AcDbLine
 10
457.2499999994538
 20
150.0
 30
0.0
 11
453.2499999994538
 21
150.0
 31
0.0
  0
ARC
  5
1CA
330
1F
100
AcDbEntity
  8
0
  6
CONTINUOUS
 62
     7
100
AcDbCircle
 10
452.7499999994538
 20
103.4522321317108
 30
0.0
 40
0.500000000000001
100
AcDbArc
 50
0.0
 51
89.7436447553435
  0
ARC
  5
1CB
330
1F
100
AcDbEntity
  8
0
  6
CONTINUOUS
 62
     7
100
AcDbCircle
 10
452.7499999994538
 20
146.5477678682892
 30
0.0
 40
0.5000000000000004
100
AcDbArc
 50
270.2563552446565
 51
0.0
  0
LINE
  5
1CC
330
1F
100
AcDbEntity
  8
0
  6
CONTINUOUS
 62
     7
100
AcDbLine
 10
452.7522371135267
 20
146.0477728729936
 30
0.0
 11
408.5499999994539
 21
145.85
 31
0.0
  0
LINE
  5
1CD
330
1F
100
AcDbEntity
  8
0
  6
CONTINUOUS
 62
     7
100
AcDbLine
 10
408.5499999994539
 20
104.15
 30
0.0
 11
452.7522371135267
 21
103.9522271270064
 31
0.0
  0
LINE
  5
1CE
330
1F
100
AcDbEntity
  8
0
  6
CONTINUOUS
 62
     7
100
AcDbLine
 10
459.4499999994538
 20
101.75
 30
0.0
 11
462.4499999994538
 21
101.75
 31
0.0
  0
LINE
  5
1CF
330
1F
100
AcDbEntity
  8
0
  6
CONTINUOUS
 62
     7
100
AcDbLine
 10
462.4499999994538
 20
148.25
 30
0.0
 11
459.4499999994538
 21
148.25
 31
0.0
  0
ARC
  5
1D0
330
1F
100
AcDbEntity
  8
0
  6
CONTINUOUS
 62
     7
100
AcDbCircle
 10
458.9499999994538
 20
107.3040345161943
 30
0.0
 40
0.4999999999999985
100
AcDbArc
 50
0.0
 51
89.5358082389871
  0
ARC
  5
1D1
330
1F
100
AcDbEntity
  8
0
  6
CONTINUOUS
 62
     7
100
AcDbCircle
 10
458.9499999994538
 20
142.6959654838057
 30
0.0
 40
0.5000000000000004
100
AcDbArc
 50
270.4641917610129
 51
0.0
  0
LINE
  5
1D2
330
1F
100
AcDbEntity
  8
0
  6
CONTINUOUS
 62
     7
100
AcDbLine
 10
458.9540507924349
 20
142.1959818929987
 30
0.0
 11
457.2499999994538
 21
142.1821759259259
 31
0.0
  0
LINE
  5
1D3
330
1F
100
AcDbEntity
  8
0
  6
CONTINUOUS
 62
     7
100
AcDbLine
 10
457.2499999994538
 20
107.8178240740741
 30
0.0
 11
458.9540507924349
 21
107.8040181070013
 31
0.0
  0
LINE
  5
1D4
330
1F
100
AcDbEntity
  8
0
  6
CONTINUOUS
 62
     7
100
AcDbLine
 10
518.4500000005062
 20
101.5000000000024
 30
0.0
 11
528.1526179611518
 21
101.5846734646037
 31
0.0
  0
LINE
  5
1D5
330
1F
100
AcDbEntity
  8
0
  6
CONTINUOUS
 62
     7
100
AcDbLine
 10
528.152617959055
 20
148.41532653627
 30
0.0
 11
518.4499999984017
 21
148.5000000000024
 31
0.0
  0
ARC
  5
1D6
330
1F
100
AcDbEntity
  8
0
  6
CONTINUOUS
 62
     7
100
AcDbCircle
 10
535.6475558154161
 20
145.3498049696771
 30
0.0
 40
3.000000000000008
100
AcDbArc
 50
15.00000000257851
 51
62.05506081232662
  0
ARC
  5
1D7
330
1F
100
AcDbEntity
  8
0
  6
CONTINUOUS
 62
     7
100
AcDbCircle
 10
535.6475558172384
 20
104.6501950318678
 30
0.0
 40
3.0
100
AcDbArc
 50
297.9449391928044
 51
345.0000000025524
  0
LINE
  5
1D8
330
1F
100
AcDbEntity
  8
0
  6
CONTINUOUS
 62
     7
100
AcDbLine
 10
538.5453332961404
 20
103.8737378966899
 30
0.0
 11
539.0528023236949
 21
105.7676380911299
 31
0.0
  0
LINE
  5
1D9
330
1F
100
AcDbEntity
  8
0
  6
CONTINUOUS
 62
     7
100
AcDbLine
 10
539.0528023219725
 20
144.2323619107199
 30
0.0
 11
538.5453332942485
 21
146.1262621051145
 31
0.0
  0
LINE
  5
1DA
330
1F
100
AcDbEntity
  8
0
  6
CONTINUOUS
 62
     7
100
AcDbLine
 10
536.7115782078772
 20
137.8853746805249
 30
0.0
 11
535.6819018191961
 21
138.0583691183964
 31
0.0
  0
LINE
  5
1DB
330
1F
100
AcDbEntity
  8
0
  6
CONTINUOUS
 62
     7
100
AcDbLine
 10
536.8078619477101
 20
137.8541714752029
 30
0.0
 11
536.7115782078772
 21
137.8853746805249
 31
0.0
  0
LINE
  5
1DC
330
1F
100
AcDbEntity
  8
0
  6
CONTINUOUS
 62
     7
100
AcDbLine
 10
535.6819018203655
 20
111.9416308831515
 30
0.0
 11
536.7873994707525
 21
112.1389549460432
 31
0.0
  0
LWPOLYLINE
  5
1DD
330
1F
100
AcDbEntity
  8
0
  6
CONTINUOUS
 62
     7
100
AcDbPolyline
 90
        7
 70
     0
 43
0.0
 10
-528.444299251503
 20
110.5226604052311
 10
-528.4542570002621
 20
110.6681879662031
 10
-528.4843117582063
 20
110.8007061368032
 10
-528.5348908499653
 20
110.9328802036008
 10
-528.5993669621006
 20
111.0517769834772
 10
-528.6841653072623
 20
111.1706066954611
 10
-528.7733567359571
 20
111.2697776401953
210
0.0
220
0.0
230
-1.0
  0
ARC
  5
1DE
330
1F
100
AcDbEntity
  8
0
  6
CONTINUOUS
 62
     7
100
AcDbCircle
 10
529.9356454500218
 20
110.0496734051881
 30
0.0
 40
1.685102192487015
100
AcDbArc
 50
91.28384700512423
 51
133.609828290469
  0
ARC
  5
1DF
330
1F
100
AcDbEntity
  8
0
  6
CONTINUOUS
 62
     7
100
AcDbCircle
 10
529.9361651337287
 20
139.952239015291
 30
0.0
 40
1.68702584299588
100
AcDbArc
 50
226.7086531663274
 51
268.6999628289921
  0
LWPOLYLINE
  5
1E0
330
1F
100
AcDbEntity
  8
0
  6
CONTINUOUS
 62
     7
100
AcDbPolyline
 90
        8
 70
     0
 43
0.0
 10
-528.779357287643
 20
138.7242928429485
 10
-528.6783804303408
 20
138.8366224325623
 10
-528.618047341921
 20
138.919234552086
 10
-528.5459805045899
 20
139.0438694813794
 10
-528.5049047268235
 20
139.1384730689896
 10
-528.4647277297299
 20
139.2745288488374
 10
-528.4451029213283
 20
139.4245925143517
 10
-528.4442992502067
 20
139.4773395956684
210
0.0
220
0.0
230
-1.0
  0
LINE
  5
1E1
330
1F
100
AcDbEntity
  8
0
  6
CONTINUOUS
 62
     7
100
AcDbLine
 10
529.8978907550256
 20
111.7343526531533
 30
0.0
 11
535.6819008777823
 21
111.9416308116249
 31
0.0
  0
LINE
  5
1E2
330
1F
100
AcDbEntity
  8
0
  6
CONTINUOUS
 62
     7
100
AcDbLine
 10
535.681900876597
 20
138.0583691899237
 30
0.0
 11
529.8978907538224
 21
138.2656473478773
 31
0.0
  0
ARC
  5
1E3
330
1F
100
AcDbEntity
  8
0
  6
CONTINUOUS
 62
     7
100
AcDbCircle
 10
540.9846539762962
 20
105.2500000010115
 30
0.0
 40
1.999999999999999
100
AcDbArc
 50
90.79423606481988
 51
165.000000002583
  0
ARC
  5
1E4
330
1F
100
AcDbEntity
  8
0
  6
CONTINUOUS
 62
     7
100
AcDbCircle
 10
540.9846539745275
 20
144.7500000010113
 30
0.0
 40
2.0
100
AcDbArc
 50
195.0000000025477
 51
269.2057639403108
  0
ARC
  5
1E5
330
1F
100
AcDbEntity
  8
0
  6
CONTINUOUS
 62
     7
100
AcDbCircle
 10
540.9500000002263
 20
107.7497598098616
 30
0.0
 40
0.4999999999999996
100
AcDbArc
 50
270.7942360648189
 51
0.0000000024995188
  0
ARC
  5
1E6
330
1F
100
AcDbEntity
  8
0
  6
CONTINUOUS
 62
     7
100
AcDbCircle
 10
540.9499999986815
 20
142.250240192158
 30
0.0
 40
0.5000000000000004
100
AcDbArc
 50
0.0000000026315114
 51
89.20576394031343
  0
LINE
  5
1E7
330
1F
100
AcDbEntity
  8
0
  6
CONTINUOUS
 62
     7
100
AcDbLine
 10
529.4947904400146
 20
102.0000000004969
 30
0.0
 11
537.0534243379371
 21
102.0000000008354
 31
0.0
  0
ARC
  5
1E8
330
1F
100
AcDbEntity
  8
0
  6
CONTINUOUS
 62
     7
100
AcDbCircle
 10
535.6274328354873
 20
105.0679462643444
 30
0.0
 40
2.962299149833782
100
AcDbArc
 50
270.9583750882782
 51
298.7526404902712
  0
ARC
  5
1E9
330
1F
100
AcDbEntity
  8
0
  6
CONTINUOUS
 62
     7
100
AcDbCircle
 10
535.6274534072068
 20
144.932130133855
 30
0.0
 40
2.962222419814439
100
AcDbArc
 50
61.24428343885214
 51
89.04199808155715
  0
LINE
  5
1EA
330
1F
100
AcDbEntity
  8
0
  6
CONTINUOUS
 62
     7
100
AcDbLine
 10
537.0534243358776
 20
148.0000000008354
 30
0.0
 11
529.4938021218584
 21
148.0000000004969
 31
0.0
  0
LINE
  5
1EB
330
1F
100
AcDbEntity
  8
0
  6
CONTINUOUS
 62
     7
100
AcDbLine
 10
528.3702707643924
 20
101.8281221540636
 30
0.0
 11
529.8929942818098
 21
102.0150943294696
 31
0.0
  0
ARC
  5
1EC
330
1F
100
AcDbEntity
  8
0
  6
CONTINUOUS
 62
     7
100
AcDbCircle
 10
529.8674832847499
 20
153.9618214758809
 30
0.0
 40
5.976970247776583
100
AcDbArc
 50
255.3729041597362
 51
270.24455145705
  0
ARC
  5
1ED
330
1F
100
AcDbEntity
  8
0
  6
CONTINUOUS
 62
     7
100
AcDbCircle
 10
528.150000000489
 20
101.8846620415229
 30
0.0
 40
0.3000000000000008
100
AcDbArc
 50
270.5000000025636
 51
353.5248284727886
  0
ARC
  5
1EE
330
1F
100
AcDbEntity
  8
0
  6
CONTINUOUS
 62
     7
100
AcDbCircle
 10
528.1499999984189
 20
148.1153379593505
 30
0.0
 40
0.2999999999999992
100
AcDbArc
 50
6.474683799294054
 51
89.50000000256665
  0
LINE
  5
1EF
330
1F
100
AcDbEntity
  8
0
  6
CONTINUOUS
 62
     7
100
AcDbLine
 10
528.4477286315885
 20
101.8507855097282
 30
0.0
 11
528.4635297566523
 21
101.8552311528856
 31
0.0
  0
LINE
  5
1F0
330
1F
100
AcDbEntity
  8
0
  6
CONTINUOUS
 62
     7
100
AcDbLine
 10
528.4635297566522
 20
101.8552311528856
 30
0.0
 11
528.5453149896676
 21
101.8760498966726
 31
0.0
  0
LINE
  5
1F1
330
1F
100
AcDbEntity
  8
0
  6
CONTINUOUS
 62
     7
100
AcDbLine
 10
517.2173269874327
 20
101.5
 30
0.0
 11
518.4499999994538
 21
101.5
 31
0.0
  0
LINE
  5
1F2
330
1F
100
AcDbEntity
  8
0
  6
CONTINUOUS
 62
     7
100
AcDbLine
 10
518.4499999994538
 20
148.5
 30
0.0
 11
517.2173269874327
 21
148.5
 31
0.0
  0
ARC
  5
1F3
330
1F
100
AcDbEntity
  8
0
  6
CONTINUOUS
 62
     7
100
AcDbCircle
 10
517.2173269874327
 20
147.5
 30
0.0
 40
1.000000000000001
100
AcDbArc
 50
90.0
 51
165.0000000000001
  0
ARC
  5
1F4
330
1F
100
AcDbEntity
  8
0
  6
CONTINUOUS
 62
     7
100
AcDbCircle
 10
517.2173269874327
 20
102.5
 30
0.0
 40
0.9999999999999959
100
AcDbArc
 50
194.9999999999999
 51
270.0
  0
LINE
  5
1F5
330
1F
100
AcDbEntity
  8
0
  6
CONTINUOUS
 62
     7
100
AcDbLine
 10
516.2514011611437
 20
147.7588190451025
 30
0.0
 11
515.9716366886463
 21
146.7147238195899
 31
0.0
  0
LINE
  5
1F6
330
1F
100
AcDbEntity
  8
0
  6
CONTINUOUS
 62
     7
100
AcDbLine
 10
515.9716366886464
 20
103.2852761804101
 30
0.0
 11
516.2514011611438
 21
102.2411809548975
 31
0.0
  0
LINE
  5
1F7
330
1F
100
AcDbEntity
  8
0
  6
CONTINUOUS
 62
     7
100
AcDbLine
 10
518.4502618637907
 20
104.7401618569662
 30
0.0
 11
518.4559854525279
 21
104.7500127599421
 31
0.0
  0
ARC
  5
1F8
330
1F
100
AcDbEntity
  8
0
  6
CONTINUOUS
 62
     7
100
AcDbCircle
 10
512.1079333834901
 20
102.25
 30
0.0
 40
4.0
100
AcDbArc
 50
15.0
 51
90.0
  0
ARC
  5
1F9
330
1F
100
AcDbEntity
  8
0
  6
CONTINUOUS
 62
     7
100
AcDbCircle
 10
512.1079333834901
 20
147.75
 30
0.0
 40
4.000000000000004
100
AcDbArc
 50
270.0
 51
345.0
  0
LINE
  5
1FA
330
1F
100
AcDbEntity
  8
0
  6
CONTINUOUS
 62
     7
100
AcDbLine
 10
500.9499999994538
 20
143.7500000000001
 30
0.0
 11
499.4499999994537
 21
142.0
 31
0.0
  0
LINE
  5
1FB
330
1F
100
AcDbEntity
  8
0
  6
CONTINUOUS
 62
     7
100
AcDbLine
 10
499.4499999994538
 20
108.0
 30
0.0
 11
500.9499999994539
 21
106.2499999999999
 31
0.0
  0
LINE
  5
1FC
330
1F
100
AcDbEntity
  8
0
  6
CONTINUOUS
 62
     7
100
AcDbLine
 10
512.1079333834901
 20
143.75
 30
0.0
 11
500.9499999994538
 21
143.75
 31
0.0
  0
LINE
  5
1FD
330
1F
100
AcDbEntity
  8
0
  6
CONTINUOUS
 62
     7
100
AcDbLine
 10
500.9499999994538
 20
106.25
 30
0.0
 11
512.10793338349
 21
106.25
 31
0.0
  0
LINE
  5
1FE
330
1F
100
AcDbEntity
  8
0
  6
CONTINUOUS
 62
     7
100
AcDbLine
 10
462.4499999994538
 20
108.0
 30
0.0
 11
499.4499999994538
 21
108.0
 31
0.0
  0
LINE
  5
1FF
330
1F
100
AcDbEntity
  8
0
  6
CONTINUOUS
 62
     7
100
AcDbLine
 10
499.4499999994538
 20
142.0
 30
0.0
 11
462.4499999994538
 21
142.0
 31
0.0
  0
MTEXT
  5
200
330
1F
100
AcDbEntity
  8
0
 62
     4
100
AcDbMText
 10
460.2560335125673
 20
82.371601850694
 30
0.0
 40
3.0
 41
0.0
 71
     1
 72
     1
  1
{\fＭＳ ゴシック;MFKH-22BA}
  0
LINE
  5
201
330
1F
100
AcDbEntity
  8
0
  6
CENTER
 62
     1
100
AcDbLine
 10
405.5499999994539
 20
125.0
 30
0.0
 11
544.4500000002263
 21
125.0
 31
0.0
  0
LINE
  5
203
330
1F
100
AcDbEntity
  8
0
  6
CENTER
 62
     1
100
AcDbLine
 10
562.9999999999999
 20
125.0
 30
0.0
 11
617.0
 21
125.0
 31
0.0
  0
LINE
  5
204
330
1F
100
AcDbEntity
  8
0
  6
CENTER
 62
     1
100
AcDbLine
 10
355.0
 20
98.0
 30
0.0
 11
355.0
 21
152.0
 31
0.0
  0
LINE
  5
205
330
1F
100
AcDbEntity
  8
0
  6
CENTER
 62
     1
100
AcDbLine
 10
327.9999999999999
 20
125.0
 30
0.0
 11
382.0
 21
125.0
 31
0.0
  0
LINE
  5
206
330
1F
100
AcDbEntity
  8
0
  6
CENTER
 62
     1
100
AcDbLine
 10
590.0
 20
98.0
 30
0.0
 11
590.0
 21
152.0
 31
0.0
  0
ENDSEC
  0
SECTION
  2
OBJECTS
  0
DICTIONARY
  5
C
330
0
100
AcDbDictionary
  3
ACAD_GROUP
350
D
  3
ACAD_LAYOUT
350
1A
  3
ACAD_MATERIAL
350
43
  3
ACAD_MLEADERSTYLE
350
6B
  3
ACAD_MLINESTYLE
350
17
  3
ACAD_PLOTSETTINGS
350
19
  3
ACAD_SCALELIST
350
47
  3
ACAD_VISUALSTYLE
350
2A
  3
ACDBHEADERROUNDTRIPXREC
350
207
  3
ACDBVARIABLEDICTIONARY
350
228
  0
DICTIONARY
  5
22F
330
8
100
AcDbDictionary
280
     1
  3
ACAD_XREC_ROUNDTRIP
360
230
  0
DICTIONARY
  5
D
102
{ACAD_REACTORS
330
C
102
}
330
C
100
AcDbDictionary
  0
DICTIONARY
  5
1A
102
{ACAD_REACTORS
330
C
102
}
330
C
100
AcDbDictionary
  0
DICTIONARY
  5
43
102
{ACAD_REACTORS
330
C
102
}
330
C
100
AcDbDictionary
  3
BYBLOCK
350
45
  3
BYLAYER
350
44
  3
GLOBAL
350
46
  0
DICTIONARY
  5
6B
102
{ACAD_REACTORS
330
C
102
}
330
C
100
AcDbDictionary
  3
STANDARD
350
6C
  0
DICTIONARY
  5
17
102
{ACAD_REACTORS
330
C
102
}
330
C
100
AcDbDictionary
  3
STANDARD
350
18
  0
DICTIONARY
  5
19
102
{ACAD_REACTORS
330
C
102
}
330
C
100
AcDbDictionary
  0
DICTIONARY
  5
47
102
{ACAD_REACTORS
330
C
102
}
330
C
100
AcDbDictionary
  3
A0
350
48
  3
A1
350
49
  3
A2
350
4A
  3
A3
350
4B
  3
A4
350
4C
  3
A5
350
4D
  3
A6
350
4E
  3
A7
350
4F
  3
A8
350
50
  3
A9
350
51
  3
B0
350
52
  3
B1
350
53
  3
B2
350
54
  3
B3
350
55
  3
B4
350
56
  3
B5
350
57
  3
B6
350
58
  3
B7
350
59
  3
B8
350
5A
  3
B9
350
5B
  3
C0
350
5C
  3
C1
350
5D
  3
C2
350
5E
  3
C3
350
5F
  3
C4
350
60
  3
C5
350
61
  3
C6
350
62
  3
C7
350
63
  3
C8
350
64
  3
C9
350
65
  3
D0
350
66
  3
D1
350
67
  3
D2
350
68
  0
DICTIONARY
  5
2A
102
{ACAD_REACTORS
330
C
102
}
330
C
100
AcDbDictionary
  3
2DWIREFRAME
350
2F
  3
BASIC
350
32
  3
BRIGHTEN
350
36
  3
COLORCHANGE
350
3A
  3
CONCEPTUAL
350
34
  3
DIM
350
35
  3
EDGECOLOROFF
350
3D
  3
FACEPATTERN
350
39
  3
FLAT
350
2B
  3
FLATWITHEDGES
350
2C
  3
GOURAUD
350
2D
  3
GOURAUDWITHEDGES
350
2E
  3
HIDDEN
350
31
  3
JITTEROFF
350
3B
  3
LINEPATTERN
350
38
  3
OVERHANGOFF
350
3C
  3
REALISTIC
350
33
  3
SHADED
350
42
  3
SHADED_WITH_EDGES
350
41
  3
SHADES_OF_GRAY
350
3E
  3
SKETCHY
350
3F
  3
THICKEN
350
37
  3
WIREFRAME
350
30
  3
X-RAY
350
40
  0
DICTIONARY
  5
207
102
{ACAD_REACTORS
330
C
102
}
330
C
100
AcDbDictionary
  3
CEPSNID
350
211
  3
CEPSNTYPE
350
210
  3
DIMSTYLEDATA
350
227
  3
FINGERPRINTGUID
350
212
  3
HYPERLINKBASE
350
20A
  3
INSUNITS
350
20F
  3
LAYOUTDICT
350
20C
  3
LWETCUNION
350
20E
  3
PLOTSETDICT
350
20D
  3
PSVPSCALE
350
214
  3
PUCSBASE
350
217
  3
PUCSORGBACK
350
21D
  3
PUCSORGBOTTOM
350
219
  3
PUCSORGFRONT
350
21C
  3
PUCSORGLEFT
350
21A
  3
PUCSORGRIGHT
350
21B
  3
PUCSORGTOP
350
218
  3
PUCSORTHOREF
350
215
  3
PUCSORTHOVIEW
350
216
  3
STYLESHEET
350
20B
  3
TSTACKALIGN
350
208
  3
TSTACKSIZE
350
209
  3
UCSBASE
350
220
  3
UCSORGBACK
350
226
  3
UCSORGBOTTOM
350
222
  3
UCSORGFRONT
350
225
  3
UCSORGLEFT
350
223
  3
UCSORGRIGHT
350
224
  3
UCSORGTOP
350
221
  3
UCSORTHOREF
350
21E
  3
UCSORTHOVIEW
350
21F
  3
VERSIONGUID
350
213
  0
DICTIONARY
  5
228
102
{ACAD_REACTORS
330
C
102
}
330
C
100
AcDbDictionary
  3
CANNOSCALE
350
231
  3
CMLEADERSTYLE
350
22A
  3
CTABLESTYLE
350
229
  3
DIMASSOC
350
22D
  3
HIDETEXT
350
22E
  3
MSLTSCALE
350
232
  0
XRECORD
  5
230
102
{ACAD_REACTORS
330
22F
102
}
330
22F
100
AcDbXrecord
102
VTR_0.000_0.000_1.000_1.000_VISUALSTYLE
340
2F
102
VTR_0.000_0.000_1.000_1.000_GRIDDISPLAY
 70
     3
102
VTR_0.000_0.000_1.000_1.000_GRIDMAJOR
 70
     5
102
VTR_0.000_0.000_1.000_1.000_DEFAULTLIGHTING
280
     1
102
VTR_0.000_0.000_1.000_1.000_DEFAULTLIGHTINGTYPE
 70
     1
102
VTR_0.000_0.000_1.000_1.000_BRIGHTNESS
141
0.0
102
VTR_0.000_0.000_1.000_1.000_CONTRAST
142
0.0
  0
MATERIAL
  5
45
102
{ACAD_REACTORS
330
43
102
}
102
{ACAD_XDICTIONARY
360
235
102
}
330
43
100
AcDbMaterial
  1
BYBLOCK
  0
MATERIAL
  5
44
102
{ACAD_REACTORS
330
43
102
}
102
{ACAD_XDICTIONARY
360
233
102
}
330
43
100
AcDbMaterial
  1
BYLAYER
  0
MATERIAL
  5
46
102
{ACAD_REACTORS
330
43
102
}
102
{ACAD_XDICTIONARY
360
237
102
}
330
43
100
AcDbMaterial
  1
GLOBAL
  0
ACAD_PROXY_OBJECT
  5
6C
102
{ACAD_REACTORS
330
6B
102
}
330
6B
100
AcDbProxyObject
 90
      499
 91
      505
 93
      610
310
40901902A4063FBFFFFFE056BD1B81E855B9FC0AD7A3703D0AD73F4214DD185B99185C9900AD7A3703D0AC73F90141901A02B5E8DC0F42B1CFC02B5E8DC0F42B1CFE5764000000000000300FC0
340
14
340
0
340
11
340
0
 94
        0
1001
ACAD_MLEADERVER
1070
     2
  0
MLINESTYLE
  5
18
102
{ACAD_REACTORS
330
17
102
}
330
17
100
AcDbMlineStyle
  2
Standard
 70
     0
  3

 62
   256
 51
90.0
 52
90.0
 71
     2
 49
0.5
 62
   256
  6
BYLAYER
 49
-0.5
 62
   256
  6
BYLAYER
  0
ACAD_PROXY_OBJECT
  5
48
102
{ACAD_REACTORS
330
47
102
}
330
47
100
AcDbProxyObject
 90
      499
 91
      503
 93
       41
310
903313A31580
  0
ACAD_PROXY_OBJECT
  5
49
102
{ACAD_REACTORS
330
47
102
}
330
47
100
AcDbProxyObject
 90
      499
 91
      503
 93
      105
310
903313A324000000000000004000
  0
ACAD_PROXY_OBJECT
  5
4A
102
{ACAD_REACTORS
330
47
102
}
330
47
100
AcDbProxyObject
 90
      499
 91
      503
 93
      105
310
903313A344000000000000104000
  0
ACAD_PROXY_OBJECT
  5
4B
102
{ACAD_REACTORS
330
47
102
}
330
47
100
AcDbProxyObject
 90
      499
 91
      503
 93
      105
310
903313A354000000000000144000
  0
ACAD_PROXY_OBJECT
  5
4C
102
{ACAD_REACTORS
330
47
102
}
330
47
100
AcDbProxyObject
 90
      499
 91
      503
 93
      105
310
903313A384000000000000204000
  0
ACAD_PROXY_OBJECT
  5
4D
102
{ACAD_REACTORS
330
47
102
}
330
47
100
AcDbProxyObject
 90
      499
 91
      503
 93
      113
310
904313A31304000000000000244000
  0
ACAD_PROXY_OBJECT
  5
4E
102
{ACAD_REACTORS
330
47
102
}
330
47
100
AcDbProxyObject
 90
      499
 91
      503
 93
      113
310
904313A31364000000000000304000
  0
ACAD_PROXY_OBJECT
  5
4F
102
{ACAD_REACTORS
330
47
102
}
330
47
100
AcDbProxyObject
 90
      499
 91
      503
 93
      113
310
904313A32304000000000000344000
  0
ACAD_PROXY_OBJECT
  5
50
102
{ACAD_REACTORS
330
47
102
}
330
47
100
AcDbProxyObject
 90
      499
 91
      503
 93
      113
310
904313A333040000000000003E4000
  0
ACAD_PROXY_OBJECT
  5
51
102
{ACAD_REACTORS
330
47
102
}
330
47
100
AcDbProxyObject
 90
      499
 91
      503
 93
      113
310
904313A34304000000000000444000
  0
ACAD_PROXY_OBJECT
  5
52
102
{ACAD_REACTORS
330
47
102
}
330
47
100
AcDbProxyObject
 90
      499
 91
      503
 93
      113
310
904313A35304000000000000494000
  0
ACAD_PROXY_OBJECT
  5
53
102
{ACAD_REACTORS
330
47
102
}
330
47
100
AcDbProxyObject
 90
      499
 91
      503
 93
      121
310
905313A3130304000000000000594000
  0
ACAD_PROXY_OBJECT
  5
54
102
{ACAD_REACTORS
330
47
102
}
330
47
100
AcDbProxyObject
 90
      499
 91
      503
 93
      105
310
903323A310000000000000010100
  0
ACAD_PROXY_OBJECT
  5
55
102
{ACAD_REACTORS
330
47
102
}
330
47
100
AcDbProxyObject
 90
      499
 91
      503
 93
      105
310
903343A310000000000000410100
  0
ACAD_PROXY_OBJECT
  5
56
102
{ACAD_REACTORS
330
47
102
}
330
47
100
AcDbProxyObject
 90
      499
 91
      503
 93
      105
310
903383A310000000000000810100
  0
ACAD_PROXY_OBJECT
  5
57
102
{ACAD_REACTORS
330
47
102
}
330
47
100
AcDbProxyObject
 90
      499
 91
      503
 93
      113
310
90431303A310000000000000910100
  0
ACAD_PROXY_OBJECT
  5
58
102
{ACAD_REACTORS
330
47
102
}
330
47
100
AcDbProxyObject
 90
      499
 91
      503
 93
      121
310
9053130303A310000000000001650100
  0
ACAD_PROXY_OBJECT
  5
59
102
{ACAD_REACTORS
330
47
102
}
330
47
100
AcDbProxyObject
 90
      499
 91
      503
 93
      257
310
90E312F31323822203D2031272D3022000000000000200FC000000000000284000
  0
ACAD_PROXY_OBJECT
  5
5A
102
{ACAD_REACTORS
330
47
102
}
330
47
100
AcDbProxyObject
 90
      499
 91
      503
 93
      249
310
90D312F363422203D2031272D3022000000000000240FC000000000000284000
  0
ACAD_PROXY_OBJECT
  5
5B
102
{ACAD_REACTORS
330
47
102
}
330
47
100
AcDbProxyObject
 90
      499
 91
      503
 93
      249
310
90D312F333222203D2031272D3022000000000000280FC000000000000284000
  0
ACAD_PROXY_OBJECT
  5
5C
102
{ACAD_REACTORS
330
47
102
}
330
47
100
AcDbProxyObject
 90
      499
 91
      503
 93
      249
310
90D312F313622203D2031272D30220000000000002C0FC000000000000284000
  0
ACAD_PROXY_OBJECT
  5
5D
102
{ACAD_REACTORS
330
47
102
}
330
47
100
AcDbProxyObject
 90
      499
 91
      503
 93
      249
310
90D332F333222203D2031272D30220000000000002E0FC000000000000284000
  0
ACAD_PROXY_OBJECT
  5
5E
102
{ACAD_REACTORS
330
47
102
}
330
47
100
AcDbProxyObject
 90
      499
 91
      503
 93
      241
310
90C312F3822203D2031272D3022000000000000300FC000000000000284000
  0
ACAD_PROXY_OBJECT
  5
5F
102
{ACAD_REACTORS
330
47
102
}
330
47
100
AcDbProxyObject
 90
      499
 91
      503
 93
      249
310
90D332F313622203D2031272D3022000000000000320FC000000000000284000
  0
ACAD_PROXY_OBJECT
  5
60
102
{ACAD_REACTORS
330
47
102
}
330
47
100
AcDbProxyObject
 90
      499
 91
      503
 93
      241
310
90C312F3422203D2031272D3022000000000000340FC000000000000284000
  0
ACAD_PROXY_OBJECT
  5
61
102
{ACAD_REACTORS
330
47
102
}
330
47
100
AcDbProxyObject
 90
      499
 91
      503
 93
      241
310
90C332F3822203D2031272D3022000000000000360FC000000000000284000
  0
ACAD_PROXY_OBJECT
  5
62
102
{ACAD_REACTORS
330
47
102
}
330
47
100
AcDbProxyObject
 90
      499
 91
      503
 93
      241
310
90C312F3222203D2031272D3022000000000000380FC000000000000284000
  0
ACAD_PROXY_OBJECT
  5
63
102
{ACAD_REACTORS
330
47
102
}
330
47
100
AcDbProxyObject
 90
      499
 91
      503
 93
      241
310
90C332F3422203D2031272D30220000000000003A0FC000000000000284000
  0
ACAD_PROXY_OBJECT
  5
64
102
{ACAD_REACTORS
330
47
102
}
330
47
100
AcDbProxyObject
 90
      499
 91
      503
 93
      161
310
90A3122203D2031272D30224000000000000284000
  0
ACAD_PROXY_OBJECT
  5
65
102
{ACAD_REACTORS
330
47
102
}
330
47
100
AcDbProxyObject
 90
      499
 91
      503
 93
      257
310
90E312D312F3222203D2031272D30220000000000003E0FC000000000000284000
  0
ACAD_PROXY_OBJECT
  5
66
102
{ACAD_REACTORS
330
47
102
}
330
47
100
AcDbProxyObject
 90
      499
 91
      503
 93
      225
310
90A3322203D2031272D302200000000000002100000000000000284000
  0
ACAD_PROXY_OBJECT
  5
67
102
{ACAD_REACTORS
330
47
102
}
330
47
100
AcDbProxyObject
 90
      499
 91
      503
 93
      225
310
90A3622203D2031272D302200000000000006100000000000000284000
  0
ACAD_PROXY_OBJECT
  5
68
102
{ACAD_REACTORS
330
47
102
}
330
47
100
AcDbProxyObject
 90
      499
 91
      503
 93
      249
310
90D31272D3022203D2031272D30220000000000000A100000000000000284000
  0
ACAD_PROXY_OBJECT
  5
2F
102
{ACAD_REACTORS
330
2A
102
}
330
2A
100
AcDbProxyObject
 90
      499
 91
      501
 93
      436
310
42CC9915DA5C99599C985B595049028333333333333E33F0000000000000F90107901411070040501600405405064090741402480A0340
1001
ACAD
1000
AcDbSavedByObjectVersion
1070
     0
  0
ACAD_PROXY_OBJECT
  5
32
102
{ACAD_REACTORS
330
2A
102
}
330
2A
100
AcDbProxyObject
 90
      499
 91
      501
 93
      388
310
4150985CDA58D07406404333333333333E33F0000000000000F90107A41107004050150841D405064090741402480A0350
1001
ACAD
1000
AcDbSavedByObjectVersion
1070
     0
  0
ACAD_PROXY_OBJECT
  5
36
102
{ACAD_REACTORS
330
2A
102
}
330
2A
100
AcDbProxyObject
 90
      499
 91
      501
 93
      428
310
42109C9A59DA1D195B90C409028333333333333E33F0000000000000F9010790141107004050150841D405064090741402480A029950
1001
ACAD
1000
AcDbSavedByObjectVersion
1070
     0
  0
ACAD_PROXY_OBJECT
  5
3A
102
{ACAD_REACTORS
330
2A
102
}
330
2A
100
AcDbProxyObject
 90
      499
 91
      501
 93
      452
310
42D0DBDB1BDC90DA185B99D95104090240C333333333333E33F0000000000000F90108901411070040501508421405064090741402480A0350
1001
ACAD
1000
AcDbSavedByObjectVersion
1070
     0
  0
ACAD_PROXY_OBJECT
  5
34
102
{ACAD_REACTORS
330
2A
102
}
330
2A
100
AcDbProxyObject
 90
      499
 91
      501
 93
      500
310
4290DBDB98D95C1D1D585B10940D028333333333333E33F0000000000000F90107902409070040501000000000018199010841D405064090740C02480A0340
1001
ACAD
1000
AcDbSavedByObjectVersion
1070
     0
  0
ACAD_PROXY_OBJECT
  5
35
102
{ACAD_REACTORS
330
2A
102
}
330
2A
100
AcDbProxyObject
 90
      499
 91
      501
 93
      412
310
40D11A5B50B409028333333333333E33F0000000000000F9010790141107004050150841D405064090741402480A02677FFFFFD0
1001
ACAD
1000
AcDbSavedByObjectVersion
1070
     0
  0
ACAD_PROXY_OBJECT
  5
3D
102
{ACAD_REACTORS
330
2A
102
}
330
2A
100
AcDbProxyObject
 90
      499
 91
      501
 93
      452
310
43115919D950DBDB1BDC93D999916409028333333333333E33F0000000000000F9010790141107004050150841D405064090741402480A0350
1001
ACAD
1000
AcDbSavedByObjectVersion
1070
     0
  0
ACAD_PROXY_OBJECT
  5
39
102
{ACAD_REACTORS
330
2A
102
}
330
2A
100
AcDbProxyObject
 90
      499
 91
      501
 93
      444
310
42D19858D95C185D1D195C9B90F409028333333333333E33F0000000000000F9010790141107004050150841D405064090741402480A0350
1001
ACAD
1000
AcDbSavedByObjectVersion
1070
     0
  0
ACAD_PROXY_OBJECT
  5
2B
102
{ACAD_REACTORS
330
2A
102
}
330
2A
100
AcDbProxyObject
 90
      499
 91
      501
 93
      380
310
41119B185D240901404333333333333E33F0000000000000F9010740A907004050150841D405064090741402480A1B50
1001
ACAD
1000
AcDbSavedByObjectVersion
1070
     0
  0
ACAD_PROXY_OBJECT
  5
2C
102
{ACAD_REACTORS
330
2A
102
}
330
2A
100
AcDbProxyObject
 90
      499
 91
      501
 93
      468
310
43519B185D15DA5D1A115919D95CD0140901404333333333333E33F0000000000000F90107409019070040501600405405064090741402480A1B50
1001
ACAD
1000
AcDbSavedByObjectVersion
1070
     0
  0
ACAD_PROXY_OBJECT
  5
2D
102
{ACAD_REACTORS
330
2A
102
}
330
2A
100
AcDbProxyObject
 90
      499
 91
      501
 93
      404
310
41D1DBDD5C985D5910240902404333333333333E33F0000000000000F9010740A9070040501641D405064090741402480A1B50
1001
ACAD
1000
AcDbSavedByObjectVersion
1070
     0
  0
ACAD_PROXY_OBJECT
  5
2E
102
{ACAD_REACTORS
330
2A
102
}
330
2A
100
AcDbProxyObject
 90
      499
 91
      501
 93
      492
310
4411DBDD5C985D5915DA5D1A115919D95CD0340902404333333333333E33F0000000000000F90107409019070040501600405405064090741402480A1B50
1001
ACAD
1000
AcDbSavedByObjectVersion
1070
     0
  0
ACAD_PROXY_OBJECT
  5
31
102
{ACAD_REACTORS
330
2A
102
}
330
2A
100
AcDbProxyObject
 90
      499
 91
      501
 93
      476
310
41921A5919195B90640502408333333333333E33F0000000000000F901079024090700405020000000000001110200405405064090740C02480A0340
1001
ACAD
1000
AcDbSavedByObjectVersion
1070
     0
  0
ACAD_PROXY_OBJECT
  5
3B
102
{ACAD_REACTORS
330
2A
102
}
330
2A
100
AcDbProxyObject
 90
      499
 91
      501
 93
      428
310
42529A5D1D195C93D999914409028333333333333E33F0000000000000F9010790141107004050150A41D405064090741402480A0350
1001
ACAD
1000
AcDbSavedByObjectVersion
1070
     0
  0
ACAD_PROXY_OBJECT
  5
38
102
{ACAD_REACTORS
330
2A
102
}
330
2A
100
AcDbProxyObject
 90
      499
 91
      501
 93
      444
310
42D31A5B995C185D1D195C9B90E409028333333333333E33F0000000000000F9010790141107004050750841D405064090741402483A0350
1001
ACAD
1000
AcDbSavedByObjectVersion
1070
     0
  0
ACAD_PROXY_OBJECT
  5
3C
102
{ACAD_REACTORS
330
2A
102
}
330
2A
100
AcDbProxyObject
 90
      499
 91
      501
 93
      444
310
42D3DD995C9A185B99D3D999915409028333333333333E33F0000000000000F9010790141107004050150941D405064090741402480A0350
1001
ACAD
1000
AcDbSavedByObjectVersion
1070
     0
  0
ACAD_PROXY_OBJECT
  5
33
102
{ACAD_REACTORS
330
2A
102
}
330
2A
100
AcDbProxyObject
 90
      499
 91
      501
 93
      428
310
425499585B1A5CDD1A58D08409038333333333333E33F0000000000000F9010740A907004050150800405405064090740C02480A1B40
1001
ACAD
1000
AcDbSavedByObjectVersion
1070
     0
  0
ACAD_PROXY_OBJECT
  5
42
102
{ACAD_REACTORS
330
2A
102
}
330
2A
100
AcDbProxyObject
 90
      499
 91
      501
 93
      420
310
4194DA1859195911B40902404333333333333E33F0000000000000F9010740A41107004050150800405405064090840C02480A0B40
1001
ACAD
1000
AcDbSavedByObjectVersion
1070
     0
  0
ACAD_PROXY_OBJECT
  5
41
102
{ACAD_REACTORS
330
2A
102
}
330
2A
100
AcDbProxyObject
 90
      499
 91
      501
 93
      516
310
4454DA18591959081DDA5D1A08195919D95CD1A40902404333333333333E33F0000000000000F901074090142907004050250800405405064090740C02480A0B40
1001
ACAD
1000
AcDbSavedByObjectVersion
1070
     0
  0
ACAD_PROXY_OBJECT
  5
3E
102
{ACAD_REACTORS
330
2A
102
}
330
2A
100
AcDbProxyObject
 90
      499
 91
      501
 93
      532
310
4394DA1859195CC81BD98811DC985E5174090240C333333333333E33F0000000000000F901079024090741D01000000000000111010841D405064090740C02480A0340
1001
ACAD
1000
AcDbSavedByObjectVersion
1070
     0
  0
ACAD_PROXY_OBJECT
  5
3F
102
{ACAD_REACTORS
330
2A
102
}
330
2A
100
AcDbProxyObject
 90
      499
 91
      501
 93
      476
310
41D4DAD95D18DA1E51840502408333333333333E33F0000000000000F901079024090741D01000000000000111010B41D405064090741802480A0340
1001
ACAD
1000
AcDbSavedByObjectVersion
1070
     0
  0
ACAD_PROXY_OBJECT
  5
37
102
{ACAD_REACTORS
330
2A
102
}
330
2A
100
AcDbProxyObject
 90
      499
 91
      501
 93
      412
310
41D51A1A58DAD95B90D409028333333333333E33F0000000000000F9010790141107004050150C41D405064090741402480A0350
1001
ACAD
1000
AcDbSavedByObjectVersion
1070
     0
  0
ACAD_PROXY_OBJECT
  5
30
102
{ACAD_REACTORS
330
2A
102
}
330
2A
100
AcDbProxyObject
 90
      499
 91
      501
 93
      420
310
4255DA5C99599C985B595059028333333333333E33F0000000000000F90107901411070040501600405405064090740C02480A0340
1001
ACAD
1000
AcDbSavedByObjectVersion
1070
     0
  0
ACAD_PROXY_OBJECT
  5
40
102
{ACAD_REACTORS
330
2A
102
}
330
2A
100
AcDbProxyObject
 90
      499
 91
      501
 93
      404
310
41560B54985E51940902404000000000000E03F0000000000000F9010740501907004050150841D405064090740C02480A1B40
1001
ACAD
1000
AcDbSavedByObjectVersion
1070
     0
  0
XRECORD
  5
211
102
{ACAD_REACTORS
330
207
102
}
330
207
100
AcDbXrecord
340
0
  0
XRECORD
  5
210
102
{ACAD_REACTORS
330
207
102
}
330
207
100
AcDbXrecord
 90
        0
  0
XRECORD
  5
227
102
{ACAD_REACTORS
330
207
102
}
330
207
100
AcDbXrecord
1000
DSTYLE
1002
{
1070
   179
 70
     2
1070
   171
 70
     2
1070
   143
 40
25.4
1070
   274
 70
     2
1070
    41
 40
3.0
1070
   141
 40
0.09
1070
    43
 40
0.38
1070
   278
 70
    46
1070
    44
 40
1.5
1070
    42
 40
0.0625
1070
   147
 40
1.5
1070
   272
 70
     4
1070
    73
 70
     1
1070
   172
 70
     0
1070
    74
 70
     1
1070
   283
 70
     1
1070
   340
340
6E
1070
   140
 40
3.0
1070
   284
 70
     0
1070
    78
 70
     0
1002
}
  0
XRECORD
  5
212
102
{ACAD_REACTORS
330
207
102
}
330
207
100
AcDbXrecord
  1
{D9B47627-AA3C-4D5E-9C87-42259961D5A5}
  0
XRECORD
  5
20A
102
{ACAD_REACTORS
330
207
102
}
330
207
100
AcDbXrecord
  1

  0
XRECORD
  5
20F
102
{ACAD_REACTORS
330
207
102
}
330
207
100
AcDbXrecord
 90
        4
  0
XRECORD
  5
20C
102
{ACAD_REACTORS
330
207
102
}
330
207
100
AcDbXrecord
340
1A
  0
XRECORD
  5
20E
102
{ACAD_REACTORS
330
207
102
}
330
207
100
AcDbXrecord
 90
    10269
  0
XRECORD
  5
20D
102
{ACAD_REACTORS
330
207
102
}
330
207
100
AcDbXrecord
340
19
  0
XRECORD
  5
214
102
{ACAD_REACTORS
330
207
102
}
330
207
100
AcDbXrecord
 40
0.0
  0
XRECORD
  5
217
102
{ACAD_REACTORS
330
207
102
}
330
207
100
AcDbXrecord
340
0
  0
XRECORD
  5
21D
102
{ACAD_REACTORS
330
207
102
}
330
207
100
AcDbXrecord
 10
0.0
 20
0.0
 30
0.0
  0
XRECORD
  5
219
102
{ACAD_REACTORS
330
207
102
}
330
207
100
AcDbXrecord
 10
0.0
 20
0.0
 30
0.0
  0
XRECORD
  5
21C
102
{ACAD_REACTORS
330
207
102
}
330
207
100
AcDbXrecord
 10
0.0
 20
0.0
 30
0.0
  0
XRECORD
  5
21A
102
{ACAD_REACTORS
330
207
102
}
330
207
100
AcDbXrecord
 10
0.0
 20
0.0
 30
0.0
  0
XRECORD
  5
21B
102
{ACAD_REACTORS
330
207
102
}
330
207
100
AcDbXrecord
 10
0.0
 20
0.0
 30
0.0
  0
XRECORD
  5
218
102
{ACAD_REACTORS
330
207
102
}
330
207
100
AcDbXrecord
 10
0.0
 20
0.0
 30
0.0
  0
XRECORD
  5
215
102
{ACAD_REACTORS
330
207
102
}
330
207
100
AcDbXrecord
340
0
  0
XRECORD
  5
216
102
{ACAD_REACTORS
330
207
102
}
330
207
100
AcDbXrecord
 70
     0
  0
XRECORD
  5
20B
102
{ACAD_REACTORS
330
207
102
}
330
207
100
AcDbXrecord
  1

  0
XRECORD
  5
208
102
{ACAD_REACTORS
330
207
102
}
330
207
100
AcDbXrecord
 90
        1
  0
XRECORD
  5
209
102
{ACAD_REACTORS
330
207
102
}
330
207
100
AcDbXrecord
 90
       70
  0
XRECORD
  5
220
102
{ACAD_REACTORS
330
207
102
}
330
207
100
AcDbXrecord
340
0
  0
XRECORD
  5
226
102
{ACAD_REACTORS
330
207
102
}
330
207
100
AcDbXrecord
 10
0.0
 20
0.0
 30
0.0
  0
XRECORD
  5
222
102
{ACAD_REACTORS
330
207
102
}
330
207
100
AcDbXrecord
 10
0.0
 20
0.0
 30
0.0
  0
XRECORD
  5
225
102
{ACAD_REACTORS
330
207
102
}
330
207
100
AcDbXrecord
 10
0.0
 20
0.0
 30
0.0
  0
XRECORD
  5
223
102
{ACAD_REACTORS
330
207
102
}
330
207
100
AcDbXrecord
 10
0.0
 20
0.0
 30
0.0
  0
XRECORD
  5
224
102
{ACAD_REACTORS
330
207
102
}
330
207
100
AcDbXrecord
 10
0.0
 20
0.0
 30
0.0
  0
XRECORD
  5
221
102
{ACAD_REACTORS
330
207
102
}
330
207
100
AcDbXrecord
 10
0.0
 20
0.0
 30
0.0
  0
XRECORD
  5
21E
102
{ACAD_REACTORS
330
207
102
}
330
207
100
AcDbXrecord
340
0
  0
XRECORD
  5
21F
102
{ACAD_REACTORS
330
207
102
}
330
207
100
AcDbXrecord
 70
     0
  0
XRECORD
  5
213
102
{ACAD_REACTORS
330
207
102
}
330
207
100
AcDbXrecord
  1
{FAEB1C32-E019-11D5-929B-00C0DF256EC4}
  0
DICTIONARYVAR
  5
231
102
{ACAD_REACTORS
330
228
102
}
330
228
100
DictionaryVariables
280
     0
  1
1:1
  0
DICTIONARYVAR
  5
22A
102
{ACAD_REACTORS
330
228
102
}
330
228
100
DictionaryVariables
280
     0
  1
Standard
  0
DICTIONARYVAR
  5
229
102
{ACAD_REACTORS
330
228
102
}
330
228
100
DictionaryVariables
280
     0
  1
Standard
  0
DICTIONARYVAR
  5
22D
102
{ACAD_REACTORS
330
228
102
}
330
228
100
DictionaryVariables
280
     0
  1
2
  0
DICTIONARYVAR
  5
22E
102
{ACAD_REACTORS
330
228
102
}
330
228
100
DictionaryVariables
280
     0
  1
1
  0
DICTIONARYVAR
  5
232
102
{ACAD_REACTORS
330
228
102
}
330
228
100
DictionaryVariables
280
     0
  1
1
  0
DICTIONARY
  5
235
330
45
100
AcDbDictionary
280
     1
  3
ACAD_XREC_ROUNDTRIP
360
236
  0
DICTIONARY
  5
233
330
44
100
AcDbDictionary
280
     1
  3
ACAD_XREC_ROUNDTRIP
360
234
  0
DICTIONARY
  5
237
330
46
100
AcDbDictionary
280
     1
  3
ACAD_XREC_ROUNDTRIP
360
238
  0
XRECORD
  5
236
102
{ACAD_REACTORS
330
235
102
}
330
235
100
AcDbXrecord
102
MATERIAL
148
0.0
149
0.0
149
0.0
 93
        0
 94
      127
282
     0
 72
     1
 77
     1
171
     1
175
     1
179
     1
273
     0
  0
XRECORD
  5
234
102
{ACAD_REACTORS
330
233
102
}
330
233
100
AcDbXrecord
102
MATERIAL
148
0.0
149
0.0
149
0.0
 93
        0
 94
      127
282
     0
 72
     1
 77
     1
171
     1
175
     1
179
     1
273
     0
  0
XRECORD
  5
238
102
{ACAD_REACTORS
330
237
102
}
330
237
100
AcDbXrecord
102
MATERIAL
148
0.0
149
0.0
149
0.0
 93
        0
 94
      127
282
     0
 72
     1
 77
     1
171
     1
175
     1
179
     1
273
     0
  0
ENDSEC
  0
EOF
