  0
SECTION
  2
HEADER
  9
$ACADVER
  1
AC1014
  9
$ACADMAINTVER
 70
     9
  9
$DWGCODEPAGE
  3
ANSI_932
  9
$INSBASE
 10
0.0
 20
0.0
 30
0.0
  9
$EXTMIN
 10
355.65
 20
64.71251094160309
 30
0.0
  9
$EXTMAX
 10
674.35
 20
139.3500000000065
 30
0.0
  9
$LIMMIN
 10
0.0
 20
0.0
  9
$LIMMAX
 10
12.0
 20
9.0
  9
$ORTHOMODE
 70
     0
  9
$REGENMODE
 70
     1
  9
$FILLMODE
 70
     1
  9
$QTEXTMODE
 70
     0
  9
$MIRRTEXT
 70
     1
  9
$DRAGMODE
 70
     2
  9
$LTSCALE
 40
1.0
  9
$OSMODE
 70
    37
  9
$ATTMODE
 70
     1
  9
$TEXTSIZE
 40
0.2
  9
$TRACEWID
 40
0.05
  9
$TEXTSTYLE
  7
STANDARD
  9
$CLAYER
  8
0
  9
$CELTYPE
  6
BYLAYER
  9
$CECOLOR
 62
   256
  9
$CELTSCALE
 40
1.0
  9
$DELOBJ
 70
     1
  9
$DISPSILH
 70
     0
  9
$DIMSCALE
 40
1.0
  9
$DIMASZ
 40
3.0
  9
$DIMEXO
 40
0.0625
  9
$DIMDLI
 40
0.38
  9
$DIMRND
 40
0.0
  9
$DIMDLE
 40
0.0
  9
$DIMEXE
 40
1.5
  9
$DIMTP
 40
0.0
  9
$DIMTM
 40
0.0
  9
$DIMTXT
 40
3.0
  9
$DIMCEN
 40
0.09
  9
$DIMTSZ
 40
0.0
  9
$DIMTOL
 70
     0
  9
$DIMLIM
 70
     0
  9
$DIMTIH
 70
     1
  9
$DIMTOH
 70
     1
  9
$DIMSE1
 70
     0
  9
$DIMSE2
 70
     0
  9
$DIMTAD
 70
     1
  9
$DIMZIN
 70
     0
  9
$DIMBLK
  1

  9
$DIMASO
 70
     1
  9
$DIMSHO
 70
     1
  9
$DIMPOST
  1

  9
$DIMAPOST
  1

  9
$DIMALT
 70
     0
  9
$DIMALTD
 70
     2
  9
$DIMALTF
 40
25.4
  9
$DIMLFAC
 40
1.0
  9
$DIMTOFL
 70
     0
  9
$DIMTVP
 40
0.0
  9
$DIMTIX
 70
     0
  9
$DIMSOXD
 70
     0
  9
$DIMSAH
 70
     0
  9
$DIMBLK1
  1

  9
$DIMBLK2
  1

  9
$DIMSTYLE
  2
STANDARD
  9
$DIMCLRD
 70
     0
  9
$DIMCLRE
 70
     0
  9
$DIMCLRT
 70
     0
  9
$DIMTFAC
 40
1.0
  9
$DIMGAP
 40
1.5
  9
$DIMJUST
 70
     0
  9
$DIMSD1
 70
     0
  9
$DIMSD2
 70
     0
  9
$DIMTOLJ
 70
     1
  9
$DIMTZIN
 70
     0
  9
$DIMALTZ
 70
     0
  9
$DIMALTTZ
 70
     0
  9
$DIMFIT
 70
     3
  9
$DIMUPT
 70
     0
  9
$DIMUNIT
 70
     2
  9
$DIMDEC
 70
     2
  9
$DIMTDEC
 70
     4
  9
$DIMALTU
 70
     2
  9
$DIMALTTD
 70
     2
  9
$DIMTXSTY
  7
ＭＳ_ゴシック
  9
$DIMAUNIT
 70
     0
  9
$LUNITS
 70
     2
  9
$LUPREC
 70
     4
  9
$SKETCHINC
 40
0.1
  9
$FILLETRAD
 40
0.5
  9
$AUNITS
 70
     0
  9
$AUPREC
 70
     0
  9
$MENU
  1
.
  9
$ELEVATION
 40
0.0
  9
$PELEVATION
 40
0.0
  9
$THICKNESS
 40
0.0
  9
$LIMCHECK
 70
     0
  9
$CHAMFERA
 40
0.0
  9
$CHAMFERB
 40
0.0
  9
$CHAMFERC
 40
0.0
  9
$CHAMFERD
 40
0.0
  9
$SKPOLY
 70
     0
  9
$TDCREATE
 40
2459348.670400995
  9
$TDUPDATE
 40
2459348.670401354
  9
$TDINDWG
 40
0.0000000116
  9
$TDUSRTIMER
 40
0.0000000116
  9
$USRTIMER
 70
     1
  9
$ANGBASE
 50
0.0
  9
$ANGDIR
 70
     0
  9
$PDMODE
 70
     0
  9
$PDSIZE
 40
0.0
  9
$PLINEWID
 40
0.0
  9
$COORDS
 70
     1
  9
$SPLFRAME
 70
     0
  9
$SPLINETYPE
 70
     6
  9
$SPLINESEGS
 70
     8
  9
$ATTDIA
 70
     0
  9
$ATTREQ
 70
     1
  9
$HANDLING
 70
     1
  9
$HANDSEED
  5
263
  9
$SURFTAB1
 70
     6
  9
$SURFTAB2
 70
     6
  9
$SURFTYPE
 70
     6
  9
$SURFU
 70
     6
  9
$SURFV
 70
     6
  9
$UCSNAME
  2

  9
$UCSORG
 10
0.0
 20
0.0
 30
0.0
  9
$UCSXDIR
 10
1.0
 20
0.0
 30
0.0
  9
$UCSYDIR
 10
0.0
 20
1.0
 30
0.0
  9
$PUCSNAME
  2

  9
$PUCSORG
 10
0.0
 20
0.0
 30
0.0
  9
$PUCSXDIR
 10
1.0
 20
0.0
 30
0.0
  9
$PUCSYDIR
 10
0.0
 20
1.0
 30
0.0
  9
$USERI1
 70
     0
  9
$USERI2
 70
     0
  9
$USERI3
 70
     0
  9
$USERI4
 70
     0
  9
$USERI5
 70
     0
  9
$USERR1
 40
0.0
  9
$USERR2
 40
0.0
  9
$USERR3
 40
0.0
  9
$USERR4
 40
0.0
  9
$USERR5
 40
0.0
  9
$WORLDVIEW
 70
     1
  9
$SHADEDGE
 70
     3
  9
$SHADEDIF
 70
    70
  9
$TILEMODE
 70
     1
  9
$MAXACTVP
 70
    64
  9
$PINSBASE
 10
0.0
 20
0.0
 30
0.0
  9
$PLIMCHECK
 70
     0
  9
$PEXTMIN
 10
1.000000000000000E+20
 20
1.000000000000000E+20
 30
1.000000000000000E+20
  9
$PEXTMAX
 10
-1.000000000000000E+20
 20
-1.000000000000000E+20
 30
-1.000000000000000E+20
  9
$PLIMMIN
 10
0.0
 20
0.0
  9
$PLIMMAX
 10
12.0
 20
9.0
  9
$UNITMODE
 70
     0
  9
$VISRETAIN
 70
     1
  9
$PLINEGEN
 70
     0
  9
$PSLTSCALE
 70
     1
  9
$TREEDEPTH
 70
  3020
  9
$PICKSTYLE
 70
     1
  9
$CMLSTYLE
  2
STANDARD
  9
$CMLJUST
 70
     0
  9
$CMLSCALE
 40
1.0
  9
$PROXYGRAPHICS
 70
     1
  9
$MEASUREMENT
 70
     1
  0
ENDSEC
  0
SECTION
  2
CLASSES
  0
CLASS
  1
ACDBDICTIONARYWDFLT
  2
AcDbDictionaryWithDefault
  3
ObjectDBX Classes
 90
        0
280
     0
281
     0
  0
CLASS
  1
VISUALSTYLE
  2
AcDbVisualStyle
  3
ObjectDBX Classes
 90
     4095
280
     0
281
     0
  0
CLASS
  1
MATERIAL
  2
AcDbMaterial
  3
ObjectDBX Classes
 90
     1153
280
     0
281
     0
  0
CLASS
  1
SCALE
  2
AcDbScale
  3
ObjectDBX Classes
 90
     1153
280
     0
281
     0
  0
CLASS
  1
TABLESTYLE
  2
AcDbTableStyle
  3
ObjectDBX Classes
 90
     4095
280
     0
281
     0
  0
CLASS
  1
MLEADERSTYLE
  2
AcDbMLeaderStyle
  3
ACDB_MLEADERSTYLE_CLASS
 90
     4095
280
     0
281
     0
  0
CLASS
  1
SUN
  2
AcDbSun
  3
SCENEOE
 90
     1153
280
     0
281
     0
  0
CLASS
  1
DICTIONARYVAR
  2
AcDbDictionaryVar
  3
ObjectDBX Classes
 90
        0
280
     0
281
     0
  0
CLASS
  1
XRECORD
  2
AcDbXrecord
  3
ObjectDBX Classes
 90
        0
280
     0
281
     0
  0
CLASS
  1
LWPOLYLINE
  2
AcDbPolyline
  3
ObjectDBX Classes
 90
        0
280
     0
281
     1
  0
CLASS
  1
HATCH
  2
AcDbHatch
  3
ObjectDBX Classes
 90
        0
280
     0
281
     1
  0
CLASS
  1
ACDBPLACEHOLDER
  2
AcDbPlaceHolder
  3
ObjectDBX Classes
 90
        0
280
     0
281
     0
  0
CLASS
  1
LAYOUT
  2
AcDbLayout
  3
ObjectDBX Classes
 90
        0
280
     0
281
     0
  0
ENDSEC
  0
SECTION
  2
TABLES
  0
TABLE
  2
VPORT
  5
8
102
{ACAD_XDICTIONARY
360
258
102
}
330
0
100
AcDbSymbolTable
 70
     1
  0
VPORT
  5
29
330
8
100
AcDbSymbolTableRecord
100
AcDbViewportTableRecord
  2
*ACTIVE
 70
     0
 10
0.0
 20
0.0
 11
1.0
 21
1.0
 12
515.0
 22
102.0312554708048
 13
0.0
 23
0.0
 14
0.5
 24
0.5
 15
0.5
 25
0.5
 16
0.0
 26
0.0
 36
1.0
 17
0.0
 27
0.0
 37
0.0
 40
74.63748905840342
 41
1.6
 42
50.0
 43
0.0
 44
0.0
 50
0.0
 51
0.0
 71
     0
 72
   100
 73
     1
 74
     3
 75
     0
 76
     0
 77
     0
 78
     0
  0
ENDTAB
  0
TABLE
  2
LTYPE
  5
5
330
0
100
AcDbSymbolTable
 70
     2
  0
LTYPE
  5
14
330
5
100
AcDbSymbolTableRecord
100
AcDbLinetypeTableRecord
  2
BYBLOCK
 70
     0
  3

 72
    65
 73
     0
 40
0.0
  0
LTYPE
  5
15
330
5
100
AcDbSymbolTableRecord
100
AcDbLinetypeTableRecord
  2
BYLAYER
 70
     0
  3

 72
    65
 73
     0
 40
0.0
  0
LTYPE
  5
16
330
5
100
AcDbSymbolTableRecord
100
AcDbLinetypeTableRecord
  2
CONTINUOUS
 70
     0
  3
Solid line
 72
    65
 73
     0
 40
0.0
  0
LTYPE
  5
70
330
5
100
AcDbSymbolTableRecord
100
AcDbLinetypeTableRecord
  2
CENTER
 70
     0
  3

 72
    65
 73
     0
 40
0.0
  0
ENDTAB
  0
TABLE
  2
LAYER
  5
2
330
0
100
AcDbSymbolTable
 70
     1
  0
LAYER
  5
10
330
2
100
AcDbSymbolTableRecord
100
AcDbLayerTableRecord
  2
0
 70
     0
 62
     7
  6
CONTINUOUS
  0
ENDTAB
  0
TABLE
  2
STYLE
  5
3
330
0
100
AcDbSymbolTable
 70
     2
  0
STYLE
  5
11
330
3
100
AcDbSymbolTableRecord
100
AcDbTextStyleTableRecord
  2
STANDARD
 70
     0
 40
0.0
 41
1.0
 50
0.0
 71
     0
 42
0.2
  3
txt
  4

  0
STYLE
  5
6E
330
3
100
AcDbSymbolTableRecord
100
AcDbTextStyleTableRecord
  2
ＭＳ_ゴシック
 70
     0
 40
0.0
 41
1.0
 50
0.0
 71
     0
 42
0.2
  3
ＭＳ ゴシック.shx
  4

  0
ENDTAB
  0
TABLE
  2
VIEW
  5
6
330
0
100
AcDbSymbolTable
 70
     0
  0
ENDTAB
  0
TABLE
  2
UCS
  5
7
330
0
100
AcDbSymbolTable
 70
     0
  0
ENDTAB
  0
TABLE
  2
APPID
  5
9
330
0
100
AcDbSymbolTable
 70
     2
  0
APPID
  5
12
330
9
100
AcDbSymbolTableRecord
100
AcDbRegAppTableRecord
  2
ACAD
 70
     0
  0
APPID
  5
262
330
9
100
AcDbSymbolTableRecord
100
AcDbRegAppTableRecord
  2
ACAD_MLEADERVER
 70
     0
  0
ENDTAB
  0
TABLE
  2
DIMSTYLE
  5
A
330
0
100
AcDbSymbolTable
 70
     1
  0
DIMSTYLE
105
27
330
A
100
AcDbSymbolTableRecord
100
AcDbDimStyleTableRecord
  2
STANDARD
 70
     0
  3

  4

  5

  6

  7

 40
1.0
 41
0.18
 42
0.0625
 43
0.38
 44
0.18
 45
0.0
 46
0.0
 47
0.0
 48
0.0
140
0.18
141
0.09
142
0.0
143
25.4
144
1.0
145
0.0
146
1.0
147
0.09
 71
     0
 72
     0
 73
     1
 74
     1
 75
     0
 76
     0
 77
     0
 78
     0
170
     0
171
     2
172
     0
173
     0
174
     0
175
     0
176
     0
177
     0
178
     0
270
     2
271
     4
272
     4
273
     2
274
     2
340
11
275
     0
280
     0
281
     0
282
     0
283
     1
284
     0
285
     0
286
     0
287
     3
288
     0
  0
ENDTAB
  0
TABLE
  2
BLOCK_RECORD
  5
1
330
0
100
AcDbSymbolTable
 70
     0
  0
BLOCK_RECORD
  5
1F
330
1
100
AcDbSymbolTableRecord
100
AcDbBlockTableRecord
  2
*MODEL_SPACE
  0
BLOCK_RECORD
  5
1B
330
1
100
AcDbSymbolTableRecord
100
AcDbBlockTableRecord
  2
*PAPER_SPACE
  0
ENDTAB
  0
ENDSEC
  0
SECTION
  2
BLOCKS
  0
BLOCK
  5
20
330
1F
100
AcDbEntity
  8
0
100
AcDbBlockBegin
  2
*MODEL_SPACE
 70
     0
 10
0.0
 20
0.0
 30
0.0
  3
*MODEL_SPACE
  1

  0
ENDBLK
  5
21
330
1F
100
AcDbEntity
  8
0
100
AcDbBlockEnd
  0
BLOCK
  5
1C
330
1B
100
AcDbEntity
 67
     1
  8
0
100
AcDbBlockBegin
  2
*PAPER_SPACE
 70
     0
 10
0.0
 20
0.0
 30
0.0
  3
*PAPER_SPACE
  1

  0
ENDBLK
  5
1D
330
1B
100
AcDbEntity
 67
     1
  8
0
100
AcDbBlockEnd
  0
ENDSEC
  0
SECTION
  2
ENTITIES
  0
LINE
  5
6F
330
1F
100
AcDbEntity
  8
0
  6
CENTER
 62
     1
100
AcDbLine
 10
385.0
 20
80.65000000000649
 30
0.0
 11
385.0
 21
139.3500000000065
 31
0.0
  0
LINE
  5
71
330
1F
100
AcDbEntity
  8
0
  6
CENTER
 62
     1
100
AcDbLine
 10
645.0
 20
80.65
 30
0.0
 11
645.0
 21
139.35
 31
0.0
  0
LINE
  5
72
330
1F
100
AcDbEntity
  8
0
  6
CENTER
 62
     1
100
AcDbLine
 10
442.6499999993562
 20
110.0
 30
0.0
 11
587.3500000006441
 21
110.0
 31
0.0
  0
LINE
  5
73
330
1F
100
AcDbEntity
  8
0
  6
CENTER
 62
     1
100
AcDbLine
 10
615.65
 20
110.0
 30
0.0
 11
674.35
 21
110.0
 31
0.0
  0
LINE
  5
74
330
1F
100
AcDbEntity
  8
0
  6
CENTER
 62
     1
100
AcDbLine
 10
355.65
 20
110.0000000000065
 30
0.0
 11
414.35
 21
110.0000000000065
 31
0.0
  0
CIRCLE
  5
75
330
1F
100
AcDbEntity
  8
0
  6
CONTINUOUS
 62
     7
100
AcDbCircle
 10
385.0
 20
110.0
 30
0.0
 40
20.85000000000002
  0
CIRCLE
  5
76
330
1F
100
AcDbEntity
  8
0
  6
CONTINUOUS
 62
     7
100
AcDbCircle
 10
385.0
 20
110.0
 30
0.0
 40
25.00000000000001
  0
CIRCLE
  5
77
330
1F
100
AcDbEntity
  8
0
  6
CONTINUOUS
 62
     7
100
AcDbCircle
 10
385.0
 20
110.0000000000065
 30
0.0
 40
27.35000000000001
  0
ARC
  5
78
330
1F
100
AcDbEntity
  8
0
  6
CONTINUOUS
 62
     7
100
AcDbCircle
 10
385.0
 20
110.0
 30
0.0
 40
27.34999999999998
100
AcDbArc
 50
180.0
 51
0.0
  0
ARC
  5
79
330
1F
100
AcDbEntity
  8
0
  6
CONTINUOUS
 62
     7
100
AcDbCircle
 10
385.0
 20
110.0
 30
0.0
 40
27.34999999999998
100
AcDbArc
 50
0.0
 51
180.0
  0
CIRCLE
  5
7A
330
1F
100
AcDbEntity
  8
0
  6
CONTINUOUS
 62
     7
100
AcDbCircle
 10
385.0
 20
110.0
 30
0.0
 40
14.0
  0
LINE
  5
7B
330
1F
100
AcDbEntity
  8
0
  6
CONTINUOUS
 62
     7
100
AcDbLine
 10
628.0701720660113
 20
103.5925260090815
 30
0.0
 11
628.1305546679431
 21
103.0369321281038
 31
0.0
  0
ARC
  5
7C
330
1F
100
AcDbEntity
  8
0
  6
CONTINUOUS
 62
     7
100
AcDbCircle
 10
645.0
 20
110.0000000000006
 30
0.0
 40
18.25000000000019
100
AcDbArc
 50
202.4289803673439
 51
205.5710196326631
  0
LINE
  5
7D
330
1F
100
AcDbEntity
  8
0
  6
CONTINUOUS
 62
     7
100
AcDbLine
 10
628.537569957576
 20
102.1227608200467
 30
0.0
 11
628.9100528282473
 21
101.7061229314044
 31
0.0
  0
LINE
  5
7E
330
1F
100
AcDbEntity
  8
0
  6
CONTINUOUS
 62
     7
100
AcDbLine
 10
632.1399870538953
 20
97.26049985891072
 30
0.0
 11
632.421129695673
 21
96.7774994094594
 31
0.0
  0
ARC
  5
7F
330
1F
100
AcDbEntity
  8
0
  6
CONTINUOUS
 62
     7
100
AcDbCircle
 10
645.0
 20
110.0000000000006
 30
0.0
 40
18.25000000000012
100
AcDbArc
 50
226.4289803673454
 51
229.5710196326643
  0
LINE
  5
80
330
1F
100
AcDbEntity
  8
0
  6
CONTINUOUS
 62
     7
100
AcDbLine
 10
633.1647836337436
 20
96.10791039606248
 30
0.0
 11
633.6745255644995
 21
95.87879517783158
 31
0.0
  0
LINE
  5
81
330
1F
100
AcDbEntity
  8
0
  6
CONTINUOUS
 62
     7
100
AcDbLine
 10
638.4334151097106
 20
93.1312490178598
 30
0.0
 11
638.8867056744702
 21
92.80435716556636
 31
0.0
  0
ARC
  5
82
330
1F
100
AcDbEntity
  8
0
  6
CONTINUOUS
 62
     7
100
AcDbCircle
 10
645.0
 20
110.0000000000006
 30
0.0
 40
18.25000000000008
100
AcDbArc
 50
250.4289803673436
 51
253.5710196326622
  0
LINE
  5
83
330
1F
100
AcDbEntity
  8
0
  6
CONTINUOUS
 62
     7
100
AcDbLine
 10
639.8384137392021
 20
92.4951284702712
 30
0.0
 11
640.3972757193549
 21
92.49315202513026
 31
0.0
  0
LINE
  5
84
330
1F
100
AcDbEntity
  8
0
  6
CONTINUOUS
 62
     7
100
AcDbLine
 10
645.862265348608
 20
91.91875846941268
 30
0.0
 11
646.409325779687
 21
91.8044977852579
 31
0.0
  0
ARC
  5
85
330
1F
100
AcDbEntity
  8
0
  6
CONTINUOUS
 62
     7
100
AcDbCircle
 10
645.0
 20
110.0000000000006
 30
0.0
 40
18.25000000000009
100
AcDbArc
 50
274.4289803673398
 51
277.5710196326583
  0
LINE
  5
86
330
1F
100
AcDbEntity
  8
0
  6
CONTINUOUS
 62
     7
100
AcDbLine
 10
647.4045290006917
 20
91.90909785873554
 30
0.0
 11
647.9158787167712
 21
92.13460193200484
 31
0.0
  0
LINE
  5
87
330
1F
100
AcDbEntity
  8
0
  6
CONTINUOUS
 62
     7
100
AcDbLine
 10
653.1420220752963
 20
93.83267884452671
 30
0.0
 11
653.6882606542731
 21
93.95080603882668
 31
0.0
  0
ARC
  5
88
330
1F
100
AcDbEntity
  8
0
  6
CONTINUOUS
 62
     7
100
AcDbCircle
 10
645.0
 20
110.0000000000006
 30
0.0
 40
18.25000000000006
100
AcDbArc
 50
298.4289803673364
 51
301.5710196326552
  0
LINE
  5
89
330
1F
100
AcDbEntity
  8
0
  6
CONTINUOUS
 62
     7
100
AcDbLine
 10
654.5548793535015
 20
94.45114857811102
 30
0.0
 11
654.9302997941314
 21
94.86514146688211
 31
0.0
  0
LINE
  5
8A
330
1F
100
AcDbEntity
  8
0
  6
CONTINUOUS
 62
     7
100
AcDbLine
 10
659.0139492172174
 20
98.54207592292393
 30
0.0
 11
659.4649163313653
 21
98.8721657306323
 31
0.0
  0
ARC
  5
8B
330
1F
100
AcDbEntity
  8
0
  6
CONTINUOUS
 62
     7
100
AcDbCircle
 10
645.0
 20
110.0000000000006
 30
0.0
 40
18.25000000000014
100
AcDbArc
 50
322.4289803673358
 51
325.5710196326549
  0
LINE
  5
8C
330
1F
100
AcDbEntity
  8
0
  6
CONTINUOUS
 62
     7
100
AcDbLine
 10
660.053104262737
 20
99.6817369652118
 30
0.0
 11
660.2276818231447
 21
100.2126355380088
 31
0.0
  0
LINE
  5
8D
330
1F
100
AcDbEntity
  8
0
  6
CONTINUOUS
 62
     7
100
AcDbLine
 10
662.4627372267497
 20
105.2326521662201
 30
0.0
 11
662.7404565651249
 21
105.7176290608123
 31
0.0
  0
ARC
  5
8E
330
1F
100
AcDbEntity
  8
0
  6
CONTINUOUS
 62
     7
100
AcDbCircle
 10
645.0
 20
110.0000000000006
 30
0.0
 40
18.25000000000021
100
AcDbArc
 50
346.4289803673382
 51
349.571019632658
  0
LINE
  5
8F
330
1F
100
AcDbEntity
  8
0
  6
CONTINUOUS
 62
     7
100
AcDbLine
 10
662.9485106917863
 20
106.6964467695044
 30
0.0
 11
662.8920593257899
 21
107.2524538400287
 31
0.0
  0
LINE
  5
90
330
1F
100
AcDbEntity
  8
0
  6
CONTINUOUS
 62
     7
100
AcDbLine
 10
662.8920593257898
 20
112.7475461599723
 30
0.0
 11
662.9485106917863
 21
113.3035532304967
 31
0.0
  0
ARC
  5
91
330
1F
100
AcDbEntity
  8
0
  6
CONTINUOUS
 62
     7
100
AcDbCircle
 10
645.0
 20
110.0000000000006
 30
0.0
 40
18.25000000000019
100
AcDbArc
 50
10.42898036734227
 51
13.57101963266197
  0
LINE
  5
92
330
1F
100
AcDbEntity
  8
0
  6
CONTINUOUS
 62
     7
100
AcDbLine
 10
662.740456565125
 20
114.2823709391888
 30
0.0
 11
662.4627372267498
 21
114.7673478337809
 31
0.0
  0
LINE
  5
93
330
1F
100
AcDbEntity
  8
0
  6
CONTINUOUS
 62
     7
100
AcDbLine
 10
660.2276818231447
 20
119.7873644619922
 30
0.0
 11
660.053104262737
 21
120.3182630347893
 31
0.0
  0
ARC
  5
94
330
1F
100
AcDbEntity
  8
0
  6
CONTINUOUS
 62
     7
100
AcDbCircle
 10
645.0
 20
110.0000000000006
 30
0.0
 40
18.25000000000007
100
AcDbArc
 50
34.42898036734503
 51
37.57101963266427
  0
LINE
  5
95
330
1F
100
AcDbEntity
  8
0
  6
CONTINUOUS
 62
     7
100
AcDbLine
 10
659.4649163313653
 20
121.1278342693688
 30
0.0
 11
659.0139492172175
 21
121.4579240770771
 31
0.0
  0
LINE
  5
96
330
1F
100
AcDbEntity
  8
0
  6
CONTINUOUS
 62
     7
100
AcDbLine
 10
654.9302997941314
 20
125.1348585331189
 30
0.0
 11
654.5548793535014
 21
125.5488514218901
 31
0.0
  0
ARC
  5
97
330
1F
100
AcDbEntity
  8
0
  6
CONTINUOUS
 62
     7
100
AcDbCircle
 10
645.0
 20
110.0000000000006
 30
0.0
 40
18.25000000000016
100
AcDbArc
 50
58.42898036734483
 51
61.5710196326635
  0
LINE
  5
98
330
1F
100
AcDbEntity
  8
0
  6
CONTINUOUS
 62
     7
100
AcDbLine
 10
653.6882606542731
 20
126.0491939611744
 30
0.0
 11
653.1420220752964
 21
126.1673211554744
 31
0.0
  0
LINE
  5
99
330
1F
100
AcDbEntity
  8
0
  6
CONTINUOUS
 62
     7
100
AcDbLine
 10
647.9158787167713
 20
127.8653980679962
 30
0.0
 11
647.4045290006917
 21
128.0909021412656
 31
0.0
  0
ARC
  5
9A
330
1F
100
AcDbEntity
  8
0
  6
CONTINUOUS
 62
     7
100
AcDbCircle
 10
645.0
 20
110.0000000000006
 30
0.0
 40
18.25000000000011
100
AcDbArc
 50
82.42898036734181
 51
85.57101963266022
  0
LINE
  5
9B
330
1F
100
AcDbEntity
  8
0
  6
CONTINUOUS
 62
     7
100
AcDbLine
 10
646.409325779687
 20
128.1955022147432
 30
0.0
 11
645.8622653486082
 21
128.0812415305885
 31
0.0
  0
LINE
  5
9C
330
1F
100
AcDbEntity
  8
0
  6
CONTINUOUS
 62
     7
100
AcDbLine
 10
640.397275719355
 20
127.5068479748708
 30
0.0
 11
639.8384137392021
 21
127.5048715297299
 31
0.0
  0
ARC
  5
9D
330
1F
100
AcDbEntity
  8
0
  6
CONTINUOUS
 62
     7
100
AcDbCircle
 10
645.0
 20
110.0000000000006
 30
0.0
 40
18.25000000000016
100
AcDbArc
 50
106.4289803673379
 51
109.5710196326564
  0
LINE
  5
9E
330
1F
100
AcDbEntity
  8
0
  6
CONTINUOUS
 62
     7
100
AcDbLine
 10
638.8867056744701
 20
127.1956428344348
 30
0.0
 11
638.4334151097107
 21
126.8687509821414
 31
0.0
  0
LINE
  5
9F
330
1F
100
AcDbEntity
  8
0
  6
CONTINUOUS
 62
     7
100
AcDbLine
 10
633.6745255644995
 20
124.1212048221695
 30
0.0
 11
633.1647836337436
 21
123.8920896039386
 31
0.0
  0
ARC
  5
A0
330
1F
100
AcDbEntity
  8
0
  6
CONTINUOUS
 62
     7
100
AcDbCircle
 10
645.0
 20
110.0000000000006
 30
0.0
 40
18.2500000000002
100
AcDbArc
 50
130.4289803673357
 51
133.5710196326548
  0
LINE
  5
A1
330
1F
100
AcDbEntity
  8
0
  6
CONTINUOUS
 62
     7
100
AcDbLine
 10
632.421129695673
 20
123.2225005905417
 30
0.0
 11
632.1399870538953
 21
122.7395001410905
 31
0.0
  0
LINE
  5
A2
330
1F
100
AcDbEntity
  8
0
  6
CONTINUOUS
 62
     7
100
AcDbLine
 10
628.9100528282474
 20
118.2938770685968
 30
0.0
 11
628.537569957576
 21
117.8772391799544
 31
0.0
  0
ARC
  5
A3
330
1F
100
AcDbEntity
  8
0
  6
CONTINUOUS
 62
     7
100
AcDbCircle
 10
645.0
 20
110.0000000000006
 30
0.0
 40
18.2500000000002
100
AcDbArc
 50
154.4289803673367
 51
157.5710196326563
  0
LINE
  5
A4
330
1F
100
AcDbEntity
  8
0
  6
CONTINUOUS
 62
     7
100
AcDbLine
 10
628.1305546679431
 20
116.9630678718973
 30
0.0
 11
628.0701720660113
 21
116.4074739909197
 31
0.0
  0
LINE
  5
A5
330
1F
100
AcDbEntity
  8
0
  6
CONTINUOUS
 62
     7
100
AcDbLine
 10
626.0264726286885
 20
109.0000000000006
 30
0.0
 11
626.8694747280333
 21
109.0000000000006
 31
0.0
  0
LINE
  5
A6
330
1F
100
AcDbEntity
  8
0
  6
CONTINUOUS
 62
     7
100
AcDbLine
 10
626.8694747280333
 20
111.0000000000005
 30
0.0
 11
626.0264726284455
 21
111.0000000000005
 31
0.0
  0
LINE
  5
A7
330
1F
100
AcDbEntity
  8
0
  6
CONTINUOUS
 62
     7
100
AcDbLine
 10
653.1420220752963
 20
93.83267884452671
 30
0.0
 11
652.6001497824187
 21
94.03938850940676
 31
0.0
  0
LINE
  5
A8
330
1F
100
AcDbEntity
  8
0
  6
CONTINUOUS
 62
     7
100
AcDbLine
 10
648.2327617179674
 20
92.62033810617379
 30
0.0
 11
647.9158787167712
 21
92.13460193200484
 31
0.0
  0
LINE
  5
A9
330
1F
100
AcDbEntity
  8
0
  6
CONTINUOUS
 62
     7
100
AcDbLine
 10
634.2475340036154
 20
95.968326155963
 30
0.0
 11
633.6745255644995
 21
95.87879517783158
 31
0.0
  0
LINE
  5
AA
330
1F
100
AcDbEntity
  8
0
  6
CONTINUOUS
 62
     7
100
AcDbLine
 10
638.4334151097106
 20
93.1312490178598
 30
0.0
 11
638.2244469916401
 21
93.67225437178281
 31
0.0
  0
LINE
  5
AB
330
1F
100
AcDbEntity
  8
0
  6
CONTINUOUS
 62
     7
100
AcDbLine
 10
659.0139492172174
 20
98.54207592292393
 30
0.0
 11
658.434847850252
 21
98.51051528094509
 31
0.0
  0
LINE
  5
AC
330
1F
100
AcDbEntity
  8
0
  6
CONTINUOUS
 62
     7
100
AcDbLine
 10
655.0222201195763
 20
95.43777147056116
 30
0.0
 11
654.9302997941314
 21
94.86514146688211
 31
0.0
  0
LINE
  5
AD
330
1F
100
AcDbEntity
  8
0
  6
CONTINUOUS
 62
     7
100
AcDbLine
 10
629.469937614489
 20
101.5548500208144
 30
0.0
 11
628.9100528282473
 21
101.7061229314044
 31
0.0
  0
LINE
  5
AE
330
1F
100
AcDbEntity
  8
0
  6
CONTINUOUS
 62
     7
100
AcDbLine
 10
632.1399870538953
 20
97.26049985891072
 30
0.0
 11
632.1691318803805
 21
97.83972783340128
 31
0.0
  0
LINE
  5
AF
330
1F
100
AcDbEntity
  8
0
  6
CONTINUOUS
 62
     7
100
AcDbLine
 10
662.4627372267497
 20
105.2326521662201
 30
0.0
 11
661.9465386730158
 21
104.9682783391
 31
0.0
  0
LINE
  5
B0
330
1F
100
AcDbEntity
  8
0
  6
CONTINUOUS
 62
     7
100
AcDbLine
 10
660.0787456134991
 20
100.7731464413816
 30
0.0
 11
660.2276818231447
 21
100.2126355380088
 31
0.0
  0
LINE
  5
B1
330
1F
100
AcDbEntity
  8
0
  6
CONTINUOUS
 62
     7
100
AcDbLine
 10
628.0701720660113
 20
103.5925260090815
 30
0.0
 11
628.3323904317806
 21
104.1098228252292
 31
0.0
  0
LINE
  5
B2
330
1F
100
AcDbEntity
  8
0
  6
CONTINUOUS
 62
     7
100
AcDbLine
 10
640.8843294466037
 20
92.80800617250067
 30
0.0
 11
640.3972757193549
 21
92.49315202513026
 31
0.0
  0
LINE
  5
B3
330
1F
100
AcDbEntity
  8
0
  6
CONTINUOUS
 62
     7
100
AcDbLine
 10
645.862265348608
 20
91.91875846941268
 30
0.0
 11
645.451316772012
 21
92.32799646219551
 31
0.0
  0
LINE
  5
B4
330
1F
100
AcDbEntity
  8
0
  6
CONTINUOUS
 62
     7
100
AcDbLine
 10
662.8920593257898
 20
112.7475461599723
 30
0.0
 11
662.5280190047445
 21
112.2960717841808
 31
0.0
  0
LINE
  5
B5
330
1F
100
AcDbEntity
  8
0
  6
CONTINUOUS
 62
     7
100
AcDbLine
 10
662.5280190047445
 20
107.7039282158204
 30
0.0
 11
662.8920593257899
 21
107.2524538400287
 31
0.0
  0
LINE
  5
B6
330
1F
100
AcDbEntity
  8
0
  6
CONTINUOUS
 62
     7
100
AcDbLine
 10
660.2276818231447
 20
119.7873644619922
 30
0.0
 11
660.0787456134991
 21
119.2268535586195
 31
0.0
  0
LINE
  5
B7
330
1F
100
AcDbEntity
  8
0
  6
CONTINUOUS
 62
     7
100
AcDbLine
 10
661.9465386730158
 20
115.0317216609012
 30
0.0
 11
662.4627372267498
 21
114.7673478337809
 31
0.0
  0
LINE
  5
B8
330
1F
100
AcDbEntity
  8
0
  6
CONTINUOUS
 62
     7
100
AcDbLine
 10
632.1691318803805
 20
122.1602721665998
 30
0.0
 11
632.1399870538953
 21
122.7395001410905
 31
0.0
  0
LINE
  5
B9
330
1F
100
AcDbEntity
  8
0
  6
CONTINUOUS
 62
     7
100
AcDbLine
 10
628.9100528282474
 20
118.2938770685968
 30
0.0
 11
629.469937614489
 21
118.4451499791867
 31
0.0
  0
LINE
  5
BA
330
1F
100
AcDbEntity
  8
0
  6
CONTINUOUS
 62
     7
100
AcDbLine
 10
658.434847850252
 20
121.489484719056
 30
0.0
 11
659.0139492172175
 21
121.4579240770771
 31
0.0
  0
LINE
  5
BB
330
1F
100
AcDbEntity
  8
0
  6
CONTINUOUS
 62
     7
100
AcDbLine
 10
654.9302997941314
 20
125.1348585331189
 30
0.0
 11
655.0222201195763
 21
124.5622285294399
 31
0.0
  0
LINE
  5
BC
330
1F
100
AcDbEntity
  8
0
  6
CONTINUOUS
 62
     7
100
AcDbLine
 10
638.2244469916401
 20
126.3277456282183
 30
0.0
 11
638.4334151097107
 21
126.8687509821414
 31
0.0
  0
LINE
  5
BD
330
1F
100
AcDbEntity
  8
0
  6
CONTINUOUS
 62
     7
100
AcDbLine
 10
633.6745255644995
 20
124.1212048221695
 30
0.0
 11
634.2475340036154
 21
124.0316738440381
 31
0.0
  0
LINE
  5
BE
330
1F
100
AcDbEntity
  8
0
  6
CONTINUOUS
 62
     7
100
AcDbLine
 10
652.6001497824187
 20
125.9606114905943
 30
0.0
 11
653.1420220752964
 21
126.1673211554744
 31
0.0
  0
LINE
  5
BF
330
1F
100
AcDbEntity
  8
0
  6
CONTINUOUS
 62
     7
100
AcDbLine
 10
647.9158787167713
 20
127.8653980679962
 30
0.0
 11
648.2327617179674
 21
127.3796618938273
 31
0.0
  0
LINE
  5
C0
330
1F
100
AcDbEntity
  8
0
  6
CONTINUOUS
 62
     7
100
AcDbLine
 10
645.451316772012
 20
127.6720035378056
 30
0.0
 11
645.8622653486082
 21
128.0812415305885
 31
0.0
  0
LINE
  5
C1
330
1F
100
AcDbEntity
  8
0
  6
CONTINUOUS
 62
     7
100
AcDbLine
 10
640.397275719355
 20
127.5068479748708
 30
0.0
 11
640.8843294466037
 21
127.1919938275004
 31
0.0
  0
LINE
  5
C2
330
1F
100
AcDbEntity
  8
0
  6
CONTINUOUS
 62
     7
100
AcDbLine
 10
628.3323904317806
 20
115.8901771747718
 30
0.0
 11
628.0701720660113
 21
116.4074739909197
 31
0.0
  0
LINE
  5
C3
330
1F
100
AcDbEntity
  8
0
  6
CONTINUOUS
 62
     7
100
AcDbLine
 10
626.8694747280333
 20
109.0000000000006
 30
0.0
 11
627.2094505293461
 21
109.0000000000006
 31
0.0
  0
LINE
  5
C4
330
1F
100
AcDbEntity
  8
0
  6
CONTINUOUS
 62
     7
100
AcDbLine
 10
627.2094505293461
 20
111.0000000000005
 30
0.0
 11
626.8694747280333
 21
111.0000000000005
 31
0.0
  0
LINE
  5
C5
330
1F
100
AcDbEntity
  8
0
  6
CONTINUOUS
 62
     7
100
AcDbLine
 10
640.9599109515747
 20
92.9096604779811
 30
0.0
 11
641.1859135312793
 21
93.25767393219996
 31
0.0
  0
LWPOLYLINE
  5
C6
330
1F
100
AcDbEntity
  8
0
  6
CONTINUOUS
 62
     7
100
AcDbPolyline
 90
       29
 70
     0
 43
0.0
 10
641.7030802614983
 20
93.47569002233821
 10
641.6878970263865
 20
93.4784743873958
 10
641.6726390868008
 20
93.48078862480112
 10
641.6573600368616
 20
93.482629445377
 10
641.6421134706894
 20
93.48399355994627
 10
641.6263375644024
 20
93.4849077734565
 10
641.6106326379896
 20
93.48532239433818
 10
641.5950473726306
 20
93.48524862872036
 10
641.5796304495049
 20
93.48469768273202
 10
641.5599399171093
 20
93.48329186162448
 10
641.5405536207561
 20
93.48113723035435
 10
641.5215236690198
 20
93.4782766813733
 10
641.5029021704751
 20
93.47475310713297
 10
641.4847412336967
 20
93.47060940008505
 10
641.467092967259
 20
93.46588845268118
 10
641.447837508691
 20
93.45992920356262
 10
641.4291676179807
 20
93.45332295805758
 10
641.4111019298728
 20
93.44612168520032
 10
641.3936590791112
 20
93.43837735402508
 10
641.3707399491099
 20
93.4269490933663
 10
641.348916563567
 20
93.41464917789044
 10
641.3281909182363
 20
93.40157421443924
 10
641.3063543704362
 20
93.38618310266722
 10
641.2857764630563
 20
93.36998397990116
 10
641.2664398458994
 20
93.35306320837583
 10
641.2483271687687
 20
93.33550715032595
 10
641.2254211942918
 20
93.31051994113429
 10
641.2046296281026
 20
93.28452956044345
 10
641.1859135312793
 20
93.25767393219996
  0
ARC
  5
C7
330
1F
100
AcDbEntity
  8
0
  6
CONTINUOUS
 62
     7
100
AcDbCircle
 10
645.0
 20
110.0000000000005
 30
0.0
 40
16.85
100
AcDbArc
 50
258.7165494790009
 51
269.2834505210008
  0
LWPOLYLINE
  5
C8
330
1F
100
AcDbEntity
  8
0
  6
CONTINUOUS
 62
     7
100
AcDbPolyline
 90
       34
 70
     0
 43
0.0
 10
645.2498142073923
 20
92.83054075944135
 10
645.2398682145072
 20
92.85456480547538
 10
645.2285398466285
 20
92.87832732281197
 10
645.215709467044
 20
92.90192307478117
 10
645.2013928593616
 20
92.92515870689776
 10
645.185168843446
 20
92.948475888259
 10
645.1672733747405
 20
92.97128242214144
 10
645.1542521634785
 20
92.98630429719867
 10
645.1404150402788
 20
93.0010307002643
 10
645.1257472992709
 20
93.01541823020072
 10
645.114300663475
 20
93.02586416545009
 10
645.1023704180834
 20
93.03608767960306
 10
645.089897749429
 20
93.0461079707363
 10
645.0769186856172
 20
93.0558637813001
 10
645.0632332154557
 20
93.06546157082866
 10
645.049010571032
 20
93.07473739465848
 10
645.034156730985
 20
93.08371346096511
 10
645.0187492915995
 20
93.09230302191246
 10
645.005954585883
 20
93.09890779700206
 10
644.9928022600033
 20
93.10522138911915
 10
644.9790917694972
 20
93.11130960825908
 10
644.9650102737656
 20
93.11706004714719
 10
644.9505797568089
 20
93.12244514797612
 10
644.9358222026277
 20
93.12743735293853
 10
644.9204663425131
 20
93.13209520801216
 10
644.9047956213383
 20
93.13630180300625
 10
644.8911647850456
 20
93.13952217791233
 10
644.8773398040296
 20
93.14238074335665
 10
644.8630702934186
 20
93.14490627280237
 10
644.8486299793337
 20
93.14703127348493
 10
644.8340613170219
 20
93.14874365377426
 10
644.8194067617296
 20
93.1500313220403
 10
644.8043617903886
 20
93.15090106945838
 10
644.7892769049754
 20
93.15131768424598
  0
LINE
  5
C9
330
1F
100
AcDbEntity
  8
0
  6
CONTINUOUS
 62
     7
100
AcDbLine
 10
645.2498142073923
 20
92.83054075944135
 30
0.0
 11
645.3985220227961
 21
92.4431436556985
 31
0.0
  0
LINE
  5
CA
330
1F
100
AcDbEntity
  8
0
  6
CONTINUOUS
 62
     7
100
AcDbLine
 10
640.8843294466037
 20
92.80800617250067
 30
0.0
 11
640.9599109515747
 21
92.9096604779811
 31
0.0
  0
LINE
  5
CB
330
1F
100
AcDbEntity
  8
0
  6
CONTINUOUS
 62
     7
100
AcDbLine
 10
645.3985220227961
 20
92.4431436556985
 30
0.0
 11
645.451316772012
 21
92.32799646219551
 31
0.0
  0
LINE
  5
CC
330
1F
100
AcDbEntity
  8
0
  6
CONTINUOUS
 62
     7
100
AcDbLine
 10
648.2604623275502
 20
92.74394570280576
 30
0.0
 11
648.3253761335405
 21
93.15379534370142
 31
0.0
  0
LWPOLYLINE
  5
CD
330
1F
100
AcDbEntity
  8
0
  6
CONTINUOUS
 62
     7
100
AcDbPolyline
 90
       29
 70
     0
 43
0.0
 10
648.7091563181366
 20
93.56331361230002
 10
648.6941532393714
 20
93.55968167827042
 10
648.6792731328164
 20
93.55558987621264
 10
648.6645662969659
 20
93.55105700000642
 10
648.6500830303139
 20
93.54610184353157
 10
648.6352991786509
 20
93.54052037996648
 10
648.6207833729584
 20
93.53451138594069
 10
648.6065755277633
 20
93.52810489918204
 10
648.5927155575928
 20
93.52133095741824
 10
648.5752991601222
 20
93.51203781488425
 10
648.5584652646381
 20
93.50218434417415
 10
648.5422440287603
 20
93.49183092395904
 10
648.5266656101084
 20
93.48103793291001
 10
648.5117601663025
 20
93.4698657496982
 10
648.4975578549623
 20
93.45837475299467
 10
648.4823909632344
 20
93.44509880745261
 10
648.4680221715014
 20
93.43146997320531
 10
648.4544473657388
 20
93.41754330576138
 10
648.4416624319225
 20
93.40337386062937
 10
648.4253730571932
 20
93.38361157501684
 10
648.4104392287908
 20
93.36349867252817
 10
648.3968234763847
 20
93.34312421965113
 10
648.3831349264668
 20
93.32018201525516
 10
648.3709248494666
 20
93.2970135912652
 10
648.3601422685053
 20
93.2736907865476
 10
648.3507362067036
 20
93.25028543996874
 10
648.3399737713539
 20
93.21814178934744
 10
648.3315509706988
 20
93.18594170328878
 10
648.3253761335405
 20
93.15379534370142
  0
ARC
  5
CE
330
1F
100
AcDbEntity
  8
0
  6
CONTINUOUS
 62
     7
100
AcDbCircle
 10
645.0
 20
110.0000000000005
 30
0.0
 40
16.84999999999998
100
AcDbArc
 50
282.716549478997
 51
293.2834505209972
  0
LWPOLYLINE
  5
CF
330
1F
100
AcDbEntity
  8
0
  6
CONTINUOUS
 62
     7
100
AcDbPolyline
 90
       29
 70
     0
 43
0.0
 10
652.2116648493485
 20
94.41652709271534
 10
652.1861926714697
 20
94.44028611699434
 10
652.1586232648407
 20
94.46259200795431
 10
652.128945160479
 20
94.48327015227439
 10
652.104531372095
 20
94.49803602094173
 10
652.0787538738027
 20
94.5116616767711
 10
652.0516176405172
 20
94.52401365943899
 10
652.0231276471534
 20
94.5349585086219
 10
652.0032428666211
 20
94.54144593394797
 10
651.9826697479004
 20
94.54720767145527
 10
651.9614390084938
 20
94.55217764649873
 10
651.9395813659037
 20
94.55628978443333
 10
651.917127537633
 20
94.55947801061407
 10
651.894108241184
 20
94.56167625039586
 10
651.8748446007693
 20
94.5626929145045
 10
651.8552042826092
 20
94.56296454795337
 10
651.8352408339986
 20
94.56245036276121
 10
651.8196734132132
 20
94.56149275320207
 10
651.8039345661622
 20
94.5600276280865
 10
651.788066261233
 20
94.55804178054238
 10
651.7721104668136
 20
94.55552200369769
 10
651.7583034936929
 20
94.55290959384895
 10
651.7444534810398
 20
94.54988205432583
 10
651.7305984658635
 20
94.54643956827763
 10
651.7167764851733
 20
94.54258231885372
 10
651.7025523424387
 20
94.53815745462916
 10
651.6883950106774
 20
94.53328550458086
 10
651.6743521346406
 20
94.52797988167826
 10
651.6604713590793
 20
94.5222539988909
  0
LINE
  5
D0
330
1F
100
AcDbEntity
  8
0
  6
CONTINUOUS
 62
     7
100
AcDbLine
 10
652.2116648493485
 20
94.41652709271534
 30
0.0
 11
652.5050847961402
 21
94.12310714592361
 31
0.0
  0
LINE
  5
D1
330
1F
100
AcDbEntity
  8
0
  6
CONTINUOUS
 62
     7
100
AcDbLine
 10
652.5050847961402
 20
94.12310714592361
 30
0.0
 11
652.6001497824187
 21
94.03938850940676
 31
0.0
  0
LINE
  5
D2
330
1F
100
AcDbEntity
  8
0
  6
CONTINUOUS
 62
     7
100
AcDbLine
 10
648.2327617179674
 20
92.62033810617379
 30
0.0
 11
648.2604623275502
 21
92.74394570280576
 31
0.0
  0
LINE
  5
D3
330
1F
100
AcDbEntity
  8
0
  6
CONTINUOUS
 62
     7
100
AcDbLine
 10
634.3579276751287
 20
96.03045021737395
 30
0.0
 11
634.7059411293475
 21
96.2564527970786
 31
0.0
  0
LWPOLYLINE
  5
D4
330
1F
100
AcDbEntity
  8
0
  6
CONTINUOUS
 62
     7
100
AcDbPolyline
 90
       29
 70
     0
 43
0.0
 10
635.2670715792224
 20
96.2452697461576
 10
635.2543335070503
 20
96.25398896828877
 10
635.2413359708023
 20
96.26230909248562
 10
635.2281265933149
 20
96.27020531524268
 10
635.2147529974243
 20
96.27765283305446
 10
635.2007128340297
 20
96.28490464781873
 10
635.1865343113483
 20
96.29167119189073
 10
635.1722664597936
 20
96.2979429021592
 10
635.1579583097795
 20
96.30371021551288
 10
635.1393983143929
 20
96.31043479507277
 10
635.1208116839291
 20
96.31635155856344
 10
635.1022634678714
 20
96.32147849572253
 10
635.0838187157032
 20
96.32583359628774
 10
635.065542476908
 20
96.32943484999669
 10
635.0474998009695
 20
96.33230024658705
 10
635.0274852192782
 20
96.33468810220268
 10
635.007742423305
 20
96.33624672530358
 10
634.9883095744468
 20
96.3370160125315
 10
634.9692248341004
 20
96.33703586052827
 10
634.943638874618
 20
96.33591767491366
 10
634.918699393554
 20
96.33355751357759
 10
634.8944475076631
 20
96.33004281951527
 10
634.8682386994744
 20
96.32486406341641
 10
634.842851068845
 20
96.31843521736494
 10
634.8183038922667
 20
96.31084223414896
 10
634.7946164462312
 20
96.30217106655672
 10
634.7635275837087
 20
96.2886608142656
 10
634.7339623026646
 20
96.2733741118792
 10
634.7059411293475
 20
96.2564527970786
  0
ARC
  5
D5
330
1F
100
AcDbEntity
  8
0
  6
CONTINUOUS
 62
     7
100
AcDbCircle
 10
645.0
 20
110.0000000000005
 30
0.0
 40
16.85
100
AcDbArc
 50
234.7165494790037
 51
245.2834505210044
  0
LWPOLYLINE
  5
D6
330
1F
100
AcDbEntity
  8
0
  6
CONTINUOUS
 62
     7
100
AcDbPolyline
 90
       29
 70
     0
 43
0.0
 10
638.2447684194873
 20
94.21330990850048
 10
638.2453806016092
 20
94.24813731600712
 10
638.2435095752792
 20
94.28355093222827
 10
638.239017903264
 20
94.31944244116197
 10
638.2336550691329
 20
94.34746571632465
 10
638.2265323916936
 20
94.37573947414141
 10
638.2175540194648
 20
94.40417071514277
 10
638.2066241009662
 20
94.43266643985929
 10
638.198139682273
 20
94.45178464645973
 10
638.188655384283
 20
94.47092880809292
 10
638.1781426579867
 20
94.49003188463847
 10
638.1665729543746
 20
94.509026835976
 10
638.1539177244373
 20
94.52784662198513
 10
638.1401484191655
 20
94.54642420254542
 10
638.1280140564456
 20
94.56142015831095
 10
638.1150739814382
 20
94.57619751737666
 10
638.1013337128993
 20
94.59068919386095
 10
638.0902054326012
 20
94.60161727619864
 10
638.0785852881821
 20
94.61233315888668
 10
638.0664915473563
 20
94.62279681621254
 10
638.0539424778382
 20
94.63296822246367
 10
638.0427624106808
 20
94.64148075970772
 10
638.0312450429857
 20
94.64974750558676
 10
638.0194159625861
 20
94.65774031564509
 10
638.0073007573158
 20
94.66543104542701
 10
637.994494633111
 20
94.67304083141545
 10
637.9814009646567
 20
94.68030180836645
 10
637.9680616002931
 20
94.68718754435814
 10
637.9545183883605
 20
94.69367160746859
  0
LINE
  5
D7
330
1F
100
AcDbEntity
  8
0
  6
CONTINUOUS
 62
     7
100
AcDbLine
 10
638.2447684194873
 20
94.21330990850048
 30
0.0
 11
638.2230511712517
 21
93.79892012643586
 31
0.0
  0
LINE
  5
D8
330
1F
100
AcDbEntity
  8
0
  6
CONTINUOUS
 62
     7
100
AcDbLine
 10
634.2475340036154
 20
95.968326155963
 30
0.0
 11
634.3579276751287
 21
96.03045021737395
 31
0.0
  0
LINE
  5
D9
330
1F
100
AcDbEntity
  8
0
  6
CONTINUOUS
 62
     7
100
AcDbLine
 10
638.2230511712517
 20
93.79892012643586
 30
0.0
 11
638.2244469916401
 21
93.67225437178281
 31
0.0
  0
LINE
  5
DA
330
1F
100
AcDbEntity
  8
0
  6
CONTINUOUS
 62
     7
100
AcDbLine
 10
654.9972501467219
 20
95.56195948194724
 30
0.0
 11
654.889850992219
 21
95.96277858324176
 31
0.0
  0
LWPOLYLINE
  5
DB
330
1F
100
AcDbEntity
  8
0
  6
CONTINUOUS
 62
     7
100
AcDbPolyline
 90
       29
 70
     0
 43
0.0
 10
655.0738855507419
 20
96.49298960130332
 10
655.0616567969404
 20
96.48356936257532
 10
655.049727429021
 20
96.47377903080309
 10
655.038135752785
 20
96.46365623329075
 10
655.0269200740338
 20
96.45323859734243
 10
655.0156845392545
 20
96.44212654245841
 10
655.0048677689583
 20
96.43073294318224
 10
654.9944940094357
 20
96.41910147504441
 10
654.9845875069766
 20
96.40727581357545
 10
654.9724566977769
 20
96.3917022183847
 10
654.9610859366222
 20
96.37585366283636
 10
654.9504782156512
 20
96.35979757180026
 10
654.9406365270027
 20
96.34360137014616
 10
654.9315638628149
 20
96.32733248274387
 10
654.9232632152268
 20
96.31105833446317
 10
654.9148073837058
 20
96.29276122408999
 10
654.907224185577
 20
96.27446635035587
 10
654.9004874693996
 20
96.25622233564613
 10
654.8945710837327
 20
96.23807780234604
 10
654.8877280451505
 20
96.21339857049688
 10
654.882265968489
 20
96.18895038455568
 10
654.8781143962939
 20
96.16479937025132
 10
654.8749407188952
 20
96.13827298879487
 10
654.8732097055134
 20
96.1121412945674
 10
654.8728455669525
 20
96.08644918147424
 10
654.8737725140167
 20
96.06124154342075
 10
654.8770145406397
 20
96.02749938057813
 10
654.8824168842708
 20
95.9946572765598
 10
654.889850992219
 20
95.96277858324176
  0
ARC
  5
DC
330
1F
100
AcDbEntity
  8
0
  6
CONTINUOUS
 62
     7
100
AcDbCircle
 10
645.0
 20
110.0000000000005
 30
0.0
 40
16.85
100
AcDbArc
 50
306.7165494789945
 51
317.283450520996
  0
LWPOLYLINE
  5
DD
330
1F
100
AcDbEntity
  8
0
  6
CONTINUOUS
 62
     7
100
AcDbPolyline
 90
       29
 70
     0
 43
0.0
 10
657.9265531229339
 20
98.69703746306588
 10
657.8936194647584
 20
98.70838194365169
 10
657.8593609353529
 20
98.71754590111303
 10
657.823838078916
 20
98.72436515338812
 10
657.79552915358
 20
98.72792446330524
 10
657.766438183594
 20
98.7298874661733
 10
657.7366239969729
 20
98.73013426340016
 10
657.7061454217314
 20
98.72854495639372
 10
657.6853410972006
 20
98.72638364545018
 10
657.6642031082717
 20
98.72327941333202
 10
657.6427863917589
 20
98.71918439178127
 10
657.6211458844767
 20
98.71405071254001
 10
657.5993365232392
 20
98.70783050735028
 10
657.5774132448605
 20
98.70047590795414
 10
657.5594015191153
 20
98.69356944839683
 10
657.5413487123965
 20
98.68582916082286
 10
657.5233203325583
 20
98.67723956320403
 10
657.5094882809101
 20
98.67003290286952
 10
657.4957060487492
 20
98.66229287865985
 10
657.4820173478245
 20
98.65402449557818
 10
657.4684658898847
 20
98.64523275862771
 10
657.4569151551187
 20
98.63723040157872
 10
657.4454939502336
 20
98.62883129894648
 10
657.4342369492729
 20
98.6200510890916
 10
657.4231788262797
 20
98.61090541037474
 10
657.4119841797166
 20
98.60107761569522
 10
657.4010324142015
 20
98.59086856226324
 10
657.3903615998346
 20
98.58030988230226
 10
657.3800098067157
 20
98.56943320803582
  0
LINE
  5
DE
330
1F
100
AcDbEntity
  8
0
  6
CONTINUOUS
 62
     7
100
AcDbLine
 10
657.9265531229339
 20
98.69703746306588
 30
0.0
 11
658.3139502266768
 21
98.54832964766211
 31
0.0
  0
LINE
  5
DF
330
1F
100
AcDbEntity
  8
0
  6
CONTINUOUS
 62
     7
100
AcDbLine
 10
658.3139502266768
 20
98.54832964766211
 30
0.0
 11
658.434847850252
 21
98.51051528094509
 31
0.0
  0
LINE
  5
E0
330
1F
100
AcDbEntity
  8
0
  6
CONTINUOUS
 62
     7
100
AcDbLine
 10
655.0222201195763
 20
95.43777147056116
 30
0.0
 11
654.9972501467219
 21
95.56195948194724
 31
0.0
  0
LINE
  5
E1
330
1F
100
AcDbEntity
  8
0
  6
CONTINUOUS
 62
     7
100
AcDbLine
 10
629.5960553838449
 20
101.5667020235586
 30
0.0
 11
630.0059050247406
 21
101.6316158295491
 31
0.0
  0
LWPOLYLINE
  5
E2
330
1F
100
AcDbEntity
  8
0
  6
CONTINUOUS
 62
     7
100
AcDbPolyline
 90
       32
 70
     0
 43
0.0
 10
630.5139746417777
 20
101.3931672886679
 10
630.5058980297458
 20
101.4062941229361
 10
630.4974285779076
 20
101.4191557407087
 10
630.4885985169423
 20
101.4317086514011
 10
630.4792265979021
 20
101.4441902415688
 10
630.4695252977563
 20
101.4563065810054
 10
630.4593145608941
 20
101.4682712989878
 10
630.4488140188827
 20
101.4798231110983
 10
630.4380645904349
 20
101.4909356789181
 10
630.4275696669183
 20
101.5011499318856
 10
630.4168924076789
 20
101.5109526166845
 10
630.4021854314719
 20
101.5235629944705
 10
630.3872291864043
 20
101.5354214066719
 10
630.3720908852179
 20
101.5465186094694
 10
630.3604718949664
 20
101.5544620006901
 10
630.3487843347183
 20
101.5619814950123
 10
630.3314925957535
 20
101.5722916798718
 10
630.3141194051415
 20
101.5817322785845
 10
630.2967192818592
 20
101.5903227670083
 10
630.2790373585611
 20
101.5982150307351
 10
630.2613798597677
 20
101.6052967840881
 10
630.2435277121041
 20
101.6116809349825
 10
630.2257401670247
 20
101.6172968999331
 10
630.2080459290772
 20
101.6221712087595
 10
630.1821080285694
 20
101.6280764508058
 10
630.1563067696868
 20
101.6325337785108
 10
630.130803089284
 20
101.6355877898877
 10
630.1052764337575
 20
101.637324106256
 10
630.0801041069653
 20
101.637755513459
 10
630.0549930642142
 20
101.636922553271
 10
630.0302811187098
 20
101.6348643385373
 10
630.0059050247406
 20
101.6316158295491
  0
ARC
  5
E3
330
1F
100
AcDbEntity
  8
0
  6
CONTINUOUS
 62
     7
100
AcDbCircle
 10
645.0
 20
110.0000000000005
 30
0.0
 40
16.84999999999996
100
AcDbArc
 50
210.7165494790034
 51
221.2834505210055
  0
LWPOLYLINE
  5
E4
330
1F
100
AcDbEntity
  8
0
  6
CONTINUOUS
 62
     7
100
AcDbPolyline
 90
       29
 70
     0
 43
0.0
 10
632.4077635412051
 20
98.32574119195705
 10
632.4224883802182
 20
98.35730861498499
 10
632.4351831279943
 20
98.39042157819107
 10
632.4456781732861
 20
98.42503703074267
 10
632.4521770733932
 20
98.45281882762767
 10
632.4571701571138
 20
98.48154524456305
 10
632.4605320334706
 20
98.51117030861555
 10
632.4621373114869
 20
98.54164804685183
 10
632.4621624845033
 20
98.56256432162763
 10
632.4612847791929
 20
98.5839109950544
 10
632.4594508470639
 20
98.60563843486293
 10
632.4566073396253
 20
98.62769700878404
 10
632.4527009083853
 20
98.6500370845485
 10
632.4476782048529
 20
98.67260902988711
 10
632.4426923176168
 20
98.69124400711824
 10
632.4368814642919
 20
98.71000699903837
 10
632.4302234002272
 20
98.72883447496467
 10
632.4245020618348
 20
98.74334405431671
 10
632.4182450738357
 20
98.75785983880405
 10
632.4114528446936
 20
98.7723378329701
 10
632.4041257828715
 20
98.7867340413582
 10
632.3973746441263
 20
98.7990579740755
 10
632.3902153936525
 20
98.81129455769617
 10
632.3826599597173
 20
98.82340767347111
 10
632.3747202705885
 20
98.8353612026512
 10
632.3661164727986
 20
98.84752180804443
 10
632.3571081168488
 20
98.85948071530869
 10
632.347722682269
 20
98.87119675642843
 10
632.3379876485891
 20
98.88262876338803
  0
LINE
  5
E5
330
1F
100
AcDbEntity
  8
0
  6
CONTINUOUS
 62
     7
100
AcDbLine
 10
632.4077635412051
 20
98.32574119195705
 30
0.0
 11
632.2193763388451
 21
97.9560104895026
 31
0.0
  0
LINE
  5
E6
330
1F
100
AcDbEntity
  8
0
  6
CONTINUOUS
 62
     7
100
AcDbLine
 10
629.469937614489
 20
101.5548500208144
 30
0.0
 11
629.5960553838449
 21
101.5667020235586
 31
0.0
  0
LINE
  5
E7
330
1F
100
AcDbEntity
  8
0
  6
CONTINUOUS
 62
     7
100
AcDbLine
 10
632.2193763388451
 20
97.9560104895026
 30
0.0
 11
632.1691318803805
 21
97.83972783340128
 31
0.0
  0
LINE
  5
E8
330
1F
100
AcDbEntity
  8
0
  6
CONTINUOUS
 62
     7
100
AcDbLine
 10
660.005422593359
 20
100.8764416321405
 30
0.0
 11
659.744280767867
 21
101.1989249298928
 31
0.0
  0
LWPOLYLINE
  5
E9
330
1F
100
AcDbEntity
  8
0
  6
CONTINUOUS
 62
     7
100
AcDbPolyline
 90
       29
 70
     0
 43
0.0
 10
659.6967484532469
 20
101.7581503955786
 10
659.689408487036
 20
101.7445706970085
 10
659.6824925538402
 20
101.7307746728276
 10
659.6760203433471
 20
101.7168122776617
 10
659.670011545244
 20
101.7027334661366
 10
659.6642670533835
 20
101.688012195173
 10
659.6590196363352
 20
101.6732040474689
 10
659.6542736797489
 20
101.6583587844615
 10
659.6500335692745
 20
101.6435261675881
 10
659.645285875461
 20
101.6243649358307
 10
659.6413443565395
 20
101.6052616546781
 10
659.6381843217994
 20
101.5862791368261
 10
659.6357810805304
 20
101.5674801949708
 10
659.6341099420215
 20
101.5489276418081
 10
659.6331462155626
 20
101.530684290034
 10
659.632863534337
 20
101.5105297514372
 10
659.6333771336604
 20
101.4907321880886
 10
659.6346433464963
 20
101.471325381998
 10
659.6366185058092
 20
101.4523431151754
 10
659.640405026912
 20
101.4270142004801
 10
659.6453591446676
 20
101.4024580445404
 10
659.6513895972316
 20
101.378706398587
 10
659.6592795500068
 20
101.3531824924085
 10
659.6683269081825
 20
101.3286059352745
 10
659.6784441748873
 20
101.3049869135651
 10
659.689543853249
 20
101.2823356136606
 10
659.7062297659888
 20
101.2528292650901
 10
659.7245231396136
 20
101.225023841258
 10
659.744280767867
 20
101.1989249298928
  0
ARC
  5
EA
330
1F
100
AcDbEntity
  8
0
  6
CONTINUOUS
 62
     7
100
AcDbCircle
 10
645.0
 20
110.0000000000005
 30
0.0
 40
16.84999999999996
100
AcDbArc
 50
330.7165494789949
 51
341.2834505209978
  0
LWPOLYLINE
  5
EB
330
1F
100
AcDbEntity
  8
0
  6
CONTINUOUS
 62
     7
100
AcDbPolyline
 90
       29
 70
     0
 43
0.0
 10
661.4063229275157
 20
104.9319327402435
 10
661.3716223177349
 20
104.9289011133814
 10
661.3365982765158
 20
104.9233386058471
 10
661.3013728925968
 20
104.9151198554079
 10
661.274063700678
 20
104.9068571695548
 10
661.246689351992
 20
104.8968180984324
 10
661.2193523557553
 20
104.8849170367356
 10
661.1921552211846
 20
104.8710683791596
 10
661.1740286093682
 20
104.8606320422435
 10
661.1559807005494
 20
104.8491985904341
 10
661.1380811517806
 20
104.8367466387174
 10
661.120399620113
 20
104.8232548020791
 10
661.1030057625984
 20
104.8087016955051
 10
661.0859692362886
 20
104.793065933981
 10
661.0723238162255
 20
104.7794305403584
 10
661.058980015234
 20
104.7650166978014
 10
661.0460039748251
 20
104.7498369072183
 10
661.0362989797043
 20
104.7376272931507
 10
661.0268564355819
 20
104.7249506903487
 10
661.0177142394094
 20
104.7118294502802
 10
661.0089102881382
 20
104.6982859244131
 10
661.001613018703
 20
104.6862773003968
 10
660.9945954516689
 20
104.673958915804
 10
660.9878829026565
 20
104.661359160192
 10
660.981500687286
 20
104.6485064231182
 10
660.975271192985
 20
104.6349750129666
 10
660.9694186534675
 20
104.6211940942356
 10
660.963964981516
 20
104.6072080489041
 10
660.9589320899128
 20
104.5930612589507
  0
LINE
  5
EC
330
1F
100
AcDbEntity
  8
0
  6
CONTINUOUS
 62
     7
100
AcDbLine
 10
661.4063229275157
 20
104.9319327402435
 30
0.0
 11
661.8207127095802
 21
104.9536499884791
 31
0.0
  0
LINE
  5
ED
330
1F
100
AcDbEntity
  8
0
  6
CONTINUOUS
 62
     7
100
AcDbLine
 10
661.8207127095802
 20
104.9536499884791
 30
0.0
 11
661.9465386730158
 21
104.9682783391
 31
0.0
  0
LINE
  5
EE
330
1F
100
AcDbEntity
  8
0
  6
CONTINUOUS
 62
     7
100
AcDbLine
 10
660.0787456134991
 20
100.7731464413816
 30
0.0
 11
660.005422593359
 21
100.8764416321405
 31
0.0
  0
ARC
  5
EF
330
1F
100
AcDbEntity
  8
0
  6
CONTINUOUS
 62
     7
100
AcDbCircle
 10
645.0
 20
110.0000000000005
 30
0.0
 40
16.84999999999999
100
AcDbArc
 50
184.9597173297062
 51
197.2834505210035
  0
LWPOLYLINE
  5
F0
330
1F
100
AcDbEntity
  8
0
  6
CONTINUOUS
 62
     7
100
AcDbPolyline
 90
       29
 70
     0
 43
0.0
 10
628.7480707435254
 20
104.4567578806361
 10
628.7743621809932
 20
104.4796070249628
 10
628.7994276656567
 20
104.5046938029936
 10
628.8230947395803
 20
104.5320478729455
 10
628.8403316550565
 20
104.5547844664816
 10
628.8565771504009
 20
104.5789964840762
 10
628.8716979763796
 20
104.6046929284699
 10
628.8855608837582
 20
104.6318828024034
 10
628.894091295841
 20
104.6509805314274
 10
628.9019719464319
 20
104.6708386828838
 10
628.9091339119963
 20
104.6914336142248
 10
628.9155082689997
 20
104.7127416829027
 10
628.9210260939074
 20
104.7347392463696
 10
628.925618463185
 20
104.7574026620778
 10
628.9286431566306
 20
104.7764545039178
 10
628.9309662743184
 20
104.7959588369329
 10
628.9325416544914
 20
104.8158666706713
 10
628.9332165293894
 20
104.8314489089524
 10
628.9334045878783
 20
104.8472546842294
 10
628.9330883085438
 20
104.8632436385158
 10
628.9322501699711
 20
104.8793754138252
 10
628.9310952928596
 20
104.8933798220895
 10
628.9295320590535
 20
104.9074704269779
 10
628.9275566747491
 20
104.9216093807078
 10
628.925165346142
 20
104.9357588354964
 10
628.9222515495679
 20
104.9503675811463
 10
628.9188861327048
 20
104.9649566150146
 10
628.9150774548116
 20
104.9794771513158
 10
628.9108338751475
 20
104.9938804042648
  0
LINE
  5
F1
330
1F
100
AcDbEntity
  8
0
  6
CONTINUOUS
 62
     7
100
AcDbLine
 10
628.7480707435254
 20
104.4567578806361
 30
0.0
 11
628.4255874457731
 21
104.1956160551442
 31
0.0
  0
LINE
  5
F2
330
1F
100
AcDbEntity
  8
0
  6
CONTINUOUS
 62
     7
100
AcDbLine
 10
628.2130909823774
 20
108.5432276657066
 30
0.0
 11
628.1066631955129
 21
108.8107588286007
 31
0.0
  0
LINE
  5
F3
330
1F
100
AcDbEntity
  8
0
  6
CONTINUOUS
 62
     7
100
AcDbLine
 10
628.4255874457731
 20
104.1956160551442
 30
0.0
 11
628.3323904317806
 21
104.1098228252292
 31
0.0
  0
LINE
  5
F4
330
1F
100
AcDbEntity
  8
0
  6
CONTINUOUS
 62
     7
100
AcDbLine
 10
662.4190211536196
 20
107.7684699090625
 30
0.0
 11
662.0492904511588
 21
107.9568571114257
 31
0.0
  0
LWPOLYLINE
  5
F5
330
1F
100
AcDbEntity
  8
0
  6
CONTINUOUS
 62
     7
100
AcDbPolyline
 90
       29
 70
     0
 43
0.0
 10
661.7784100324172
 20
108.4484018613116
 10
661.7772280006365
 20
108.4330107561497
 10
661.7765213298431
 20
108.417594497474
 10
661.7762876890855
 20
108.4022067296232
 10
661.7765247474106
 20
108.386901096936
 10
661.7772645732985
 20
108.3711160513809
 10
661.7784938355769
 20
108.3554538185147
 10
661.7801963009366
 20
108.3399616414767
 10
661.7823557360679
 20
108.3246867634064
 10
661.7858120770326
 20
108.3052510461276
 10
661.7899813247734
 20
108.2861961702298
 10
661.7948153749788
 20
108.2675694753494
 10
661.8002661233375
 20
108.2494183011226
 10
661.8062854655375
 20
108.231789987186
 10
661.8128252972675
 20
108.2147318731758
 10
661.8207646444896
 20
108.1962048091771
 10
661.829286235276
 20
108.1783277347722
 10
661.8383364374228
 20
108.1611137503792
 10
661.8478616187266
 20
108.1445759564161
 10
661.8616229756162
 20
108.1229769583314
 10
661.8761366758222
 20
108.1025588148409
 10
661.8913064331122
 20
108.0833134126008
 10
661.9088957715476
 20
108.0632052969565
 10
661.9271571308592
 20
108.0444333869159
 10
661.9460064355031
 20
108.0269714000164
 10
661.9653596099356
 20
108.0107930537954
 10
661.9926042628915
 20
107.9906244352221
 10
662.0206255760191
 20
107.9726635019615
 10
662.0492904511588
 20
107.9568571114257
  0
ARC
  5
F6
330
1F
100
AcDbEntity
  8
0
  6
CONTINUOUS
 62
     7
100
AcDbCircle
 10
645.0
 20
110.0000000000005
 30
0.0
 40
16.84999999999997
100
AcDbArc
 50
354.7165494789983
 51
5.283450521001613
  0
LWPOLYLINE
  5
F7
330
1F
100
AcDbEntity
  8
0
  6
CONTINUOUS
 62
     7
100
AcDbPolyline
 90
       29
 70
     0
 43
0.0
 10
662.0492904511652
 20
112.0431428885786
 10
662.0188229404555
 20
112.0262593500947
 10
661.9890893623332
 20
112.0069321856512
 10
661.9602522398241
 20
111.9850965291137
 10
661.9386647887014
 20
111.9664405409385
 10
661.9177403348914
 20
111.9461352424247
 10
661.8976073440373
 20
111.9241441234894
 10
661.878394281783
 20
111.9004306740499
 10
661.8660796385388
 20
111.8835238486251
 10
661.8542424572254
 20
111.8657381248121
 10
661.8429550707946
 20
111.8470822985037
 10
661.8322898121986
 20
111.8275651655926
 10
661.8223190143896
 20
111.8071955219716
 10
661.8131150103195
 20
111.7859821635336
 10
661.8061953130324
 20
111.7679755192767
 10
661.7998677821845
 20
111.7493804060605
 10
661.794187756475
 20
111.7302351462089
 10
661.790287899705
 20
111.7151337316014
 10
661.7868177452826
 20
111.6997124499948
 10
661.7838028226349
 20
111.6840071345501
 10
661.7812686611884
 20
111.6680536184278
 10
661.7794866212629
 20
111.6541151276315
 10
661.7780860931726
 20
111.6400074216833
 10
661.7770786568143
 20
111.6257667325247
 10
661.7764758920846
 20
111.6114292920976
 10
661.7762886862038
 20
111.596533970218
 10
661.776547329935
 20
111.5815640322323
 10
661.7772537898242
 20
111.5665689358273
 10
661.7784100324172
 20
111.5515981386895
  0
LINE
  5
F8
330
1F
100
AcDbEntity
  8
0
  6
CONTINUOUS
 62
     7
100
AcDbLine
 10
662.0492904511652
 20
112.0431428885786
 30
0.0
 11
662.4190211536196
 21
112.2315300909387
 31
0.0
  0
LINE
  5
F9
330
1F
100
AcDbEntity
  8
0
  6
CONTINUOUS
 62
     7
100
AcDbLine
 10
662.4190211536196
 20
112.2315300909387
 30
0.0
 11
662.5280190047445
 21
112.2960717841808
 31
0.0
  0
LINE
  5
FA
330
1F
100
AcDbEntity
  8
0
  6
CONTINUOUS
 62
     7
100
AcDbLine
 10
662.5280190047445
 20
107.7039282158204
 30
0.0
 11
662.4190211536196
 21
107.7684699090625
 31
0.0
  0
LINE
  5
FB
330
1F
100
AcDbEntity
  8
0
  6
CONTINUOUS
 62
     7
100
AcDbLine
 10
627.714963118353
 20
109.0000000000005
 30
0.0
 11
628.1066631955129
 21
108.8107588286007
 31
0.0
  0
LINE
  5
FC
330
1F
100
AcDbEntity
  8
0
  6
CONTINUOUS
 62
     7
100
AcDbLine
 10
627.2094505293461
 20
109.0000000000006
 30
0.0
 11
627.714963118353
 21
109.0000000000005
 31
0.0
  0
LINE
  5
FD
330
1F
100
AcDbEntity
  8
0
  6
CONTINUOUS
 62
     7
100
AcDbLine
 10
628.4255874457731
 20
115.8043839448569
 30
0.0
 11
628.7480707435254
 21
115.543242119365
 31
0.0
  0
LWPOLYLINE
  5
FE
330
1F
100
AcDbEntity
  8
0
  6
CONTINUOUS
 62
     7
100
AcDbPolyline
 90
       29
 70
     0
 43
0.0
 10
628.9108338751475
 20
115.0061195957363
 10
628.9151900673957
 20
115.0209286100968
 10
628.9190865161439
 20
115.0358610614133
 10
628.9225143481224
 20
115.0508639929723
 10
628.9254646900614
 20
115.0658844480601
 10
628.9280229266551
 20
115.0814783709485
 10
628.9300768880239
 20
115.0970539244476
 10
628.9316326303395
 20
115.1125615226989
 10
628.9326962097737
 20
115.1279515798442
 10
628.9333563109934
 20
115.1476811937631
 10
628.9332399027851
 20
115.167186510252
 10
628.9323841958017
 20
115.1864112227106
 10
628.9308264006964
 20
115.2052990245384
 10
628.9286037281222
 20
115.223793609135
 10
628.9257533887322
 20
115.2418386698998
 10
628.9218395284975
 20
115.2616115562036
 10
628.9172210076819
 20
115.2808697119898
 10
628.9119475627666
 20
115.2995891723535
 10
628.9060689302329
 20
115.3177459723902
 10
628.8970989762203
 20
115.3417341275238
 10
628.8871476059225
 20
115.3647236535403
 10
628.8763106883457
 20
115.3867024674541
 10
628.8632864314791
 20
115.4100282016221
 10
628.849327026238
 20
115.4321866504813
 10
628.8345201753458
 20
115.4531860418709
 10
628.8189535815251
 20
115.4730346036303
 10
628.7964975811915
 20
115.4984269713604
 10
628.7728228889881
 20
115.521821373728
 10
628.7480707435254
 20
115.543242119365
  0
ARC
  5
FF
330
1F
100
AcDbEntity
  8
0
  6
CONTINUOUS
 62
     7
100
AcDbCircle
 10
645.0
 20
110.0000000000005
 30
0.0
 40
16.85000000000001
100
AcDbArc
 50
162.7165494789966
 51
175.0402826702939
  0
LINE
  5
100
330
1F
100
AcDbEntity
  8
0
  6
CONTINUOUS
 62
     7
100
AcDbLine
 10
628.106663195514
 20
111.1892411714003
 30
0.0
 11
628.2130909823774
 21
111.4567723342945
 31
0.0
  0
LINE
  5
101
330
1F
100
AcDbEntity
  8
0
  6
CONTINUOUS
 62
     7
100
AcDbLine
 10
628.3323904317806
 20
115.8901771747718
 30
0.0
 11
628.4255874457731
 21
115.8043839448569
 31
0.0
  0
LINE
  5
102
330
1F
100
AcDbEntity
  8
0
  6
CONTINUOUS
 62
     7
100
AcDbLine
 10
628.106663195514
 20
111.1892411714003
 30
0.0
 11
627.714963118353
 21
111.0000000000005
 31
0.0
  0
LINE
  5
103
330
1F
100
AcDbEntity
  8
0
  6
CONTINUOUS
 62
     7
100
AcDbLine
 10
627.714963118353
 20
111.0000000000005
 30
0.0
 11
627.2094505293461
 21
111.0000000000005
 31
0.0
  0
LINE
  5
104
330
1F
100
AcDbEntity
  8
0
  6
CONTINUOUS
 62
     7
100
AcDbLine
 10
661.8207127095802
 20
115.0463500115221
 30
0.0
 11
661.4063229275157
 21
115.0680672597577
 31
0.0
  0
LWPOLYLINE
  5
105
330
1F
100
AcDbEntity
  8
0
  6
CONTINUOUS
 62
     7
100
AcDbPolyline
 90
       29
 70
     0
 43
0.0
 10
660.9589320899128
 20
115.4069387410504
 10
660.9641123765953
 20
115.3923974912032
 10
660.9697371580048
 20
115.3780266092099
 10
660.9757824855917
 20
115.363874153529
 10
660.9822244108072
 20
115.3499881826187
 10
660.9893206318264
 20
115.3358687402513
 10
660.9968140228162
 20
115.3220605645724
 10
661.0046705383949
 20
115.3086002116557
 10
661.0128561331798
 20
115.2955242375748
 10
661.0239188761698
 20
115.27917464686
 10
661.0354779897622
 20
115.2634629373678
 10
661.0474702737166
 20
115.2484127902219
 10
661.0598325277932
 20
115.2340478865459
 10
661.0725015517518
 20
115.2203919074632
 10
661.0854141453523
 20
115.2074685340974
 10
661.1002027357604
 20
115.1937724423752
 10
661.1152588575465
 20
115.1809069654867
 10
661.1305281868346
 20
115.1688622570769
 10
661.1459563997483
 20
115.1576284707907
 10
661.1673131288006
 20
115.1434940523063
 10
661.1888768608386
 20
115.1307444037674
 10
661.2105629340061
 20
115.1193329501269
 10
661.2348103016933
 20
115.1081175008871
 10
661.2591281072176
 20
115.0983960717224
 10
661.2834502337886
 20
115.090110455804
 10
661.3077105646156
 20
115.083202446303
 10
661.3408031097836
 20
115.0758588951035
 10
661.3737072228105
 20
115.0708480609445
 10
661.4063229275157
 20
115.0680672597577
  0
ARC
  5
106
330
1F
100
AcDbEntity
  8
0
  6
CONTINUOUS
 62
     7
100
AcDbCircle
 10
645.0
 20
110.0000000000005
 30
0.0
 40
16.85000000000001
100
AcDbArc
 50
18.71654947900219
 51
29.28345052100491
  0
LWPOLYLINE
  5
107
330
1F
100
AcDbEntity
  8
0
  6
CONTINUOUS
 62
     7
100
AcDbPolyline
 90
       29
 70
     0
 43
0.0
 10
659.744280767867
 20
118.8010750701082
 10
659.7233144656187
 20
118.7732589371883
 10
659.7040125563715
 20
118.7435089581497
 10
659.6865498957312
 20
118.7118319788999
 10
659.6744168518197
 20
118.6860084782425
 10
659.6635603210422
 20
118.6589479229182
 10
659.6541125125918
 20
118.6306692109914
 10
659.6462056356628
 20
118.6011912405263
 10
659.6418322746829
 20
118.5807372703025
 10
659.6382525770609
 20
118.5596745877114
 10
659.6355290446251
 20
118.5380406486628
 10
659.633724179203
 20
118.5158729090668
 10
659.6329004826224
 20
118.4932088248334
 10
659.6331204567114
 20
118.4700858518727
 10
659.6341229607247
 20
118.4508214693588
 10
659.6359057875876
 20
118.4312603494897
 10
659.6385039046243
 20
118.4114600097273
 10
659.6410835068698
 20
118.3960779663575
 10
659.6441857633725
 20
118.3805784856341
 10
659.647819421765
 20
118.3650046865318
 10
659.6519932296793
 20
118.3493996880251
 10
659.6560345501562
 20
118.3359414221347
 10
659.6604932250399
 20
118.3224837453539
 10
659.6653650962343
 20
118.3090644671769
 10
659.6706460056432
 20
118.2957213970978
 10
659.6765334577799
 20
118.282037699963
 10
659.682858562909
 20
118.268467180998
 10
659.6896030013062
 20
118.2550558219141
 10
659.6967484532469
 20
118.2418496044224
  0
LINE
  5
108
330
1F
100
AcDbEntity
  8
0
  6
CONTINUOUS
 62
     7
100
AcDbLine
 10
659.744280767867
 20
118.8010750701082
 30
0.0
 11
660.005422593359
 21
119.1235583678607
 31
0.0
  0
LINE
  5
109
330
1F
100
AcDbEntity
  8
0
  6
CONTINUOUS
 62
     7
100
AcDbLine
 10
660.005422593359
 20
119.1235583678607
 30
0.0
 11
660.0787456134991
 21
119.2268535586195
 31
0.0
  0
LINE
  5
10A
330
1F
100
AcDbEntity
  8
0
  6
CONTINUOUS
 62
     7
100
AcDbLine
 10
661.9465386730158
 20
115.0317216609012
 30
0.0
 11
661.8207127095802
 21
115.0463500115221
 31
0.0
  0
LINE
  5
10B
330
1F
100
AcDbEntity
  8
0
  6
CONTINUOUS
 62
     7
100
AcDbLine
 10
632.2193763388451
 20
122.0439895104985
 30
0.0
 11
632.4077635412083
 21
121.6742588080377
 31
0.0
  0
LWPOLYLINE
  5
10C
330
1F
100
AcDbEntity
  8
0
  6
CONTINUOUS
 62
     7
100
AcDbPolyline
 90
       29
 70
     0
 43
0.0
 10
632.3379876485891
 20
121.117371236613
 10
632.3479905970182
 20
121.1291281214026
 10
632.3576237551945
 20
121.1411847659905
 10
632.3668574775465
 20
121.1534964010956
 10
632.3756621185032
 20
121.1660182574366
 10
632.3843418037711
 20
121.1792234862938
 10
632.392553339194
 20
121.192617041091
 10
632.4002820889746
 20
121.2061511596255
 10
632.4075134173155
 20
121.2197780796948
 10
632.4161412067209
 20
121.2375334915172
 10
632.4239683894817
 20
121.2553998322794
 10
632.4310060572635
 20
121.2733105284063
 10
632.4372653017317
 20
121.2911990063227
 10
632.4427572145515
 20
121.3089986924534
 10
632.4474928873886
 20
121.326643013223
 10
632.4519597555486
 20
121.3462983540638
 10
632.4555735244727
 20
121.3657700764573
 10
632.4583698832927
 20
121.3850160577244
 10
632.4603845211403
 20
121.4039941751858
 10
632.4619469220895
 20
121.429556854329
 10
632.4622065755945
 20
121.4546064183437
 10
632.4612461477575
 20
121.4790928354355
 10
632.4588353278706
 20
121.5056993964464
 10
632.4550954297263
 20
121.5316199483764
 10
632.4501099203125
 20
121.5568263358194
 10
632.4439622666167
 20
121.5812904033694
 10
632.433775695926
 20
121.6136211637597
 10
632.4216631490891
 20
121.6446223786086
 10
632.4077635412083
 20
121.6742588080377
  0
ARC
  5
10D
330
1F
100
AcDbEntity
  8
0
  6
CONTINUOUS
 62
     7
100
AcDbCircle
 10
645.0
 20
110.0000000000005
 30
0.0
 40
16.84999999999997
100
AcDbArc
 50
138.7165494789945
 51
149.2834505209965
  0
LWPOLYLINE
  5
10E
330
1F
100
AcDbEntity
  8
0
  6
CONTINUOUS
 62
     7
100
AcDbPolyline
 90
       29
 70
     0
 43
0.0
 10
630.0059050247406
 20
118.368384170452
 10
630.0404776536084
 20
118.3641348865415
 10
630.0758928458415
 20
118.3622939323111
 10
630.1120572449072
 20
118.3630093142039
 10
630.1404875744469
 20
118.36541354028
 10
630.169350968187
 20
118.3695417864917
 10
630.1985649553271
 20
118.3754991003272
 10
630.2280470650664
 20
118.3833905292745
 10
630.2479474033784
 20
118.3898300726779
 10
630.2679780703851
 20
118.3972613048951
 10
630.2880753774031
 20
118.4057196261418
 10
630.3081756357487
 20
118.4152404366338
 10
630.3282151567387
 20
118.4258591365868
 10
630.3481302516891
 20
118.4376111262164
 10
630.3643124443278
 20
118.4481115114162
 10
630.3803614576294
 20
118.4594360447046
 10
630.3962099963488
 20
118.4715862499416
 10
630.4082414355465
 20
118.4815112727028
 10
630.420113251347
 20
118.4919476460049
 10
630.4317837278069
 20
118.5028813860325
 10
630.4432111489825
 20
118.5142985089702
 10
630.452845688896
 20
118.5245275281133
 10
630.4622710414221
 20
118.5351176922202
 10
630.4714565416267
 20
118.546046495527
 10
630.4803715245754
 20
118.5572914322697
 10
630.4892782278433
 20
118.569231963951
 10
630.497868089445
 20
118.581494925157
 10
630.5061104479124
 20
118.5940414596851
 10
630.5139746417777
 20
118.6068327113332
  0
LINE
  5
10F
330
1F
100
AcDbEntity
  8
0
  6
CONTINUOUS
 62
     7
100
AcDbLine
 10
630.0059050247406
 20
118.368384170452
 30
0.0
 11
629.5960553838449
 21
118.4332979764425
 31
0.0
  0
LINE
  5
110
330
1F
100
AcDbEntity
  8
0
  6
CONTINUOUS
 62
     7
100
AcDbLine
 10
632.1691318803805
 20
122.1602721665998
 30
0.0
 11
632.2193763388451
 21
122.0439895104985
 31
0.0
  0
LINE
  5
111
330
1F
100
AcDbEntity
  8
0
  6
CONTINUOUS
 62
     7
100
AcDbLine
 10
629.5960553838449
 20
118.4332979764425
 30
0.0
 11
629.469937614489
 21
118.4451499791867
 31
0.0
  0
LINE
  5
112
330
1F
100
AcDbEntity
  8
0
  6
CONTINUOUS
 62
     7
100
AcDbLine
 10
658.3139502266768
 20
121.451670352339
 30
0.0
 11
657.926553122934
 21
121.3029625369352
 31
0.0
  0
LWPOLYLINE
  5
113
330
1F
100
AcDbEntity
  8
0
  6
CONTINUOUS
 62
     7
100
AcDbPolyline
 90
       29
 70
     0
 43
0.0
 10
657.3800098067157
 20
121.4305667919652
 10
657.3906566932329
 20
121.4193897116343
 10
657.4016403510396
 20
121.4085490623756
 10
657.4129193549118
 20
121.3980790070229
 10
657.4244522796247
 20
121.3880137084099
 10
657.4366778946938
 20
121.3780012490866
 10
657.4491397390176
 20
121.3684346896133
 10
657.4617918418973
 20
121.3593335781206
 10
657.4745882326337
 20
121.3507174627391
 10
657.4913445288844
 20
121.3402809913543
 10
657.5082948325768
 20
121.3306291455754
 10
657.5253717754381
 20
121.3217578533319
 10
657.5425079891952
 20
121.3136630425531
 10
657.5596361055755
 20
121.3063406411684
 10
657.5766887563054
 20
121.2997865771071
 10
657.5957695082682
 20
121.2932896363453
 10
657.6147568208169
 20
121.2876603148065
 10
657.6336050714946
 20
121.2828675218867
 10
657.6522686378445
 20
121.278880166982
 10
657.6775279665865
 20
121.274654297461
 10
657.7024131652868
 20
121.2717776739331
 10
657.7268658352695
 20
121.2701733128963
 10
657.7535786420542
 20
121.2697897831244
 10
657.7797481242952
 20
121.2707997582551
 10
657.8053375561487
 20
121.273123171583
 10
657.8303102117713
 20
121.2766799564025
 10
657.8635286474547
 20
121.2834312392938
 10
657.8956261403131
 20
121.2922369229848
 10
657.926553122934
 20
121.3029625369352
  0
ARC
  5
114
330
1F
100
AcDbEntity
  8
0
  6
CONTINUOUS
 62
     7
100
AcDbCircle
 10
645.0
 20
110.0000000000005
 30
0.0
 40
16.84999999999998
100
AcDbArc
 50
42.71654947900407
 51
53.28345052100542
  0
LWPOLYLINE
  5
115
330
1F
100
AcDbEntity
  8
0
  6
CONTINUOUS
 62
     7
100
AcDbPolyline
 90
       29
 70
     0
 43
0.0
 10
654.889850992219
 20
124.0372214167593
 10
654.8820111625637
 20
124.003282351487
 10
654.8764783976527
 20
123.9682535994991
 10
654.8734096515494
 20
123.9322125350256
 10
654.8728289283665
 20
123.9036866397488
 10
654.8739175134211
 20
123.874549843467
 10
654.8767884992864
 20
123.8448731847448
 10
654.8815549785353
 20
123.8147277021466
 10
654.8858790936639
 20
123.7942632643939
 10
654.891175841973
 20
123.773565552193
 10
654.8974870870326
 20
123.752694205004
 10
654.9048546924123
 20
123.7317088622869
 10
654.9133205216822
 20
123.7106691635018
 10
654.922926438412
 20
123.6896347481088
 10
654.9316778016741
 20
123.672443614086
 10
654.941262719287
 20
123.6552987828966
 10
654.951689741031
 20
123.6382670218487
 10
654.9603027656287
 20
123.6252640447567
 10
654.9694410247241
 20
123.612366365942
 10
654.9790949716099
 20
123.5996169345304
 10
654.9892550595789
 20
123.5870586996481
 10
654.9984209594334
 20
123.5764077151005
 10
655.0079678918979
 20
123.5659270220617
 10
655.017876679856
 20
123.5556494699734
 10
655.0281281461911
 20
123.5456079082769
 10
655.0390722623849
 20
123.535501871434
 10
655.0503701607735
 20
123.5256772375031
 10
655.0619864030085
 20
123.5161685615643
 10
655.0738855507419
 20
123.5070103986977
  0
LINE
  5
116
330
1F
100
AcDbEntity
  8
0
  6
CONTINUOUS
 62
     7
100
AcDbLine
 10
654.889850992219
 20
124.0372214167593
 30
0.0
 11
654.9972501467219
 21
124.4380405180539
 31
0.0
  0
LINE
  5
117
330
1F
100
AcDbEntity
  8
0
  6
CONTINUOUS
 62
     7
100
AcDbLine
 10
658.434847850252
 20
121.489484719056
 30
0.0
 11
658.3139502266768
 21
121.451670352339
 31
0.0
  0
LINE
  5
118
330
1F
100
AcDbEntity
  8
0
  6
CONTINUOUS
 62
     7
100
AcDbLine
 10
654.9972501467219
 20
124.4380405180539
 30
0.0
 11
655.0222201195763
 21
124.5622285294399
 31
0.0
  0
LINE
  5
119
330
1F
100
AcDbEntity
  8
0
  6
CONTINUOUS
 62
     7
100
AcDbLine
 10
638.2230511712517
 20
126.2010798735652
 30
0.0
 11
638.2447684194873
 21
125.7866900915006
 31
0.0
  0
LWPOLYLINE
  5
11A
330
1F
100
AcDbEntity
  8
0
  6
CONTINUOUS
 62
     7
100
AcDbPolyline
 90
       29
 70
     0
 43
0.0
 10
637.9545183883605
 20
125.3063283925325
 10
637.9684384923133
 20
125.3130002755631
 10
637.9821426993543
 20
125.320096410042
 10
637.9955857175997
 20
125.3275879551358
 10
638.0087222551651
 20
125.3354460700111
 10
638.0220225926718
 20
125.3439793008019
 10
638.0349718530747
 20
125.3528749895962
 10
638.0475372392697
 20
125.3620954563657
 10
638.0596859541527
 20
125.3716030210823
 10
638.0747896085745
 20
125.3843141588012
 10
638.0892069912976
 20
125.3974522712084
 10
638.1029211571498
 20
125.4109520289297
 10
638.1159151609594
 20
125.4247481025912
 10
638.1281720575544
 20
125.4387751628189
 10
638.1396749017628
 20
125.4529678802388
 10
638.1517501362323
 20
125.4691070886218
 10
638.162971341419
 20
125.4854255399258
 10
638.1733539881303
 20
125.5018702370909
 10
638.182913547173
 20
125.5183881830573
 10
638.1947381497657
 20
125.5411053667566
 10
638.2051639306237
 20
125.5638836715831
 10
638.2142460592247
 20
125.5866437678856
 10
638.2228655289774
 20
125.6119306396293
 10
638.2299918002944
 20
125.637131395722
 10
638.2356896722281
 20
125.662186365838
 10
638.2400239438305
 20
125.6870358796516
 10
638.2438681533962
 20
125.7207147505165
 10
638.2454121213115
 20
125.7539623861638
 10
638.2447684194873
 20
125.7866900915006
  0
ARC
  5
11B
330
1F
100
AcDbEntity
  8
0
  6
CONTINUOUS
 62
     7
100
AcDbCircle
 10
645.0
 20
110.0000000000005
 30
0.0
 40
16.85
100
AcDbArc
 50
114.7165494789956
 51
125.2834505209963
  0
LWPOLYLINE
  5
11C
330
1F
100
AcDbEntity
  8
0
  6
CONTINUOUS
 62
     7
100
AcDbPolyline
 90
       29
 70
     0
 43
0.0
 10
634.7059411293475
 20
123.7435472029225
 10
634.7357964579353
 20
123.7256033338998
 10
634.7674010623875
 20
123.7095168821221
 10
634.8007298569121
 20
123.695461029726
 10
634.8276801421657
 20
123.6860937427384
 10
634.8557272734151
 20
123.6781252834355
 10
634.8848386364976
 20
123.6716851613694
 10
634.9149816172509
 20
123.6669028860924
 10
634.9357806791882
 20
123.6646915049168
 10
634.9571021584917
 20
123.6633330670966
 10
634.9789022712188
 20
123.6628858168595
 10
635.0011372334268
 20
123.663407998433
 10
635.023763261173
 20
123.6649578560449
 10
635.046736570515
 20
123.6675936339226
 10
635.065790630522
 20
123.6706043224139
 10
635.0850582363773
 20
123.6744220765645
 10
635.1044785306257
 20
123.6790756599317
 10
635.1195066676938
 20
123.6832489922016
 10
635.1345969665351
 20
123.6879543911201
 10
635.1497056300087
 20
123.693196049239
 10
635.1647888609734
 20
123.6989781591101
 10
635.1777509680562
 20
123.7044041126624
 10
635.1906688638417
 20
123.7102450727316
 10
635.2035053805995
 20
123.7164929518318
 10
635.2162233505994
 20
123.723139662477
 10
635.2292166806852
 20
123.7304251983682
 10
635.2420517054082
 20
123.7381341594028
 10
635.2546846098826
 20
123.7462435198161
 10
635.2670715792224
 20
123.7547302538435
  0
LINE
  5
11D
330
1F
100
AcDbEntity
  8
0
  6
CONTINUOUS
 62
     7
100
AcDbLine
 10
634.7059411293475
 20
123.7435472029225
 30
0.0
 11
634.3579276751287
 21
123.9695497826271
 31
0.0
  0
LINE
  5
11E
330
1F
100
AcDbEntity
  8
0
  6
CONTINUOUS
 62
     7
100
AcDbLine
 10
638.2244469916401
 20
126.3277456282183
 30
0.0
 11
638.2230511712517
 21
126.2010798735652
 31
0.0
  0
LINE
  5
11F
330
1F
100
AcDbEntity
  8
0
  6
CONTINUOUS
 62
     7
100
AcDbLine
 10
634.3579276751287
 20
123.9695497826271
 30
0.0
 11
634.2475340036154
 21
124.0316738440381
 31
0.0
  0
LINE
  5
120
330
1F
100
AcDbEntity
  8
0
  6
CONTINUOUS
 62
     7
100
AcDbLine
 10
652.5050847961402
 20
125.8768928540774
 30
0.0
 11
652.2116648493485
 21
125.5834729072857
 31
0.0
  0
LWPOLYLINE
  5
121
330
1F
100
AcDbEntity
  8
0
  6
CONTINUOUS
 62
     7
100
AcDbPolyline
 90
       29
 70
     0
 43
0.0
 10
651.6604713590793
 20
125.4777460011102
 10
651.6747439020284
 20
125.4718657090254
 10
651.6891872620143
 20
125.4664297392422
 10
651.7037496999353
 20
125.4614524519056
 10
651.7183794766895
 20
125.4569482071605
 10
651.733620565897
 20
125.4527739760585
 10
651.7488960974588
 20
125.4491031778333
 10
651.7641561241107
 20
125.4459349726227
 10
651.7793506985889
 20
125.4432685205651
 10
651.7989032322523
 20
125.440549729225
 10
651.8183138645478
 20
125.4386266389788
 10
651.837522707756
 20
125.4374681286598
 10
651.8564698741576
 20
125.437043077101
 10
651.875095476033
 20
125.4373203631356
 10
651.8933396256632
 20
125.4382688655968
 10
651.9134133038228
 20
125.440094455876
 10
651.9330487282999
 20
125.4426746505216
 10
651.9522168665942
 20
125.4459624905289
 10
651.9708886862053
 20
125.4499110168927
 10
651.9956830472238
 20
125.456324387566
 10
652.019586835656
 20
125.4638181833903
 10
652.0425780136684
 20
125.4722983235558
 10
652.0671373725794
 20
125.4828130290335
 10
652.0906335903152
 20
125.4943797745843
 10
652.1130656822113
 20
125.5069104778866
 10
652.1344326636029
 20
125.5203170566189
 10
652.1620332204917
 20
125.5399958154555
 10
652.1877741450696
 20
125.5610954342892
 10
652.2116648493485
 20
125.5834729072857
  0
ARC
  5
122
330
1F
100
AcDbEntity
  8
0
  6
CONTINUOUS
 62
     7
100
AcDbCircle
 10
645.0
 20
110.0000000000005
 30
0.0
 40
16.84999999999998
100
AcDbArc
 50
66.71654947900277
 51
77.28345052100286
  0
LWPOLYLINE
  5
123
330
1F
100
AcDbEntity
  8
0
  6
CONTINUOUS
 62
     7
100
AcDbPolyline
 90
       29
 70
     0
 43
0.0
 10
648.3253761335405
 20
126.8462046562996
 10
648.3320183542484
 20
126.8120110313872
 10
648.3412113989904
 20
126.777760295895
 10
648.3530671815038
 20
126.7435869736681
 10
648.3641391913636
 20
126.7172910702147
 10
648.3769846660051
 20
126.6911160497521
 10
648.3916780266477
 20
126.6651728081316
 10
648.4082936945103
 20
126.6395722412045
 10
648.4205676069583
 20
126.6226358231241
 10
648.4338249452964
 20
126.6058819037858
 10
648.4480796962447
 20
126.5893819939955
 10
648.4633458465237
 20
126.5732076045589
 10
648.4796373828535
 20
126.5574302462817
 10
648.4969682919545
 20
126.5421214299697
 10
648.511955324254
 20
126.529976047687
 10
648.527685013285
 20
126.5182120022458
 10
648.5441380129504
 20
126.5068937661263
 10
648.5572951897007
 20
126.4985181881797
 10
648.5708893633724
 20
126.4904524371124
 10
648.5848943436318
 20
126.4827318659076
 10
648.5992839401442
 20
126.4753918275487
 10
648.6119895520218
 20
126.4693897763334
 10
648.6249739907129
 20
126.4636982740772
 10
648.6382063759781
 20
126.4583395302022
 10
648.6516558275783
 20
126.4533357541305
 10
648.6657642707155
 20
126.4485548031601
 10
648.6800814530937
 20
126.4441748227238
 10
648.6945609453538
 20
126.4402129663835
 10
648.7091563181367
 20
126.436686387701
  0
LINE
  5
124
330
1F
100
AcDbEntity
  8
0
  6
CONTINUOUS
 62
     7
100
AcDbLine
 10
648.3253761335405
 20
126.8462046562996
 30
0.0
 11
648.26046232755
 21
127.2560542971954
 31
0.0
  0
LINE
  5
125
330
1F
100
AcDbEntity
  8
0
  6
CONTINUOUS
 62
     7
100
AcDbLine
 10
652.6001497824187
 20
125.9606114905943
 30
0.0
 11
652.5050847961402
 21
125.8768928540774
 31
0.0
  0
LINE
  5
126
330
1F
100
AcDbEntity
  8
0
  6
CONTINUOUS
 62
     7
100
AcDbLine
 10
648.26046232755
 20
127.2560542971954
 30
0.0
 11
648.2327617179674
 21
127.3796618938273
 31
0.0
  0
LINE
  5
127
330
1F
100
AcDbEntity
  8
0
  6
CONTINUOUS
 62
     7
100
AcDbLine
 10
645.3985220227961
 20
127.5568563443025
 30
0.0
 11
645.2498142073895
 21
127.1694592405521
 31
0.0
  0
LWPOLYLINE
  5
128
330
1F
100
AcDbEntity
  8
0
  6
CONTINUOUS
 62
     7
100
AcDbPolyline
 90
       32
 70
     0
 43
0.0
 10
644.7892769049754
 20
126.8486823157551
 10
644.8046441103052
 20
126.8491110854258
 10
644.819969236439
 20
126.8500100344551
 10
644.8355706321321
 20
126.8514139413802
 10
644.8510721451452
 20
126.8532988181137
 10
644.8664230459224
 20
126.8556496047519
 10
644.8815726049083
 20
126.8584512413911
 10
644.8968618993199
 20
126.8617748971395
 10
644.9119018402905
 20
126.8655381534953
 10
644.9259951045995
 20
126.8695198973878
 10
644.9398231082803
 20
126.8738653327325
 10
644.9580975038978
 20
126.8802967588476
 10
644.9758453126465
 20
126.8873200409207
 10
644.9930249227733
 20
126.8948815929195
 10
645.0057135964884
 20
126.9009722380333
 10
645.0180694497191
 20
126.9073342149553
 10
645.0356079043215
 20
126.9171327492353
 10
645.0524282460523
 20
126.9274290785164
 10
645.0686598127886
 20
126.9382627156199
 10
645.0841787521856
 20
126.9495118939475
 10
645.0992944569138
 20
126.9613797336411
 10
645.1136968828515
 20
126.9736026299636
 10
645.1274741832418
 20
126.9862151612696
 10
645.1405644736911
 20
126.9991223926551
 10
645.158665649576
 20
127.0186530581237
 10
645.1753621010669
 20
127.0386902997852
 10
645.1908174287164
 20
127.0593256262813
 10
645.2049468936094
 20
127.0803503400887
 10
645.2180407626554
 20
127.1021466653665
 10
645.2298432327752
 20
127.1242494364772
 10
645.240445671429
 20
127.1467384818855
 10
645.2498142073895
 20
127.1694592405521
  0
ARC
  5
129
330
1F
100
AcDbEntity
  8
0
  6
CONTINUOUS
 62
     7
100
AcDbCircle
 10
645.0
 20
110.0000000000005
 30
0.0
 40
16.84999999999999
100
AcDbArc
 50
90.71654947899917
 51
101.283450520999
  0
LWPOLYLINE
  5
12A
330
1F
100
AcDbEntity
  8
0
  6
CONTINUOUS
 62
     7
100
AcDbPolyline
 90
       29
 70
     0
 43
0.0
 10
641.1859135312793
 20
126.7423260678011
 10
641.2058893020469
 20
126.7137902716352
 10
641.2282185954899
 20
126.6862398159634
 10
641.2529489341172
 20
126.659843113851
 10
641.2737592259288
 20
126.6403240028191
 10
641.2961404908942
 20
126.6216366570062
 10
641.320115610774
 20
126.6039126546505
 10
641.3457074673285
 20
126.5872835739901
 10
641.3638089061285
 20
126.5768036361305
 10
641.3827345202576
 20
126.5668904145131
 10
641.4024680011555
 20
126.5576149264213
 10
641.4229930402618
 20
126.5490481891384
 10
641.4442933290162
 20
126.541261219948
 10
641.4663525588585
 20
126.5343250361335
 10
641.4849838661577
 20
126.529325452525
 10
641.5041385204739
 20
126.5249763031618
 10
641.5237726249475
 20
126.5213286178187
 10
641.5391989584609
 20
126.5190286525342
 10
641.5548984905823
 20
126.5171894708489
 10
641.5708329158971
 20
126.5158327167513
 10
641.5869639289904
 20
126.5149800342303
 10
641.6010123371706
 20
126.5146647255294
 10
641.6151891546787
 20
126.5147465265015
 10
641.6294571376263
 20
126.5152331663385
 10
641.6437790421255
 20
126.5161323742322
 10
641.6586123342164
 20
126.5175031789906
 10
641.6734732296836
 20
126.5193251904573
 10
641.6883123362151
 20
126.5215951946691
 10
641.7030802614983
 20
126.5243099776629
  0
LINE
  5
12B
330
1F
100
AcDbEntity
  8
0
  6
CONTINUOUS
 62
     7
100
AcDbLine
 10
641.1859135312793
 20
126.7423260678011
 30
0.0
 11
640.9599109515747
 21
127.0903395220199
 31
0.0
  0
LINE
  5
12C
330
1F
100
AcDbEntity
  8
0
  6
CONTINUOUS
 62
     7
100
AcDbLine
 10
645.451316772012
 20
127.6720035378056
 30
0.0
 11
645.3985220227961
 21
127.5568563443025
 31
0.0
  0
LINE
  5
12D
330
1F
100
AcDbEntity
  8
0
  6
CONTINUOUS
 62
     7
100
AcDbLine
 10
640.9599109515747
 20
127.0903395220199
 30
0.0
 11
640.8843294466037
 21
127.1919938275004
 31
0.0
  0
ARC
  5
12E
330
1F
100
AcDbEntity
  8
0
  6
CONTINUOUS
 62
     7
100
AcDbCircle
 10
645.0
 20
110.0000000015262
 30
0.0
 40
21.0
100
AcDbArc
 50
180.0
 51
90.0
  0
ARC
  5
12F
330
1F
100
AcDbEntity
  8
0
  6
CONTINUOUS
 62
     7
100
AcDbCircle
 10
645.0
 20
110.0000000015262
 30
0.0
 40
21.00000000000002
100
AcDbArc
 50
90.0
 51
180.0
  0
ARC
  5
130
330
1F
100
AcDbEntity
  8
0
  6
CONTINUOUS
 62
     7
100
AcDbCircle
 10
645.0
 20
110.0000000015452
 30
0.0
 40
19.0
100
AcDbArc
 50
270.0
 51
180.0
  0
ARC
  5
131
330
1F
100
AcDbEntity
  8
0
  6
CONTINUOUS
 62
     7
100
AcDbCircle
 10
645.0
 20
110.0000000015452
 30
0.0
 40
19.00000000000002
100
AcDbArc
 50
180.0
 51
270.0
  0
ARC
  5
132
330
1F
100
AcDbEntity
  8
0
  6
CONTINUOUS
 62
     7
100
AcDbCircle
 10
645.0
 20
110.0000000012369
 30
0.0
 40
26.85000000000002
100
AcDbArc
 50
124.9817401925033
 51
145.0182598074744
  0
ARC
  5
133
330
1F
100
AcDbEntity
  8
0
  6
CONTINUOUS
 62
     7
100
AcDbCircle
 10
645.0
 20
110.0000000012369
 30
0.0
 40
26.85
100
AcDbArc
 50
79.98174019251854
 51
100.0182598074814
  0
ARC
  5
134
330
1F
100
AcDbEntity
  8
0
  6
CONTINUOUS
 62
     7
100
AcDbCircle
 10
645.0
 20
110.0000000012369
 30
0.0
 40
26.85000000000003
100
AcDbArc
 50
34.98174019252571
 51
55.01825980749685
  0
ARC
  5
135
330
1F
100
AcDbEntity
  8
0
  6
CONTINUOUS
 62
     7
100
AcDbCircle
 10
645.0
 20
110.0000000012369
 30
0.0
 40
26.85000000000005
100
AcDbArc
 50
349.9817401925104
 51
10.01825980748964
  0
ARC
  5
136
330
1F
100
AcDbEntity
  8
0
  6
CONTINUOUS
 62
     7
100
AcDbCircle
 10
645.0
 20
110.0000000012369
 30
0.0
 40
26.85000000000002
100
AcDbArc
 50
304.9817401925033
 51
325.0182598074744
  0
ARC
  5
137
330
1F
100
AcDbEntity
  8
0
  6
CONTINUOUS
 62
     7
100
AcDbCircle
 10
645.0
 20
110.0000000012369
 30
0.0
 40
26.85
100
AcDbArc
 50
259.9817401925186
 51
280.0182598074815
  0
ARC
  5
138
330
1F
100
AcDbEntity
  8
0
  6
CONTINUOUS
 62
     7
100
AcDbCircle
 10
645.0
 20
110.0000000012369
 30
0.0
 40
26.85000000000002
100
AcDbArc
 50
214.9817401925257
 51
235.0182598074967
  0
ARC
  5
139
330
1F
100
AcDbEntity
  8
0
  6
CONTINUOUS
 62
     7
100
AcDbCircle
 10
645.0
 20
110.0000000012369
 30
0.0
 40
26.84999999999994
100
AcDbArc
 50
169.9817401925104
 51
190.0182598074896
  0
ARC
  5
13A
330
1F
100
AcDbEntity
  8
0
  6
CONTINUOUS
 62
     7
100
AcDbCircle
 10
645.0
 20
110.0000000000065
 30
0.0
 40
27.34999999999998
100
AcDbArc
 50
180.0000000000136
 51
0.0
  0
ARC
  5
13B
330
1F
100
AcDbEntity
  8
0
  6
CONTINUOUS
 62
     7
100
AcDbCircle
 10
645.0
 20
110.0000000000065
 30
0.0
 40
27.34999999999998
100
AcDbArc
 50
0.0
 51
180.0000000000136
  0
ARC
  5
13C
330
1F
100
AcDbEntity
  8
0
  6
CONTINUOUS
 62
     7
100
AcDbCircle
 10
645.0
 20
110.0
 30
0.0
 40
27.34999999999998
100
AcDbArc
 50
0.0000000000136424
 51
180.0
  0
ARC
  5
13D
330
1F
100
AcDbEntity
  8
0
  6
CONTINUOUS
 62
     7
100
AcDbCircle
 10
645.0
 20
110.0
 30
0.0
 40
27.34999999999998
100
AcDbArc
 50
180.0
 51
0.0000000000136424
  0
ARC
  5
13E
330
1F
100
AcDbEntity
  8
0
  6
CONTINUOUS
 62
     7
100
AcDbCircle
 10
645.0
 20
110.0
 30
0.0
 40
17.69999999999998
100
AcDbArc
 50
247.4499443334828
 51
256.5516228304029
  0
ARC
  5
13F
330
1F
100
AcDbEntity
  8
0
  6
CONTINUOUS
 62
     7
100
AcDbCircle
 10
645.0
 20
110.0
 30
0.0
 40
17.70000000000002
100
AcDbArc
 50
223.4499443334832
 51
232.551622830405
  0
ARC
  5
140
330
1F
100
AcDbEntity
  8
0
  6
CONTINUOUS
 62
     7
100
AcDbCircle
 10
645.0
 20
110.0
 30
0.0
 40
17.70000000000001
100
AcDbArc
 50
199.4499443334807
 51
208.551622830404
  0
ARC
  5
141
330
1F
100
AcDbEntity
  8
0
  6
CONTINUOUS
 62
     7
100
AcDbCircle
 10
645.0
 20
110.0
 30
0.0
 40
17.69999999999999
100
AcDbArc
 50
271.4483749128477
 51
278.1197760810228
  0
ARC
  5
142
330
1F
100
AcDbEntity
  8
0
  6
CONTINUOUS
 62
     7
100
AcDbCircle
 10
645.0
 20
110.0
 30
0.0
 40
17.70000000000004
100
AcDbArc
 50
343.4499443334786
 51
351.8802239189772
  0
ARC
  5
143
330
1F
100
AcDbEntity
  8
0
  6
CONTINUOUS
 62
     7
100
AcDbCircle
 10
645.0
 20
110.0
 30
0.0
 40
17.69999999999999
100
AcDbArc
 50
319.4937389123563
 51
328.551622830399
  0
ARC
  5
144
330
1F
100
AcDbEntity
  8
0
  6
CONTINUOUS
 62
     7
100
AcDbCircle
 10
645.0
 20
110.0
 30
0.0
 40
17.69999999999997
100
AcDbArc
 50
295.4499443334771
 51
304.551622830398
  0
ARC
  5
145
330
1F
100
AcDbEntity
  8
0
  6
CONTINUOUS
 62
     7
100
AcDbCircle
 10
645.0
 20
110.0
 30
0.0
 40
17.69999999999999
100
AcDbArc
 50
278.1197760810228
 51
280.5516228303998
  0
ARC
  5
146
330
1F
100
AcDbEntity
  8
0
  6
CONTINUOUS
 62
     7
100
AcDbCircle
 10
645.0
 20
110.0
 30
0.0
 40
17.70000000000004
100
AcDbArc
 50
7.493372737272182
 51
8.119776081022849
  0
ARC
  5
147
330
1F
100
AcDbEntity
  8
0
  6
CONTINUOUS
 62
     7
100
AcDbCircle
 10
645.0
 20
110.0
 30
0.0
 40
17.7
100
AcDbArc
 50
351.8802239189772
 51
352.5516381027854
  0
ARC
  5
148
330
1F
100
AcDbEntity
  8
0
  6
CONTINUOUS
 62
     7
100
AcDbCircle
 10
645.0
 20
110.0
 30
0.0
 40
17.69999999999999
100
AcDbArc
 50
79.44994587251789
 51
81.88022391897721
  0
ARC
  5
149
330
1F
100
AcDbEntity
  8
0
  6
CONTINUOUS
 62
     7
100
AcDbCircle
 10
645.0
 20
110.0
 30
0.0
 40
17.70000000000002
100
AcDbArc
 50
55.44994433348581
 51
64.50653009237868
  0
ARC
  5
14A
330
1F
100
AcDbEntity
  8
0
  6
CONTINUOUS
 62
     7
100
AcDbCircle
 10
645.0
 20
110.0
 30
0.0
 40
17.69999999999997
100
AcDbArc
 50
31.44994433348593
 51
40.50653009237812
  0
ARC
  5
14B
330
1F
100
AcDbEntity
  8
0
  6
CONTINUOUS
 62
     7
100
AcDbCircle
 10
645.0
 20
110.0
 30
0.0
 40
17.69999999999997
100
AcDbArc
 50
8.119776081022849
 51
16.50653009237431
  0
ARC
  5
14C
330
1F
100
AcDbEntity
  8
0
  6
CONTINUOUS
 62
     7
100
AcDbCircle
 10
645.0
 20
110.0
 30
0.0
 40
17.69999999999999
100
AcDbArc
 50
81.88022391897715
 51
88.55005333963118
  0
ARC
  5
14D
330
1F
100
AcDbEntity
  8
0
  6
CONTINUOUS
 62
     7
100
AcDbCircle
 10
645.0
 20
110.0
 30
0.0
 40
17.70000000000004
100
AcDbArc
 50
151.4499443334742
 51
160.551622830397
  0
ARC
  5
14E
330
1F
100
AcDbEntity
  8
0
  6
CONTINUOUS
 62
     7
100
AcDbCircle
 10
645.0
 20
110.0
 30
0.0
 40
17.69999999999996
100
AcDbArc
 50
127.4937389123516
 51
136.5516228303953
  0
ARC
  5
14F
330
1F
100
AcDbEntity
  8
0
  6
CONTINUOUS
 62
     7
100
AcDbCircle
 10
645.0
 20
110.0
 30
0.0
 40
17.69999999999997
100
AcDbArc
 50
103.449944333478
 51
112.5065300923702
  0
ARC
  5
150
330
1F
100
AcDbEntity
  8
0
  6
CONTINUOUS
 62
     7
100
AcDbCircle
 10
645.0
 20
110.0
 30
0.0
 40
17.69999999999999
100
AcDbArc
 50
176.7612257586528
 51
183.2387742413473
  0
LINE
  5
151
330
1F
100
AcDbEntity
  8
0
  6
CONTINUOUS
 62
     7
100
AcDbLine
 10
628.3246002365638
 20
111.0
 30
0.0
 11
629.4496784599161
 21
111.0
 31
0.0
  0
LINE
  5
152
330
1F
100
AcDbEntity
  8
0
  6
CONTINUOUS
 62
     7
100
AcDbLine
 10
627.7149994852525
 20
111.0
 30
0.0
 11
627.7180169433091
 21
111.0
 31
0.0
  0
LINE
  5
153
330
1F
100
AcDbEntity
  8
0
  6
CONTINUOUS
 62
     7
100
AcDbLine
 10
627.7180169433091
 20
111.0
 30
0.0
 11
628.3246002365638
 21
111.0
 31
0.0
  0
LINE
  5
154
330
1F
100
AcDbEntity
  8
0
  6
CONTINUOUS
 62
     7
100
AcDbLine
 10
628.3246002365638
 20
109.0
 30
0.0
 11
627.7149994852525
 21
109.0
 31
0.0
  0
LINE
  5
155
330
1F
100
AcDbEntity
  8
0
  6
CONTINUOUS
 62
     7
100
AcDbLine
 10
629.4496784599161
 20
109.0
 30
0.0
 11
628.3246002365638
 21
109.0
 31
0.0
  0
ARC
  5
156
330
1F
100
AcDbEntity
  8
0
  6
CONTINUOUS
 62
     7
100
AcDbCircle
 10
629.4496784599161
 20
107.5
 30
0.0
 40
1.499999999999972
100
AcDbArc
 50
9.133197783703798
 51
90.0
  0
ARC
  5
157
330
1F
100
AcDbEntity
  8
0
  6
CONTINUOUS
 62
     7
100
AcDbCircle
 10
645.0
 20
110.0
 30
0.0
 40
14.25000000000001
100
AcDbArc
 50
189.1331977837037
 51
260.8668022162963
  0
ARC
  5
158
330
1F
100
AcDbEntity
  8
0
  6
CONTINUOUS
 62
     7
100
AcDbCircle
 10
645.0
 20
110.0
 30
0.0
 40
14.25
100
AcDbArc
 50
99.13319778370379
 51
170.8668022162962
  0
ARC
  5
159
330
1F
100
AcDbEntity
  8
0
  6
CONTINUOUS
 62
     7
100
AcDbCircle
 10
629.4496784599161
 20
112.5
 30
0.0
 40
1.500000000000001
100
AcDbArc
 50
270.0
 51
350.8668022162962
  0
LINE
  5
15A
330
1F
100
AcDbEntity
  8
0
  6
CONTINUOUS
 62
     7
100
AcDbLine
 10
644.0
 20
93.32460023656378
 30
0.0
 11
644.0
 21
94.449678459916
 31
0.0
  0
LINE
  5
15B
330
1F
100
AcDbEntity
  8
0
  6
CONTINUOUS
 62
     7
100
AcDbLine
 10
644.0
 20
93.179699764874
 30
0.0
 11
644.0
 21
93.32460023656378
 31
0.0
  0
ARC
  5
15C
330
1F
100
AcDbEntity
  8
0
  6
CONTINUOUS
 62
     7
100
AcDbCircle
 10
642.5000000000001
 20
94.449678459916
 30
0.0
 40
1.499999999999946
100
AcDbArc
 50
0.0
 51
80.86680221629622
  0
LINE
  5
15D
330
1F
100
AcDbEntity
  8
0
  6
CONTINUOUS
 62
     7
100
AcDbLine
 10
644.0
 20
126.6753997634362
 30
0.0
 11
644.0
 21
126.8203002351271
 31
0.0
  0
LINE
  5
15E
330
1F
100
AcDbEntity
  8
0
  6
CONTINUOUS
 62
     7
100
AcDbLine
 10
644.0
 20
125.550321540084
 30
0.0
 11
644.0
 21
126.6753997634362
 31
0.0
  0
ARC
  5
15F
330
1F
100
AcDbEntity
  8
0
  6
CONTINUOUS
 62
     7
100
AcDbCircle
 10
642.5000000000001
 20
125.550321540084
 30
0.0
 40
1.499999999999998
100
AcDbArc
 50
279.1331977837038
 51
0.0
  0
ARC
  5
160
330
1F
100
AcDbEntity
  8
0
  6
CONTINUOUS
 62
     7
100
AcDbCircle
 10
647.5
 20
125.550321540084
 30
0.0
 40
1.499999999999946
100
AcDbArc
 50
180.0
 51
260.8668022162962
  0
LINE
  5
161
330
1F
100
AcDbEntity
  8
0
  6
CONTINUOUS
 62
     7
100
AcDbLine
 10
646.0
 20
93.3246002365638
 30
0.0
 11
646.0
 21
92.3282711655028
 31
0.0
  0
LINE
  5
162
330
1F
100
AcDbEntity
  8
0
  6
CONTINUOUS
 62
     7
100
AcDbLine
 10
646.0
 20
94.449678459916
 30
0.0
 11
646.0
 21
93.3246002365638
 31
0.0
  0
ARC
  5
163
330
1F
100
AcDbEntity
  8
0
  6
CONTINUOUS
 62
     7
100
AcDbCircle
 10
647.5
 20
94.449678459916
 30
0.0
 40
1.499999999999998
100
AcDbArc
 50
99.13319778370379
 51
180.0
  0
LINE
  5
164
330
1F
100
AcDbEntity
  8
0
  6
CONTINUOUS
 62
     7
100
AcDbLine
 10
646.0
 20
126.6753997634362
 30
0.0
 11
646.0
 21
125.550321540084
 31
0.0
  0
LINE
  5
165
330
1F
100
AcDbEntity
  8
0
  6
CONTINUOUS
 62
     7
100
AcDbLine
 10
646.0
 20
127.6717288344972
 30
0.0
 11
646.0
 21
126.6753997634362
 31
0.0
  0
ARC
  5
166
330
1F
100
AcDbEntity
  8
0
  6
CONTINUOUS
 62
     7
100
AcDbCircle
 10
645.0
 20
110.0
 30
0.0
 40
14.25
100
AcDbArc
 50
279.1331977837037
 51
350.8668022162962
  0
ARC
  5
167
330
1F
100
AcDbEntity
  8
0
  6
CONTINUOUS
 62
     7
100
AcDbCircle
 10
645.0
 20
110.0
 30
0.0
 40
14.25000000000001
100
AcDbArc
 50
9.133197783703793
 51
80.86680221629622
  0
ARC
  5
168
330
1F
100
AcDbEntity
  8
0
  6
CONTINUOUS
 62
     7
100
AcDbCircle
 10
660.5503215400839
 20
112.5
 30
0.0
 40
1.499999999999972
100
AcDbArc
 50
189.1331977837037
 51
270.0
  0
ARC
  5
169
330
1F
100
AcDbEntity
  8
0
  6
CONTINUOUS
 62
     7
100
AcDbCircle
 10
660.5503215400839
 20
107.5
 30
0.0
 40
1.500000000000001
100
AcDbArc
 50
90.0
 51
170.8668022162962
  0
LINE
  5
16A
330
1F
100
AcDbEntity
  8
0
  6
CONTINUOUS
 62
     7
100
AcDbLine
 10
661.6753997634362
 20
109.0
 30
0.0
 11
660.5503215400839
 21
109.0
 31
0.0
  0
LINE
  5
16B
330
1F
100
AcDbEntity
  8
0
  6
CONTINUOUS
 62
     7
100
AcDbLine
 10
661.8203002351296
 20
109.0
 30
0.0
 11
661.6753997634362
 21
109.0
 31
0.0
  0
LINE
  5
16C
330
1F
100
AcDbEntity
  8
0
  6
CONTINUOUS
 62
     7
100
AcDbLine
 10
661.6753997634362
 20
111.0
 30
0.0
 11
661.8203002351296
 21
111.0
 31
0.0
  0
LINE
  5
16D
330
1F
100
AcDbEntity
  8
0
  6
CONTINUOUS
 62
     7
100
AcDbLine
 10
660.5503215400839
 20
111.0
 30
0.0
 11
661.6753997634362
 21
111.0
 31
0.0
  0
ARC
  5
16E
330
1F
100
AcDbEntity
  8
0
  6
CONTINUOUS
 62
     7
100
AcDbCircle
 10
645.0
 20
110.0
 30
0.0
 40
16.70535714285718
100
AcDbArc
 50
176.5681635699104
 51
183.4318364300896
  0
ARC
  5
16F
330
1F
100
AcDbEntity
  8
0
  6
CONTINUOUS
 62
     7
100
AcDbCircle
 10
645.0
 20
110.0
 30
0.0
 40
16.70535714285715
100
AcDbArc
 50
266.5681635699104
 51
273.4318364300895
  0
ARC
  5
170
330
1F
100
AcDbEntity
  8
0
  6
CONTINUOUS
 62
     7
100
AcDbCircle
 10
645.0
 20
110.0
 30
0.0
 40
16.70535714285714
100
AcDbArc
 50
86.56816356991044
 51
93.4318364300896
  0
ARC
  5
171
330
1F
100
AcDbEntity
  8
0
  6
CONTINUOUS
 62
     7
100
AcDbCircle
 10
645.0
 20
110.0
 30
0.0
 40
16.70535714285718
100
AcDbArc
 50
356.5681635699104
 51
3.431836430089561
  0
CIRCLE
  5
172
330
1F
100
AcDbEntity
  8
0
  6
CONTINUOUS
 62
     7
100
AcDbCircle
 10
645.0
 20
110.0
 30
0.0
 40
14.0
  0
LINE
  5
173
330
1F
100
AcDbEntity
  8
0
  6
CONTINUOUS
 62
     7
100
AcDbLine
 10
490.3499999993562
 20
84.99999999999999
 30
0.0
 11
490.3499999993562
 21
110.0
 31
0.0
  0
LINE
  5
174
330
1F
100
AcDbEntity
  8
0
  6
CONTINUOUS
 62
     7
100
AcDbLine
 10
494.3499999993562
 20
84.99999999999999
 30
0.0
 11
494.3499999993562
 21
110.0
 31
0.0
  0
LINE
  5
175
330
1F
100
AcDbEntity
  8
0
  6
CONTINUOUS
 62
     7
100
AcDbLine
 10
490.3499999993562
 20
110.0
 30
0.0
 11
490.3499999993562
 21
135.0
 31
0.0
  0
LINE
  5
176
330
1F
100
AcDbEntity
  8
0
  6
CONTINUOUS
 62
     7
100
AcDbLine
 10
494.3499999993562
 20
110.0
 30
0.0
 11
494.3499999993562
 21
135.0
 31
0.0
  0
LINE
  5
177
330
1F
100
AcDbEntity
  8
0
  6
CONTINUOUS
 62
   253
100
AcDbLine
 10
489.8522371134291
 20
88.95222712700637
 30
0.0
 11
489.8522371134291
 21
131.0477728729936
 31
0.0
  0
LINE
  5
178
330
1F
100
AcDbEntity
  8
0
  6
CONTINUOUS
 62
     7
100
AcDbLine
 10
445.6499999993562
 20
89.14999999999999
 30
0.0
 11
445.6499999993562
 21
110.0
 31
0.0
  0
LINE
  5
179
330
1F
100
AcDbEntity
  8
0
  6
CONTINUOUS
 62
     7
100
AcDbLine
 10
445.6499999993562
 20
110.0
 30
0.0
 11
445.6499999993562
 21
130.85
 31
0.0
  0
LINE
  5
17A
330
1F
100
AcDbEntity
  8
0
  6
CONTINUOUS
 62
   253
100
AcDbLine
 10
569.5526179617281
 20
82.73467346481097
 30
0.0
 11
569.5526179617203
 21
82.85700098356267
 31
0.0
  0
LINE
  5
17B
330
1F
100
AcDbEntity
  8
0
  6
CONTINUOUS
 62
     7
100
AcDbLine
 10
559.8500000010881
 20
82.6500000000298
 30
0.0
 11
559.8499999976244
 21
137.3499999999832
 31
0.0
  0
LINE
  5
17C
330
1F
100
AcDbEntity
  8
0
  6
CONTINUOUS
 62
   253
100
AcDbLine
 10
569.552617960165
 20
107.4201481707034
 30
0.0
 11
569.5526179598382
 21
112.5798518305362
 31
0.0
  0
ARC
  5
17D
330
1F
100
AcDbEntity
  8
0
  6
CONTINUOUS
 62
   253
100
AcDbCircle
 10
571.3633676239768
 20
107.4104850525926
 30
0.0
 40
1.810775447383346
100
AcDbArc
 50
179.6942423129999
 51
267.6715280571392
  0
LINE
  5
17E
330
1F
100
AcDbEntity
  8
0
  6
CONTINUOUS
 62
   253
100
AcDbLine
 10
577.9149329277743
 20
105.3671650211323
 30
0.0
 11
571.2897988662149
 21
105.6012047098243
 31
0.0
  0
LINE
  5
17F
330
1F
100
AcDbEntity
  8
0
  6
CONTINUOUS
 62
   253
100
AcDbLine
 10
577.9149329284731
 20
94.32913195385353
 30
0.0
 11
577.9149329277743
 21
105.3671650211303
 31
0.0
  0
LINE
  5
180
330
1F
100
AcDbEntity
  8
0
  6
CONTINUOUS
 62
   253
100
AcDbLine
 10
571.2897988669436
 20
94.09434361974546
 30
0.0
 11
577.9149329284731
 21
94.3291319538446
 31
0.0
  0
LWPOLYLINE
  5
181
330
1F
100
AcDbEntity
  8
0
  6
CONTINUOUS
 62
   253
100
AcDbPolyline
 90
        3
 70
     0
 43
0.0
 10
-569.5526179611014
 20
92.63123205729497
 10
-569.5589184116611
 20
92.74928816540843
 10
-569.5777242277427
 20
92.86715062834094
210
0.0
220
0.0
230
-1.0
  0
ARC
  5
182
330
1F
100
AcDbEntity
  8
0
  6
CONTINUOUS
 62
   253
100
AcDbCircle
 10
571.2486441019676
 20
92.34389272096924
 30
0.0
 40
1.750934625766082
100
AcDbArc
 50
88.6531698697917
 51
162.6117608169412
  0
LINE
  5
183
330
1F
100
AcDbEntity
  8
0
  6
CONTINUOUS
 62
   253
100
AcDbLine
 10
569.5526179613324
 20
88.98277061052534
 30
0.0
 11
569.5526179611014
 21
92.63123205730399
 31
0.0
  0
ARC
  5
184
330
1F
100
AcDbEntity
  8
0
  6
CONTINUOUS
 62
   253
100
AcDbCircle
 10
571.2001421636203
 20
89.9331969562655
 30
0.0
 40
2.061639715506578
100
AcDbArc
 50
224.5249686568223
 51
272.4924681287698
  0
LWPOLYLINE
  5
185
330
1F
100
AcDbEntity
  8
0
  6
CONTINUOUS
 62
   253
100
AcDbPolyline
 90
        6
 70
     0
 43
0.0
 10
-569.7303065696167
 20
88.48753391006346
 10
-569.6708790767025
 20
88.5738722447849
 10
-569.6220364003902
 20
88.66621353388662
 10
-569.5859380416524
 20
88.76152671326983
 10
-569.5609891502628
 20
88.8711600904509
 10
-569.5526179613324
 20
88.98277061051107
210
0.0
220
0.0
230
-1.0
  0
LINE
  5
186
330
1F
100
AcDbEntity
  8
0
  6
CONTINUOUS
 62
   253
100
AcDbLine
 10
577.9149329288881
 20
87.7773138928665
 30
0.0
 11
571.2897988673375
 21
87.87350766124244
 31
0.0
  0
LINE
  5
187
330
1F
100
AcDbEntity
  8
0
  6
CONTINUOUS
 62
   253
100
AcDbLine
 10
577.9149329291776
 20
83.20521089449568
 30
0.0
 11
577.9149329288881
 21
87.77731389288145
 31
0.0
  0
LINE
  5
188
330
1F
100
AcDbEntity
  8
0
  6
CONTINUOUS
 62
     7
100
AcDbLine
 10
571.2897988676393
 20
83.10720973738854
 30
0.0
 11
577.9149329291776
 21
83.20521089447324
 31
0.0
  0
LINE
  5
189
330
1F
100
AcDbEntity
  8
0
  6
CONTINUOUS
 62
   253
100
AcDbLine
 10
569.5526179617203
 20
82.85700098353975
 30
0.0
 11
569.6551421107055
 21
82.92227970549725
 31
0.0
  0
ARC
  5
18A
330
1F
100
AcDbEntity
  8
0
  6
CONTINUOUS
 62
   253
100
AcDbCircle
 10
571.2425660377195
 20
76.20761945875331
 30
0.0
 40
6.899751948676123
100
AcDbArc
 50
89.60777387852498
 51
103.3011758748957
  0
LINE
  5
18B
330
1F
100
AcDbEntity
  8
0
  6
CONTINUOUS
 62
   253
100
AcDbLine
 10
569.5526179582828
 20
137.1429990176791
 30
0.0
 11
569.552617958275
 21
137.2653265364307
 31
0.0
  0
ARC
  5
18C
330
1F
100
AcDbEntity
  8
0
  6
CONTINUOUS
 62
   253
100
AcDbCircle
 10
571.2337394150576
 20
143.5643854559675
 30
0.0
 40
6.671830713256176
100
AcDbArc
 50
256.0208769076103
 51
270.4814282276161
  0
LINE
  5
18D
330
1F
100
AcDbEntity
  8
0
  6
CONTINUOUS
 62
   253
100
AcDbLine
 10
569.6220363973239
 20
137.0901489412133
 30
0.0
 11
569.5526179582828
 21
137.142999017702
 31
0.0
  0
LINE
  5
18E
330
1F
100
AcDbEntity
  8
0
  6
CONTINUOUS
 62
     7
100
AcDbLine
 10
577.9149329257842
 20
136.7947891078275
 30
0.0
 11
571.2897988642335
 21
136.8927902640733
 31
0.0
  0
LINE
  5
18F
330
1F
100
AcDbEntity
  8
0
  6
CONTINUOUS
 62
   253
100
AcDbLine
 10
577.9149329260738
 20
132.2226861094185
 30
0.0
 11
577.9149329257842
 21
136.7947891078023
 31
0.0
  0
LINE
  5
190
330
1F
100
AcDbEntity
  8
0
  6
CONTINUOUS
 62
   253
100
AcDbLine
 10
571.2897988645352
 20
132.1264923402193
 30
0.0
 11
577.9149329260738
 21
132.2226861094343
 31
0.0
  0
LWPOLYLINE
  5
191
330
1F
100
AcDbEntity
  8
0
  6
CONTINUOUS
 62
   253
100
AcDbPolyline
 90
        6
 70
     0
 43
0.0
 10
-569.5526179586707
 20
131.0172293907307
 10
-569.5667671030468
 20
131.1621684239397
 10
-569.610009174192
 20
131.3058496413665
 10
-569.6551421076358
 20
131.3992057460917
 10
-569.7109355137727
 20
131.486489425231
 10
-569.7781619829326
 20
131.5700270375149
210
0.0
220
0.0
230
-1.0
  0
ARC
  5
192
330
1F
100
AcDbEntity
  8
0
  6
CONTINUOUS
 62
   253
100
AcDbCircle
 10
571.2039777687498
 20
130.0282132414432
 30
0.0
 40
2.100033437077341
100
AcDbArc
 50
87.65786763106576
 51
132.7615755164117
  0
LINE
  5
193
330
1F
100
AcDbEntity
  8
0
  6
CONTINUOUS
 62
   253
100
AcDbLine
 10
569.5526179589018
 20
127.3687679439364
 30
0.0
 11
569.5526179586707
 21
131.0172293907148
 31
0.0
  0
ARC
  5
194
330
1F
100
AcDbEntity
  8
0
  6
CONTINUOUS
 62
   253
100
AcDbCircle
 10
571.2558997565038
 20
127.6712489262673
 30
0.0
 40
1.765917943429423
100
AcDbArc
 50
198.9747207363833
 51
271.099935111144
  0
LWPOLYLINE
  5
195
330
1F
100
AcDbEntity
  8
0
  6
CONTINUOUS
 62
   253
100
AcDbPolyline
 90
        3
 70
     0
 43
0.0
 10
-569.585938039225
 20
127.0970590223598
 10
-569.5609891478335
 20
127.2327024608893
 10
-569.5526179589018
 20
127.3687679439468
210
0.0
220
0.0
230
-1.0
  0
LINE
  5
196
330
1F
100
AcDbEntity
  8
0
  6
CONTINUOUS
 62
   253
100
AcDbLine
 10
577.9149329264885
 20
125.6708680484562
 30
0.0
 11
571.2897988649291
 21
125.9056563817163
 31
0.0
  0
LINE
  5
197
330
1F
100
AcDbEntity
  8
0
  6
CONTINUOUS
 62
   253
100
AcDbLine
 10
577.9149329271876
 20
114.6328349811665
 30
0.0
 11
577.9149329264885
 21
125.6708680484424
 31
0.0
  0
LINE
  5
198
330
1F
100
AcDbEntity
  8
0
  6
CONTINUOUS
 62
   253
100
AcDbLine
 10
571.2897988656578
 20
114.3987952916375
 30
0.0
 11
577.9149329271876
 21
114.6328349811685
 31
0.0
  0
ARC
  5
199
330
1F
100
AcDbEntity
  8
0
  6
CONTINUOUS
 62
   253
100
AcDbCircle
 10
571.3637007201769
 20
112.589196825231
 30
0.0
 40
1.811106869768273
100
AcDbArc
 50
92.3385921310788
 51
180.2956375132926
  0
LWPOLYLINE
  5
19A
330
1F
100
AcDbEntity
  8
0
  6
CONTINUOUS
 62
   253
100
AcDbPolyline
 90
        9
 70
     0
 43
0.0
 10
569.8499999991905
 20
112.5514668384291
 10
569.8442992513999
 20
112.5569743138293
 10
569.8274136648645
 20
112.5622724777073
 10
569.7999849760517
 20
112.567159973423
 10
569.7630556118762
 20
112.5714510517737
 10
569.718029072279
 20
112.57498263039
 10
569.6666165902345
 20
112.5776204916784
 10
569.6107720963654
 20
112.5792643837597
 10
569.5526179598381
 20
112.5798518305395
  0
LINE
  5
19B
330
1F
100
AcDbEntity
  8
0
  6
CONTINUOUS
 62
     7
100
AcDbLine
 10
569.8499999991903
 20
112.551466838428
 30
0.0
 11
569.8499999995134
 21
107.4485331628536
 31
0.0
  0
LWPOLYLINE
  5
19C
330
1F
100
AcDbEntity
  8
0
  6
CONTINUOUS
 62
   253
100
AcDbPolyline
 90
        9
 70
     0
 43
0.0
 10
569.552617960165
 20
107.4201481707023
 10
569.6107720966919
 20
107.4207356174894
 10
569.666616590561
 20
107.4223795095778
 10
569.7180290726052
 20
107.4250173708728
 10
569.7630556122018
 20
107.4285489494947
 10
569.799984976377
 20
107.4328400278501
 10
569.8274136651889
 20
107.4377275235693
 10
569.8442992517237
 20
107.4430256874494
 10
569.8499999995136
 20
107.4485331628503
  0
ARC
  5
19D
330
1F
100
AcDbEntity
  8
0
  6
CONTINUOUS
 62
     7
100
AcDbCircle
 10
571.34999999919
 20
112.5514668385244
 30
0.0
 40
1.499999999999639
100
AcDbArc
 50
92.00000000363954
 51
180.0000000036423
  0
LINE
  5
19E
330
1F
100
AcDbEntity
  8
0
  6
CONTINUOUS
 62
   253
100
AcDbLine
 10
571.2976507540411
 20
114.0505530790494
 30
0.0
 11
571.2978646240741
 21
114.0509719377369
 31
0.0
  0
LWPOLYLINE
  5
19F
330
1F
100
AcDbEntity
  8
0
  6
CONTINUOUS
 62
   253
100
AcDbPolyline
 90
       10
 70
     0
 43
0.0
 10
571.2978646240741
 20
114.0509719377369
 10
571.2983855282633
 20
114.0591144814528
 10
571.2985170747213
 20
114.0773780897258
 10
571.2982546922431
 20
114.1051281069394
 10
571.2976074985511
 20
114.1414002272441
 10
571.2965979834574
 20
114.1849340039342
 10
571.2952612273475
 20
114.2342166496414
 10
571.2936436821471
 20
114.2875356053009
 10
571.2918015571296
 20
114.3430380511314
 10
571.2897988656578
 20
114.3987952916383
  0
ARC
  5
1A0
330
1F
100
AcDbEntity
  8
0
  6
CONTINUOUS
 62
     7
100
AcDbCircle
 10
571.3499999995133
 20
107.4485331629451
 30
0.0
 40
1.499999999999835
100
AcDbArc
 50
180.0000000036211
 51
268.0000000036126
  0
LWPOLYLINE
  5
1A1
330
1F
100
AcDbEntity
  8
0
  6
CONTINUOUS
 62
   253
100
AcDbPolyline
 90
       10
 70
     0
 43
0.0
 10
571.2897988662148
 20
105.6012047098245
 10
571.291861737968
 20
105.6587055609898
 10
571.2937516878158
 20
105.7158711257184
 10
571.2953988961832
 20
105.7705895620302
 10
571.2967425109856
 20
105.8208394311199
 10
571.2977328956605
 20
105.8647643744692
 10
571.2983334628681
 20
105.9007416924727
 10
571.2985220261215
 20
105.9274422911058
 10
571.2982916194128
 20
105.9438797820535
 10
571.2976507545541
 20
105.9494469224134
  0
LINE
  5
1A2
330
1F
100
AcDbEntity
  8
0
  6
CONTINUOUS
 62
     7
100
AcDbLine
 10
577.9228885030715
 20
114.281997274845
 30
0.0
 11
577.146062182239
 21
114.2547841067973
 31
0.0
  0
LINE
  5
1A3
330
1F
100
AcDbEntity
  8
0
  6
CONTINUOUS
 62
     7
100
AcDbLine
 10
577.1460621819454
 20
114.254784106787
 30
0.0
 11
571.2976507537619
 21
114.0505530790396
 31
0.0
  0
LWPOLYLINE
  5
1A4
330
1F
100
AcDbEntity
  8
0
  6
CONTINUOUS
 62
   253
100
AcDbPolyline
 90
       10
 70
     0
 43
0.0
 10
577.9228885030714
 20
114.2819972748449
 10
577.9234952786724
 20
114.2888287145175
 10
577.923696048864
 20
114.3062964869063
 10
577.9234835228139
 20
114.3337662617713
 10
577.9228654182605
 20
114.3702404929747
 10
577.9218641812489
 20
114.4143946436884
 10
577.9205161710186
 20
114.4646252860455
 10
577.9188703396416
 20
114.5191083285297
 10
577.9169864543614
 20
114.5758652566145
 10
577.9149329271876
 20
114.6328349811688
  0
LWPOLYLINE
  5
1A5
330
1F
100
AcDbEntity
  8
0
  6
CONTINUOUS
 62
   253
100
AcDbPolyline
 90
       10
 70
     0
 43
0.0
 10
577.9149329277742
 20
105.3671650211329
 10
577.9169864549409
 20
105.4241347456874
 10
577.9188703402137
 20
105.4808916737722
 10
577.9205161715839
 20
105.5353747162564
 10
577.9218641818079
 20
105.5856053586135
 10
577.9228654188138
 20
105.6297595093272
 10
577.9234835233625
 20
105.6662337405305
 10
577.9236960494093
 20
105.6937035153956
 10
577.9234952792153
 20
105.7111712877843
 10
577.9228885036136
 20
105.7180027274569
  0
LINE
  5
1A6
330
1F
100
AcDbEntity
  8
0
  6
CONTINUOUS
 62
     7
100
AcDbLine
 10
571.297650754275
 20
105.9494469224231
 30
0.0
 11
577.1460621824843
 21
105.7452158954164
 31
0.0
  0
LINE
  5
1A7
330
1F
100
AcDbEntity
  8
0
  6
CONTINUOUS
 62
     7
100
AcDbLine
 10
577.1460621827779
 20
105.7452158954062
 30
0.0
 11
577.9228885036138
 21
105.7180027274569
 31
0.0
  0
LINE
  5
1A8
330
1F
100
AcDbEntity
  8
0
  6
CONTINUOUS
 62
     7
100
AcDbLine
 10
579.280695178798
 20
136.8500000012139
 30
0.0
 11
579.280695178824
 21
136.4406009319471
 31
0.0
  0
LINE
  5
1A9
330
1F
100
AcDbEntity
  8
0
  6
CONTINUOUS
 62
   253
100
AcDbLine
 10
580.7865307982705
 20
134.9689210861133
 30
0.0
 11
580.7865307998517
 21
110.0000000013322
 31
0.0
  0
ARC
  5
1AA
330
1F
100
AcDbEntity
  8
0
  6
CONTINUOUS
 62
   253
100
AcDbCircle
 10
577.7958218699428
 20
121.5829337109258
 30
0.0
 40
4.089669252121899
100
AcDbArc
 50
68.71058687704762
 51
88.331032263957
  0
LINE
  5
1AB
330
1F
100
AcDbEntity
  8
0
  6
CONTINUOUS
 62
     7
100
AcDbLine
 10
579.2806951791051
 20
131.9991393253455
 30
0.0
 11
579.2806951795235
 21
125.3935171106425
 31
0.0
  0
ARC
  5
1AC
330
1F
100
AcDbEntity
  8
0
  6
CONTINUOUS
 62
   253
100
AcDbCircle
 10
577.9784180277474
 20
128.3267039044002
 30
0.0
 40
3.896499416152535
100
AcDbArc
 50
70.47505626483024
 51
90.93355315856797
  0
ARC
  5
1AD
330
1F
100
AcDbEntity
  8
0
  6
CONTINUOUS
 62
   253
100
AcDbCircle
 10
577.8705909524334
 20
133.8134967799798
 30
0.0
 40
2.981622067714924
100
AcDbArc
 50
61.77521775803426
 51
89.14787939898176
  0
LINE
  5
1AE
330
1F
100
AcDbEntity
  8
0
  6
CONTINUOUS
 62
     7
100
AcDbLine
 10
579.2806951821725
 20
83.55939907052664
 30
0.0
 11
579.2806951821984
 21
83.15000000126014
 31
0.0
  0
ARC
  5
1AF
330
1F
100
AcDbEntity
  8
0
  6
CONTINUOUS
 62
   253
100
AcDbCircle
 10
577.8708074131615
 20
86.18566855364803
 30
0.0
 40
2.980784279228766
100
AcDbArc
 50
270.8481989794149
 51
298.2287038780835
  0
ARC
  5
1B0
330
1F
100
AcDbEntity
  8
0
  6
CONTINUOUS
 62
   253
100
AcDbCircle
 10
577.9808032304692
 20
91.65872368218754
 30
0.0
 40
3.881968682159545
100
AcDbArc
 50
269.0277429531818
 51
289.5636476379295
  0
LINE
  5
1B1
330
1F
100
AcDbEntity
  8
0
  6
CONTINUOUS
 62
     7
100
AcDbLine
 10
579.2806951814731
 20
94.60648289183348
 30
0.0
 11
579.2806951818912
 21
88.00086067713147
 31
0.0
  0
ARC
  5
1B2
330
1F
100
AcDbEntity
  8
0
  6
CONTINUOUS
 62
   253
100
AcDbCircle
 10
577.7933127286137
 20
98.42942209063347
 30
0.0
 40
4.102093450771434
100
AcDbArc
 50
271.6989728609447
 51
291.2594080125625
  0
LINE
  5
1B3
330
1F
100
AcDbEntity
  8
0
  6
CONTINUOUS
 62
   253
100
AcDbLine
 10
579.280695180794
 20
105.3291197392575
 30
0.0
 11
577.9149329277743
 21
105.3671650211323
 31
0.0
  0
LINE
  5
1B4
330
1F
100
AcDbEntity
  8
0
  6
CONTINUOUS
 62
     7
100
AcDbLine
 10
579.2806951802025
 20
114.6708802632142
 30
0.0
 11
579.280695180794
 21
105.3291197392634
 31
0.0
  0
LINE
  5
1B5
330
1F
100
AcDbEntity
  8
0
  6
CONTINUOUS
 62
   253
100
AcDbLine
 10
577.9149329271876
 20
114.6328349811685
 30
0.0
 11
579.2806951802025
 21
114.6708802632163
 31
0.0
  0
LINE
  5
1B6
330
1F
100
AcDbEntity
  8
0
  6
CONTINUOUS
 62
   253
100
AcDbLine
 10
580.7865307998517
 20
110.0000000013322
 30
0.0
 11
580.7865308014327
 21
85.03107891656187
 31
0.0
  0
LWPOLYLINE
  5
1B7
330
1F
100
AcDbEntity
  8
0
  6
CONTINUOUS
 62
     7
100
AcDbPolyline
 90
        5
 70
     0
 43
0.0
 10
-579.2806951802025
 20
114.6708802632163
 10
-579.2432315835881
 20
114.5678764967319
 10
-579.1615043017192
 20
114.4902839767769
 10
-579.0687130143342
 20
114.4369137887597
 10
-578.9686135843108
 20
114.3969690289
210
0.0
220
0.0
230
-1.0
  0
ARC
  5
1B8
330
1F
100
AcDbEntity
  8
0
  6
CONTINUOUS
 62
     7
100
AcDbCircle
 10
578.0752448343823
 20
117.7094207423152
 30
0.0
 40
3.430808079309544
100
AcDbArc
 50
267.4547551747269
 51
285.0935615268961
  0
ARC
  5
1B9
330
1F
100
AcDbEntity
  8
0
  6
CONTINUOUS
 62
     7
100
AcDbCircle
 10
577.9790271978278
 20
100.9974736929702
 30
0.0
 40
4.720862836221819
100
AcDbArc
 50
79.42073113453478
 51
90.68135554248106
  0
LWPOLYLINE
  5
1BA
330
1F
100
AcDbEntity
  8
0
  6
CONTINUOUS
 62
     7
100
AcDbPolyline
 90
        6
 70
     0
 43
0.0
 10
-578.8457572509637
 20
105.6380905628929
 10
-579.0017895468001
 20
105.5912290070245
 10
-579.1201190253869
 20
105.5362834842035
 10
-579.2101220192774
 20
105.4697698242912
 10
-579.2718117137201
 20
105.3791896457679
 10
-579.280695180794
 20
105.3291197392575
210
0.0
220
0.0
230
-1.0
  0
LINE
  5
1BB
330
1F
100
AcDbEntity
  8
0
  6
CONTINUOUS
 62
   253
100
AcDbLine
 10
581.4528023241504
 20
87.51763809159866
 30
0.0
 11
581.4528023213031
 21
132.4823619111502
 31
0.0
  0
LINE
  5
1BC
330
1F
100
AcDbEntity
  8
0
  6
CONTINUOUS
 62
   253
100
AcDbLine
 10
583.3846539739743
 20
131.0000000014788
 30
0.0
 11
583.3846539766339
 21
89.00000000151468
 31
0.0
  0
LWPOLYLINE
  5
1BD
330
1F
100
AcDbEntity
  8
0
  6
CONTINUOUS
 62
   253
100
AcDbPolyline
 90
        6
 70
     0
 43
0.0
 10
577.9149329284733
 20
94.32913195384482
 10
577.916992718587
 20
94.28567975362117
 10
577.918881566573
 20
94.2501332148576
 10
577.9205304470148
 20
94.22379133813538
 10
577.9218791037886
 20
94.20761675200751
 10
577.9228782520412
 20
94.20220053502939
  0
LINE
  5
1BE
330
1F
100
AcDbEntity
  8
0
  6
CONTINUOUS
 62
     7
100
AcDbLine
 10
579.280695181479
 20
94.60648289181614
 30
0.0
 11
579.0252809640917
 21
94.39690185029951
 31
0.0
  0
LINE
  5
1BF
330
1F
100
AcDbEntity
  8
0
  6
CONTINUOUS
 62
     7
100
AcDbLine
 10
579.0254208081321
 20
125.6030513774763
 30
0.0
 11
579.2806951795307
 21
125.3935171106576
 31
0.0
  0
LWPOLYLINE
  5
1C0
330
1F
100
AcDbEntity
  8
0
  6
CONTINUOUS
 62
   253
100
AcDbPolyline
 90
        6
 70
     0
 43
0.0
 10
577.9228782461189
 20
125.7977994675735
 10
577.92187909722
 20
125.7923832082831
 10
577.9205304406423
 20
125.7762086021201
 10
577.9188815611365
 20
125.7498667272324
 10
577.9169927146759
 20
125.7143202102499
 10
577.9149329264884
 20
125.6708680484537
  0
LINE
  5
1C1
330
1F
100
AcDbEntity
  8
0
  6
CONTINUOUS
 62
     7
100
AcDbLine
 10
569.8442422269568
 20
92.78507098495555
 30
0.0
 11
569.8500000004396
 21
92.82233308708913
 31
0.0
  0
LWPOLYLINE
  5
1C2
330
1F
100
AcDbEntity
  8
0
  6
CONTINUOUS
 62
   253
100
AcDbPolyline
 90
        6
 70
     0
 43
0.0
 10
571.2897988669436
 20
94.09434361974574
 10
571.2918325940948
 20
94.05159720695018
 10
571.2936994578496
 20
94.01666530401162
 10
571.2953324908533
 20
93.99080097351879
 10
571.2966731136302
 20
93.97493200990016
 10
571.2976732359215
 20
93.96962765797092
  0
LWPOLYLINE
  5
1C3
330
1F
100
AcDbEntity
  8
0
  6
CONTINUOUS
 62
   253
100
AcDbPolyline
 90
        8
 70
     0
 43
0.0
 10
569.5526179611013
 20
92.63123205729498
 10
569.6107310808941
 20
92.63518162036
 10
569.6665394058953
 20
92.64623373655748
 10
569.7179249639589
 20
92.66396896892601
 10
569.7629376306068
 20
92.68771425071157
 10
569.7998691378666
 20
92.71656842880806
 10
569.827317904457
 20
92.74943646326406
 10
569.8442422269568
 20
92.78507098495555
  0
LINE
  5
1C4
330
1F
100
AcDbEntity
  8
0
  6
CONTINUOUS
 62
     7
100
AcDbLine
 10
569.8499999982645
 20
127.1776669141903
 30
0.0
 11
569.8442389239794
 21
127.2149395920219
 31
0.0
  0
LWPOLYLINE
  5
1C5
330
1F
100
AcDbEntity
  8
0
  6
CONTINUOUS
 62
   253
100
AcDbPolyline
 90
        8
 70
     0
 43
0.0
 10
569.8442389239794
 20
127.2149395920219
 10
569.8273123678034
 20
127.2505720814628
 10
569.7998624442995
 20
127.2834379872969
 10
569.7629308150013
 20
127.3122901239038
 10
569.7179189503939
 20
127.3360336189841
 10
569.6665349473294
 20
127.3537674614475
 10
569.6107287106747
 20
127.3648186927143
 10
569.5526179589019
 20
127.3687679439469
  0
LWPOLYLINE
  5
1C6
330
1F
100
AcDbEntity
  8
0
  6
CONTINUOUS
 62
   253
100
AcDbPolyline
 90
        6
 70
     0
 43
0.0
 10
571.2976753915759
 20
126.0303721114532
 10
571.2966756005351
 20
126.0250904885493
 10
571.29533486062
 20
126.0092323070762
 10
571.2937013170003
 20
125.9833670248642
 10
571.2918336292528
 20
125.9484234487576
 10
571.2897988649291
 20
125.9056563817151
  0
ARC
  5
1C7
330
1F
100
AcDbEntity
  8
0
  6
CONTINUOUS
 62
     7
100
AcDbCircle
 10
571.2837852322839
 20
90.3377036412446
 30
0.0
 40
1.970457080223501
100
AcDbArc
 50
236.7807106509642
 51
270.4031767729667
  0
LWPOLYLINE
  5
1C8
330
1F
100
AcDbEntity
  8
0
  6
CONTINUOUS
 62
     7
100
AcDbPolyline
 90
        7
 70
     0
 43
0.0
 10
-570.20428037071
 20
88.68925881085407
 10
-570.0904592711942
 20
88.78381312190483
 10
-569.9981901219409
 20
88.88580869552437
 10
-569.9271054450365
 20
88.9953220216488
 10
-569.8779410866251
 20
89.11273280791687
 10
-569.8517595867683
 20
89.2496724991809
 10
-569.8500000006629
 20
89.29593947972897
210
0.0
220
0.0
230
-1.0
  0
ARC
  5
1C9
330
1F
100
AcDbEntity
  8
0
  6
CONTINUOUS
 62
     7
100
AcDbCircle
 10
578.1140924993223
 20
83.59382543237939
 30
0.0
 40
4.639461649723356
100
AcDbArc
 50
77.57567945168176
 51
92.36197349984057
  0
LWPOLYLINE
  5
1CA
330
1F
100
AcDbEntity
  8
0
  6
CONTINUOUS
 62
     7
100
AcDbPolyline
 90
        4
 70
     0
 43
0.0
 10
-579.1122721139749
 20
88.12463571930887
 10
-579.2137334969
 20
88.0809359646796
 10
-579.2804895265883
 20
88.00525562247435
 10
-579.2806951818912
 20
88.00086067711264
210
0.0
220
0.0
230
-1.0
  0
LINE
  5
1CB
330
1F
100
AcDbEntity
  8
0
  6
CONTINUOUS
 62
     7
100
AcDbLine
 10
577.1460621835882
 20
88.24548958772857
 30
0.0
 11
577.9228885047211
 21
88.2293454066328
 31
0.0
  0
LINE
  5
1CC
330
1F
100
AcDbEntity
  8
0
  6
CONTINUOUS
 62
     7
100
AcDbLine
 10
571.2976507555956
 20
88.36729534542283
 30
0.0
 11
577.146062183513
 21
88.24548958773396
 31
0.0
  0
LWPOLYLINE
  5
1CD
330
1F
100
AcDbEntity
  8
0
  6
CONTINUOUS
 62
     7
100
AcDbPolyline
 90
        6
 70
     0
 43
0.0
 10
-569.849999998041
 20
130.7040605215505
 10
-569.8599148909846
 20
130.8137850621021
 10
-569.8977211310789
 20
130.9422526376794
 10
-569.951686486429
 20
131.0473485945804
 10
-570.0383449544059
 20
131.1624204085259
 10
-570.1423566479068
 20
131.2625267658408
210
0.0
220
0.0
230
-1.0
  0
ARC
  5
1CE
330
1F
100
AcDbEntity
  8
0
  6
CONTINUOUS
 62
     7
100
AcDbCircle
 10
571.2732202694748
 20
129.7210732621786
 30
0.0
 40
1.911787497223021
100
AcDbArc
 50
89.2678047665126
 51
126.2650608915051
  0
LINE
  5
1CF
330
1F
100
AcDbEntity
  8
0
  6
CONTINUOUS
 62
     7
100
AcDbLine
 10
577.1460621807576
 20
131.7545104144695
 30
0.0
 11
571.2976507528567
 21
131.6327046560399
 31
0.0
  0
LINE
  5
1D0
330
1F
100
AcDbEntity
  8
0
  6
CONTINUOUS
 62
     7
100
AcDbLine
 10
577.9228885019639
 20
131.770654595669
 30
0.0
 11
577.146062180833
 21
131.7545104144749
 31
0.0
  0
LWPOLYLINE
  5
1D1
330
1F
100
AcDbEntity
  8
0
  6
CONTINUOUS
 62
     7
100
AcDbPolyline
 90
        4
 70
     0
 43
0.0
 10
-579.2806951791051
 20
131.9991393253611
 10
-579.2142669220137
 20
131.919375160038
 10
-579.0973809725183
 20
131.8705970638234
 10
-578.9686135832038
 20
131.8386376764601
210
0.0
220
0.0
230
-1.0
  0
ARC
  5
1D2
330
1F
100
AcDbEntity
  8
0
  6
CONTINUOUS
 62
     7
100
AcDbCircle
 10
578.0776331362296
 20
137.4670863057187
 30
0.0
 40
5.698533155917647
100
AcDbArc
 50
268.4439321089515
 51
278.99525075548
  0
LWPOLYLINE
  5
1D3
330
1F
100
AcDbEntity
  8
0
  6
CONTINUOUS
 62
   253
100
AcDbPolyline
 90
        9
 70
     0
 43
0.0
 10
569.849999998036
 20
130.7859859201372
 10
569.8442992502429
 20
130.8308535642826
 10
569.827413663705
 20
130.8740160142726
 10
569.7999849748902
 20
130.913832881831
 10
569.7630556107126
 20
130.948790927493
 10
569.7180290711138
 20
130.9775615712479
 10
569.6666165890681
 20
130.9990513852039
 10
569.6107720951982
 20
131.012443649298
 10
569.5526179586707
 20
131.0172293907307
  0
LINE
  5
1D4
330
1F
100
AcDbEntity
  8
0
  6
CONTINUOUS
 62
     7
100
AcDbLine
 10
569.8499999980357
 20
130.785985920123
 30
0.0
 11
569.8499999982643
 21
127.1776669141813
 31
0.0
  0
LINE
  5
1D5
330
1F
100
AcDbEntity
  8
0
  6
CONTINUOUS
 62
     7
100
AcDbLine
 10
569.8500000004398
 20
92.82233308709945
 30
0.0
 11
569.8500000006682
 21
89.214014081158
 31
0.0
  0
LWPOLYLINE
  5
1D6
330
1F
100
AcDbEntity
  8
0
  6
CONTINUOUS
 62
   253
100
AcDbPolyline
 90
        9
 70
     0
 43
0.0
 10
569.5526179613323
 20
88.98277061051111
 10
569.6107720978591
 20
88.98755635195118
 10
569.6666165917275
 20
89.00094861605241
 10
569.7180290737705
 20
89.02243843001489
 10
569.7630556133655
 20
89.05120907377554
 10
569.7999849775385
 20
89.08616711944212
 10
569.8274136663484
 20
89.125983987004
 10
569.8442992528808
 20
89.16914643699609
 10
569.8500000006682
 20
89.21401408114225
  0
LINE
  5
1D7
330
1F
100
AcDbEntity
  8
0
  6
CONTINUOUS
 62
   253
100
AcDbLine
 10
583.8500000006758
 20
89.00000000154415
 30
0.0
 11
583.849999999346
 21
110.0000000015262
 31
0.0
  0
LINE
  5
1D8
330
1F
100
AcDbEntity
  8
0
  6
CONTINUOUS
 62
     7
100
AcDbLine
 10
584.3499999980477
 20
130.5000000015404
 30
0.0
 11
584.3499999993458
 21
110.0000000015579
 31
0.0
  0
LINE
  5
1D9
330
1F
100
AcDbEntity
  8
0
  6
CONTINUOUS
 62
   253
100
AcDbLine
 10
583.849999999346
 20
110.0000000015262
 30
0.0
 11
583.8499999980162
 21
131.0000000014994
 31
0.0
  0
LINE
  5
1DA
330
1F
100
AcDbEntity
  8
0
  6
CONTINUOUS
 62
     7
100
AcDbLine
 10
584.3499999993458
 20
110.0000000015579
 30
0.0
 11
584.3500000006438
 21
89.50000000158411
 31
0.0
  0
ARC
  5
1DB
330
1F
100
AcDbEntity
  8
0
  6
CONTINUOUS
 62
   253
100
AcDbCircle
 10
571.2762812430713
 20
129.5917410737613
 30
0.0
 40
2.079274623033659
100
AcDbArc
 50
89.41113873726125
 51
120.4254538930363
  0
LWPOLYLINE
  5
1DC
330
1F
100
AcDbEntity
  8
0
  6
CONTINUOUS
 62
   253
100
AcDbPolyline
 90
        7
 70
     0
 43
0.0
 10
570.2233014559998
 20
131.3846762443714
 10
570.1159824669543
 20
131.3042431726838
 10
570.012906037596
 20
131.2017870147764
 10
569.9354367888407
 20
131.0931811651931
 10
569.8892874670956
 20
130.9971205394954
 10
569.8557193834546
 20
130.8675911789194
 10
569.8499999980357
 20
130.7859859201372
  0
LWPOLYLINE
  5
1DD
330
1F
100
AcDbEntity
  8
0
  6
CONTINUOUS
 62
   253
100
AcDbPolyline
 90
       10
 70
     0
 43
0.0
 10
571.2976507529253
 20
131.6709058825347
 10
571.2982916177807
 20
131.7154221577084
 10
571.2985220244852
 20
131.7661258132644
 10
571.2983334612265
 20
131.8211437266532
 10
571.2977328940132
 20
131.8784433956213
 10
571.2967425093319
 20
131.9359080240355
 10
571.2953988945227
 20
131.9914147217393
 10
571.2937516861484
 20
132.0429129295381
 10
571.2918617362943
 20
132.0885001720929
 10
571.2897988645352
 20
132.1264923402198
  0
LWPOLYLINE
  5
1DE
330
1F
100
AcDbEntity
  8
0
  6
CONTINUOUS
 62
   253
100
AcDbPolyline
 90
        6
 70
     0
 43
0.0
 10
569.8500000006682
 20
89.21401408114224
 10
569.8656049556836
 20
89.07983043224375
 10
569.9027432237585
 20
88.97039788460644
 10
569.968629997249
 20
88.85519894183028
 10
570.0570526077983
 20
88.750275437584
 10
570.1471739963469
 20
88.67022772776576
  0
ARC
  5
1DF
330
1F
100
AcDbEntity
  8
0
  6
CONTINUOUS
 62
   253
100
AcDbCircle
 10
571.2544841381763
 20
90.2940786553099
 30
0.0
 40
1.965458619529858
100
AcDbArc
 50
235.7097737965379
 51
271.2584665224948
  0
LWPOLYLINE
  5
1E0
330
1F
100
AcDbEntity
  8
0
  6
CONTINUOUS
 62
   253
100
AcDbPolyline
 90
       10
 70
     0
 43
0.0
 10
571.2897988673374
 20
87.87350766124226
 10
571.2918617390918
 20
87.91149982936942
 10
571.2937516889402
 20
87.95708707192459
 10
571.2953988973078
 20
88.00858527972356
 10
571.2967425121101
 20
88.0640919774276
 10
571.297732896784
 20
88.12155660584189
 10
571.2983334639902
 20
88.17885627481002
 10
571.2985220272418
 20
88.23387418819887
 10
571.2982916205309
 20
88.28457784375476
 10
571.2976507556698
 20
88.32909411892832
  0
LINE
  5
1E1
330
1F
100
AcDbEntity
  8
0
  6
CONTINUOUS
 62
   253
100
AcDbLine
 10
571.2976507529278
 20
131.6327046560453
 30
0.0
 11
571.2976507529254
 21
131.6709058825344
 31
0.0
  0
LINE
  5
1E2
330
1F
100
AcDbEntity
  8
0
  6
CONTINUOUS
 62
   253
100
AcDbLine
 10
571.2976507556698
 20
88.32909411892842
 30
0.0
 11
571.2976507556675
 21
88.36729534541752
 31
0.0
  0
LINE
  5
1E3
330
1F
100
AcDbEntity
  8
0
  6
CONTINUOUS
 62
   253
100
AcDbLine
 10
577.1460621806517
 20
131.7545104144685
 30
0.0
 11
571.2976507527285
 21
131.6709058825264
 31
0.0
  0
LWPOLYLINE
  5
1E4
330
1F
100
AcDbEntity
  8
0
  6
CONTINUOUS
 62
   253
100
AcDbPolyline
 90
       10
 70
     0
 43
0.0
 10
577.9228885019639
 20
131.7706545956686
 10
577.9234952775624
 20
131.815617757368
 10
577.923696047752
 20
131.8664604095802
 10
577.9234835217001
 20
131.9213362360685
 10
577.9228654171453
 20
131.9782524586233
 10
577.9218641801331
 20
132.0351422034435
 10
577.9205161699025
 20
132.0899395582489
 10
577.9188703385256
 20
132.1406545944754
 10
577.9169864532464
 20
132.1854456301739
 10
577.9149329260738
 20
132.2226861094335
  0
LWPOLYLINE
  5
1E5
330
1F
100
AcDbEntity
  8
0
  6
CONTINUOUS
 62
   253
100
AcDbPolyline
 90
       10
 70
     0
 43
0.0
 10
577.914932928888
 20
87.77731389286623
 10
577.916986456056
 20
87.81455437212604
 10
577.9188703413295
 20
87.85934540782466
 10
577.9205161727
 20
87.91006044405144
 10
577.9218641829236
 20
87.9648577988571
 10
577.9228654199286
 20
88.0217475436776
 10
577.9234835244762
 20
88.07866376623271
 10
577.9236960505211
 20
88.13353959272128
 10
577.9234952803253
 20
88.18438224493364
 10
577.9228885047211
 20
88.22934540663306
  0
LINE
  5
1E6
330
1F
100
AcDbEntity
  8
0
  6
CONTINUOUS
 62
   253
100
AcDbLine
 10
571.2976507554713
 20
88.32909411893635
 30
0.0
 11
577.1460621834057
 21
88.24548958773494
 31
0.0
  0
LINE
  5
1E7
330
1F
100
AcDbEntity
  8
0
  6
CONTINUOUS
 62
     7
100
AcDbLine
 10
579.2806951821786
 20
83.55939907050389
 30
0.0
 11
579.2636986542533
 21
83.54723566228755
 31
0.0
  0
LINE
  5
1E8
330
1F
100
AcDbEntity
  8
0
  6
CONTINUOUS
 62
     7
100
AcDbLine
 10
577.9149329291777
 20
83.20521089447321
 30
0.0
 11
577.9179824707708
 21
83.20294576617559
 31
0.0
  0
LINE
  5
1E9
330
1F
100
AcDbEntity
  8
0
  6
CONTINUOUS
 62
     7
100
AcDbLine
 10
579.2643005314084
 20
136.4525477657028
 30
0.0
 11
579.280695178831
 21
136.4406009319699
 31
0.0
  0
LINE
  5
1EA
330
1F
100
AcDbEntity
  8
0
  6
CONTINUOUS
 62
     7
100
AcDbLine
 10
577.917710383163
 20
136.7979117334844
 30
0.0
 11
577.9149329257843
 21
136.7947891078277
 31
0.0
  0
LINE
  5
1EB
330
1F
100
AcDbEntity
  8
0
  6
CONTINUOUS
 62
     7
100
AcDbLine
 10
577.9179824583723
 20
136.797054268445
 30
0.0
 11
577.917710383163
 21
136.7979117334844
 31
0.0
  0
LINE
  5
1EC
330
1F
100
AcDbEntity
  8
0
  6
CONTINUOUS
 62
     7
100
AcDbLine
 10
571.2897988676392
 20
83.10720973738856
 30
0.0
 11
571.2928056857885
 21
83.10560910309886
 31
0.0
  0
LWPOLYLINE
  5
1ED
330
1F
100
AcDbEntity
  8
0
  6
CONTINUOUS
 62
   253
100
AcDbPolyline
 90
        5
 70
     0
 43
0.0
 10
569.5526179617202
 20
82.8570009835398
 10
569.6107959597492
 20
82.86318651211629
 10
569.6666614917134
 20
82.88049608917909
 10
569.7180896277717
 20
82.90827131883461
 10
569.7631242211348
 20
82.94545572829429
  0
LWPOLYLINE
  5
1EE
330
1F
100
AcDbEntity
  8
0
  6
CONTINUOUS
 62
   253
100
AcDbPolyline
 90
        5
 70
     0
 43
0.0
 10
569.7526770599228
 20
137.0645472068722
 10
569.7089757769061
 20
137.0976293407815
 10
569.6599503656518
 20
137.122229315657
 10
569.6072426962465
 20
137.1375232737923
 10
569.5526179582828
 20
137.1429990177019
  0
LINE
  5
1EF
330
1F
100
AcDbEntity
  8
0
  6
CONTINUOUS
 62
     7
100
AcDbLine
 10
571.292805829937
 20
136.8943903412598
 30
0.0
 11
571.2897988642334
 21
136.8927902640735
 31
0.0
  0
LINE
  5
1F0
330
1F
100
AcDbEntity
  8
0
  6
CONTINUOUS
 62
     7
100
AcDbLine
 10
559.8499999993562
 20
82.65
 30
0.0
 11
559.8499999993562
 21
110.0
 31
0.0
  0
LINE
  5
1F1
330
1F
100
AcDbEntity
  8
0
  6
CONTINUOUS
 62
   253
100
AcDbLine
 10
558.6173269873351
 20
137.35
 30
0.0
 11
558.6173269873351
 21
82.65
 31
0.0
  0
LINE
  5
1F2
330
1F
100
AcDbEntity
  8
0
  6
CONTINUOUS
 62
     7
100
AcDbLine
 10
559.8499999993562
 20
110.0
 30
0.0
 11
559.8499999993562
 21
137.35
 31
0.0
  0
LINE
  5
1F3
330
1F
100
AcDbEntity
  8
0
  6
CONTINUOUS
 62
   253
100
AcDbLine
 10
557.651401161046
 20
83.39118095489748
 30
0.0
 11
557.651401161046
 21
110.0
 31
0.0
  0
LINE
  5
1F4
330
1F
100
AcDbEntity
  8
0
  6
CONTINUOUS
 62
   253
100
AcDbLine
 10
557.651401161046
 20
110.0
 30
0.0
 11
557.651401161046
 21
136.6088190451025
 31
0.0
  0
LINE
  5
1F5
330
1F
100
AcDbEntity
  8
0
  6
CONTINUOUS
 62
   253
100
AcDbLine
 10
557.3716366885488
 20
135.5647238195899
 30
0.0
 11
557.3716366885488
 21
84.43527618041006
 31
0.0
  0
LINE
  5
1F6
330
1F
100
AcDbEntity
  8
0
  6
CONTINUOUS
 62
   253
100
AcDbLine
 10
553.5079333833926
 20
87.40000000000002
 30
0.0
 11
553.5079333833926
 21
110.0
 31
0.0
  0
LINE
  5
1F7
330
1F
100
AcDbEntity
  8
0
  6
CONTINUOUS
 62
   253
100
AcDbLine
 10
553.5079333833926
 20
110.0
 30
0.0
 11
553.5079333833926
 21
132.6
 31
0.0
  0
LINE
  5
1F8
330
1F
100
AcDbEntity
  8
0
  6
CONTINUOUS
 62
     7
100
AcDbLine
 10
537.8499999993562
 20
87.40000000000002
 30
0.0
 11
537.8499999993562
 21
110.0
 31
0.0
  0
LINE
  5
1F9
330
1F
100
AcDbEntity
  8
0
  6
CONTINUOUS
 62
     7
100
AcDbLine
 10
537.8499999993562
 20
110.0
 30
0.0
 11
537.8499999993562
 21
132.6
 31
0.0
  0
LINE
  5
1FA
330
1F
100
AcDbEntity
  8
0
  6
CONTINUOUS
 62
     7
100
AcDbLine
 10
536.3499999993562
 20
89.00000000000003
 30
0.0
 11
536.3499999993562
 21
110.0
 31
0.0
  0
LINE
  5
1FB
330
1F
100
AcDbEntity
  8
0
  6
CONTINUOUS
 62
     7
100
AcDbLine
 10
536.3499999993562
 20
110.0
 30
0.0
 11
536.3499999993562
 21
131.0
 31
0.0
  0
LINE
  5
1FC
330
1F
100
AcDbEntity
  8
0
  6
CONTINUOUS
 62
     7
100
AcDbLine
 10
490.3499999993562
 20
84.99999999999999
 30
0.0
 11
494.3499999993562
 21
84.99999999999999
 31
0.0
  0
LINE
  5
1FD
330
1F
100
AcDbEntity
  8
0
  6
CONTINUOUS
 62
     7
100
AcDbLine
 10
494.3499999993562
 20
135.0
 30
0.0
 11
490.3499999993562
 21
135.0
 31
0.0
  0
ARC
  5
1FE
330
1F
100
AcDbEntity
  8
0
  6
CONTINUOUS
 62
     7
100
AcDbCircle
 10
489.8499999993562
 20
88.4522321317108
 30
0.0
 40
0.5000000000000078
100
AcDbArc
 50
0.0
 51
89.7436447553435
  0
ARC
  5
1FF
330
1F
100
AcDbEntity
  8
0
  6
CONTINUOUS
 62
     7
100
AcDbCircle
 10
489.8499999993562
 20
131.5477678682892
 30
0.0
 40
0.5000000000000004
100
AcDbArc
 50
270.2563552446565
 51
0.0
  0
LINE
  5
200
330
1F
100
AcDbEntity
  8
0
  6
CONTINUOUS
 62
     7
100
AcDbLine
 10
489.8522371134291
 20
131.0477728729936
 30
0.0
 11
445.6499999993562
 21
130.85
 31
0.0
  0
LINE
  5
201
330
1F
100
AcDbEntity
  8
0
  6
CONTINUOUS
 62
     7
100
AcDbLine
 10
445.6499999993562
 20
89.14999999999999
 30
0.0
 11
489.8522371134291
 21
88.95222712700638
 31
0.0
  0
LINE
  5
202
330
1F
100
AcDbEntity
  8
0
  6
CONTINUOUS
 62
     7
100
AcDbLine
 10
559.8500000010881
 20
82.65000000000661
 30
0.0
 11
569.5526179617281
 21
82.73467346478785
 31
0.0
  0
LINE
  5
203
330
1F
100
AcDbEntity
  8
0
  6
CONTINUOUS
 62
     7
100
AcDbLine
 10
569.552617958275
 20
137.2653265364539
 30
0.0
 11
559.8499999976244
 21
137.3500000000064
 31
0.0
  0
ARC
  5
204
330
1F
100
AcDbEntity
  8
0
  6
CONTINUOUS
 62
     7
100
AcDbCircle
 10
577.8887533194537
 20
134.1924639506332
 30
0.0
 40
2.999999999999959
100
AcDbArc
 50
15.00000000382216
 51
62.35573055670464
  0
ARC
  5
205
330
1F
100
AcDbEntity
  8
0
  6
CONTINUOUS
 62
     7
100
AcDbCircle
 10
577.8887533225176
 20
85.8075360516643
 30
0.0
 40
3.000000000000009
100
AcDbArc
 50
297.6442694505514
 51
345.000000003434
  0
LINE
  5
206
330
1F
100
AcDbEntity
  8
0
  6
CONTINUOUS
 62
     7
100
AcDbLine
 10
580.7865308014327
 20
85.03107891653005
 30
0.0
 11
581.4528023241504
 21
87.51763809157964
 31
0.0
  0
LINE
  5
207
330
1F
100
AcDbEntity
  8
0
  6
CONTINUOUS
 62
     7
100
AcDbLine
 10
581.4528023213031
 20
132.4823619111692
 30
0.0
 11
580.7865307982705
 21
134.9689210861344
 31
0.0
  0
ARC
  5
208
330
1F
100
AcDbEntity
  8
0
  6
CONTINUOUS
 62
     7
100
AcDbCircle
 10
583.3846539767605
 20
87.00000000150656
 30
0.0
 40
2.000000000000053
100
AcDbArc
 50
90.00000000362797
 51
165.0000000038905
  0
ARC
  5
209
330
1F
100
AcDbEntity
  8
0
  6
CONTINUOUS
 62
     7
100
AcDbCircle
 10
583.3846539738477
 20
133.000000001487
 30
0.0
 40
2.000000000000002
100
AcDbArc
 50
195.0000000033658
 51
270.000000003628
  0
LINE
  5
20A
330
1F
100
AcDbEntity
  8
0
  6
CONTINUOUS
 62
     7
100
AcDbLine
 10
577.9228782525165
 20
94.20220053506593
 30
0.0
 11
579.0253168110611
 21
94.3969168409977
 31
0.0
  0
LINE
  5
20B
330
1F
100
AcDbEntity
  8
0
  6
CONTINUOUS
 62
     7
100
AcDbLine
 10
579.0254580300381
 20
125.6030361516174
 30
0.0
 11
577.9228782505154
 21
125.7977994672359
 31
0.0
  0
LWPOLYLINE
  5
20C
330
1F
100
AcDbEntity
  8
0
  6
CONTINUOUS
 62
     7
100
AcDbPolyline
 90
        7
 70
     0
 43
0.0
 10
-569.8442992526518
 20
92.78525418934888
 10
-569.8540546133537
 20
92.92776899425064
 10
-569.8838736243675
 20
93.05740531355548
 10
-569.9341680175413
 20
93.1865822222068
 10
-569.9983146508763
 20
93.30264201979466
 10
-570.0826876752792
 20
93.41851591077224
 10
-570.1713739343925
 20
93.51509263336727
210
0.0
220
0.0
230
-1.0
  0
ARC
  5
20D
330
1F
100
AcDbEntity
  8
0
  6
CONTINUOUS
 62
     7
100
AcDbCircle
 10
571.3313927372919
 20
92.26336868585675
 30
0.0
 40
1.706592061346672
100
AcDbArc
 50
91.13218087018949
 51
132.822409704236
  0
ARC
  5
20E
330
1F
100
AcDbEntity
  8
0
  6
CONTINUOUS
 62
     7
100
AcDbCircle
 10
571.3340922336101
 20
127.7441738542033
 30
0.0
 40
1.714188363390756
100
AcDbArc
 50
227.5752583980452
 51
268.7825888476092
  0
LWPOLYLINE
  5
20F
330
1F
100
AcDbEntity
  8
0
  6
CONTINUOUS
 62
     7
100
AcDbPolyline
 90
        7
 70
     0
 43
0.0
 10
-570.1776644121177
 20
126.4788215558839
 10
-570.0790543698637
 20
126.5859325414859
 10
-569.9941884368073
 20
126.7038600896709
 10
-569.9254801312505
 20
126.8321820112987
 10
-569.8766217248435
 20
126.9671422249742
 10
-569.8489418419201
 20
127.1113768624729
 10
-569.8442992504716
 20
127.2147458119298
210
0.0
220
0.0
230
-1.0
  0
LINE
  5
210
330
1F
100
AcDbEntity
  8
0
  6
CONTINUOUS
 62
     7
100
AcDbLine
 10
577.9228775795815
 20
125.7977995150167
 30
0.0
 11
571.2976727121979
 21
126.0303723882486
 31
0.0
  0
LINE
  5
211
330
1F
100
AcDbEntity
  8
0
  6
CONTINUOUS
 62
     7
100
AcDbLine
 10
571.2976727142285
 20
93.96962761321421
 30
0.0
 11
577.9228775815824
 21
94.20220048728508
 31
0.0
  0
ARC
  5
212
330
1F
100
AcDbEntity
  8
0
  6
CONTINUOUS
 62
     7
100
AcDbCircle
 10
583.8499999980479
 20
130.5000000015175
 30
0.0
 40
0.500000000000056
100
AcDbArc
 50
0.000000004618563
 51
90.00000000362742
  0
ARC
  5
213
330
1F
100
AcDbEntity
  8
0
  6
CONTINUOUS
 62
     7
100
AcDbCircle
 10
583.8500000006442
 20
89.50000000153497
 30
0.0
 40
0.5000000000000004
100
AcDbArc
 50
270.0000000036282
 51
0.0000000026378757
  0
LINE
  5
214
330
1F
100
AcDbEntity
  8
0
  6
CONTINUOUS
 62
     7
100
AcDbLine
 10
583.3846539766339
 20
89.00000000149687
 30
0.0
 11
583.8500000006758
 21
89.00000000152633
 31
0.0
  0
LINE
  5
215
330
1F
100
AcDbEntity
  8
0
  6
CONTINUOUS
 62
     7
100
AcDbLine
 10
583.8499999980162
 20
131.0000000015261
 30
0.0
 11
583.3846539739743
 21
131.0000000014966
 31
0.0
  0
LINE
  5
216
330
1F
100
AcDbEntity
  8
0
  6
CONTINUOUS
 62
     7
100
AcDbLine
 10
574.2011265400465
 20
83.15000000091538
 30
0.0
 11
579.2806951821984
 21
83.15000000123702
 31
0.0
  0
ARC
  5
217
330
1F
100
AcDbEntity
  8
0
  6
CONTINUOUS
 62
     7
100
AcDbCircle
 10
577.8716741953315
 20
86.17406751617851
 30
0.0
 40
2.97148264959668
100
AcDbArc
 50
270.8929466700756
 51
298.3035501592203
  0
ARC
  5
218
330
1F
100
AcDbEntity
  8
0
  6
CONTINUOUS
 62
     7
100
AcDbCircle
 10
577.8716941598046
 20
133.8260086058675
 30
0.0
 40
2.971406227971443
100
AcDbArc
 50
61.69473231221614
 51
89.10741543708299
  0
LINE
  5
219
330
1F
100
AcDbEntity
  8
0
  6
CONTINUOUS
 62
     7
100
AcDbLine
 10
579.280695178798
 20
136.8500000012368
 30
0.0
 11
574.1978126159363
 21
136.8500000009149
 31
0.0
  0
LINE
  5
21A
330
1F
100
AcDbEntity
  8
0
  6
CONTINUOUS
 62
     7
100
AcDbLine
 10
569.7629183527074
 20
82.94555235820927
 30
0.0
 11
571.2928015351918
 21
83.10559346152624
 31
0.0
  0
LINE
  5
21B
330
1F
100
AcDbEntity
  8
0
  6
CONTINUOUS
 62
     7
100
AcDbLine
 10
571.2928015317857
 20
136.8944065399359
 30
0.0
 11
569.7491837434674
 21
137.0613284410697
 31
0.0
  0
ARC
  5
21C
330
1F
100
AcDbEntity
  8
0
  6
CONTINUOUS
 62
     7
100
AcDbCircle
 10
569.5499999976446
 20
136.9653379595231
 30
0.0
 40
0.3000000000000369
100
AcDbArc
 50
13.83230172337098
 51
89.50000000364675
  0
ARC
  5
21D
330
1F
100
AcDbEntity
  8
0
  6
CONTINUOUS
 62
     7
100
AcDbCircle
 10
569.5500000010596
 20
83.0346620417183
 30
0.0
 40
0.299999999999996
100
AcDbArc
 50
270.5000000036079
 51
346.1722777073721
  0
LINE
  5
21E
330
1F
100
AcDbEntity
  8
0
  6
CONTINUOUS
 62
     7
100
AcDbLine
 10
569.84113696755
 20
82.96297248176263
 30
0.0
 11
569.8774752648566
 21
82.97148442043972
 31
0.0
  0
LINE
  5
21F
330
1F
100
AcDbEntity
  8
0
  6
CONTINUOUS
 62
     7
100
AcDbLine
 10
569.8774752648566
 20
82.97148442043972
 30
0.0
 11
569.9448666739892
 21
82.98581286058717
 31
0.0
  0
LINE
  5
220
330
1F
100
AcDbEntity
  8
0
  6
CONTINUOUS
 62
     7
100
AcDbLine
 10
558.6173269873351
 20
82.65
 30
0.0
 11
559.8499999993562
 21
82.65
 31
0.0
  0
LINE
  5
221
330
1F
100
AcDbEntity
  8
0
  6
CONTINUOUS
 62
     7
100
AcDbLine
 10
559.8499999993562
 20
137.35
 30
0.0
 11
558.6173269873351
 21
137.35
 31
0.0
  0
ARC
  5
222
330
1F
100
AcDbEntity
  8
0
  6
CONTINUOUS
 62
     7
100
AcDbCircle
 10
558.6173269873351
 20
136.35
 30
0.0
 40
1.000000000000001
100
AcDbArc
 50
90.0
 51
165.0000000000001
  0
ARC
  5
223
330
1F
100
AcDbEntity
  8
0
  6
CONTINUOUS
 62
     7
100
AcDbCircle
 10
558.6173269873351
 20
83.65
 30
0.0
 40
1.000000000000004
100
AcDbArc
 50
194.9999999999999
 51
270.0
  0
LINE
  5
224
330
1F
100
AcDbEntity
  8
0
  6
CONTINUOUS
 62
     7
100
AcDbLine
 10
557.651401161046
 20
136.6088190451025
 30
0.0
 11
557.3716366885488
 21
135.5647238195899
 31
0.0
  0
LINE
  5
225
330
1F
100
AcDbEntity
  8
0
  6
CONTINUOUS
 62
     7
100
AcDbLine
 10
557.3716366885488
 20
84.43527618041013
 30
0.0
 11
557.651401161046
 21
83.39118095489748
 31
0.0
  0
ARC
  5
226
330
1F
100
AcDbEntity
  8
0
  6
CONTINUOUS
 62
     7
100
AcDbCircle
 10
553.5079333833926
 20
83.40000000000002
 30
0.0
 40
4.000000000000004
100
AcDbArc
 50
14.9999999999996
 51
90.0
  0
ARC
  5
227
330
1F
100
AcDbEntity
  8
0
  6
CONTINUOUS
 62
     7
100
AcDbCircle
 10
553.5079333833926
 20
136.6
 30
0.0
 40
4.000000000000011
100
AcDbArc
 50
270.0
 51
345.0000000000005
  0
LINE
  5
228
330
1F
100
AcDbEntity
  8
0
  6
CONTINUOUS
 62
     7
100
AcDbLine
 10
537.8499999993562
 20
87.40000000000002
 30
0.0
 11
553.5079333833926
 21
87.40000000000002
 31
0.0
  0
LINE
  5
229
330
1F
100
AcDbEntity
  8
0
  6
CONTINUOUS
 62
     7
100
AcDbLine
 10
553.5079333833926
 20
132.6
 30
0.0
 11
537.8499999993562
 21
132.6
 31
0.0
  0
LINE
  5
22A
330
1F
100
AcDbEntity
  8
0
  6
CONTINUOUS
 62
     7
100
AcDbLine
 10
537.8499999993562
 20
132.6
 30
0.0
 11
536.3499999993562
 21
131.0
 31
0.0
  0
LINE
  5
22B
330
1F
100
AcDbEntity
  8
0
  6
CONTINUOUS
 62
     7
100
AcDbLine
 10
536.3499999993562
 20
89.0
 30
0.0
 11
537.8499999993562
 21
87.4
 31
0.0
  0
LINE
  5
22C
330
1F
100
AcDbEntity
  8
0
  6
CONTINUOUS
 62
     7
100
AcDbLine
 10
494.3499999993562
 20
89.0
 30
0.0
 11
536.3499999993562
 21
89.0
 31
0.0
  0
LINE
  5
22D
330
1F
100
AcDbEntity
  8
0
  6
CONTINUOUS
 62
     7
100
AcDbLine
 10
536.3499999993562
 20
131.0
 30
0.0
 11
494.3499999993562
 21
131.0
 31
0.0
  0
MTEXT
  5
22E
330
1F
100
AcDbEntity
  8
0
 62
     4
100
AcDbMText
 10
510.2560335125671
 20
67.371601850694
 30
0.0
 40
3.0
 41
0.0
 71
     1
 72
     1
  1
{\fＭＳ ゴシック;MFKH-28BA}
  0
POINT
  5
22F
330
1F
100
AcDbEntity
  8
0
 62
     1
100
AcDbPoint
 10
515.0
 20
110.0
 30
0.0
  0
ENDSEC
  0
SECTION
  2
OBJECTS
  0
DICTIONARY
  5
C
330
0
100
AcDbDictionary
  3
ACAD_GROUP
350
D
  3
ACAD_LAYOUT
350
1A
  3
ACAD_MATERIAL
350
43
  3
ACAD_MLEADERSTYLE
350
6B
  3
ACAD_MLINESTYLE
350
17
  3
ACAD_PLOTSETTINGS
350
19
  3
ACAD_SCALELIST
350
47
  3
ACAD_VISUALSTYLE
350
2A
  3
ACDBHEADERROUNDTRIPXREC
350
230
  3
ACDBVARIABLEDICTIONARY
350
251
  0
DICTIONARY
  5
258
330
8
100
AcDbDictionary
280
     1
  3
ACAD_XREC_ROUNDTRIP
360
259
  0
DICTIONARY
  5
D
102
{ACAD_REACTORS
330
C
102
}
330
C
100
AcDbDictionary
  0
DICTIONARY
  5
1A
102
{ACAD_REACTORS
330
C
102
}
330
C
100
AcDbDictionary
  0
DICTIONARY
  5
43
102
{ACAD_REACTORS
330
C
102
}
330
C
100
AcDbDictionary
  3
BYBLOCK
350
45
  3
BYLAYER
350
44
  3
GLOBAL
350
46
  0
DICTIONARY
  5
6B
102
{ACAD_REACTORS
330
C
102
}
330
C
100
AcDbDictionary
  3
STANDARD
350
6C
  0
DICTIONARY
  5
17
102
{ACAD_REACTORS
330
C
102
}
330
C
100
AcDbDictionary
  3
STANDARD
350
18
  0
DICTIONARY
  5
19
102
{ACAD_REACTORS
330
C
102
}
330
C
100
AcDbDictionary
  0
DICTIONARY
  5
47
102
{ACAD_REACTORS
330
C
102
}
330
C
100
AcDbDictionary
  3
A0
350
48
  3
A1
350
49
  3
A2
350
4A
  3
A3
350
4B
  3
A4
350
4C
  3
A5
350
4D
  3
A6
350
4E
  3
A7
350
4F
  3
A8
350
50
  3
A9
350
51
  3
B0
350
52
  3
B1
350
53
  3
B2
350
54
  3
B3
350
55
  3
B4
350
56
  3
B5
350
57
  3
B6
350
58
  3
B7
350
59
  3
B8
350
5A
  3
B9
350
5B
  3
C0
350
5C
  3
C1
350
5D
  3
C2
350
5E
  3
C3
350
5F
  3
C4
350
60
  3
C5
350
61
  3
C6
350
62
  3
C7
350
63
  3
C8
350
64
  3
C9
350
65
  3
D0
350
66
  3
D1
350
67
  3
D2
350
68
  0
DICTIONARY
  5
2A
102
{ACAD_REACTORS
330
C
102
}
330
C
100
AcDbDictionary
  3
2DWIREFRAME
350
2F
  3
BASIC
350
32
  3
BRIGHTEN
350
36
  3
COLORCHANGE
350
3A
  3
CONCEPTUAL
350
34
  3
DIM
350
35
  3
EDGECOLOROFF
350
3D
  3
FACEPATTERN
350
39
  3
FLAT
350
2B
  3
FLATWITHEDGES
350
2C
  3
GOURAUD
350
2D
  3
GOURAUDWITHEDGES
350
2E
  3
HIDDEN
350
31
  3
JITTEROFF
350
3B
  3
LINEPATTERN
350
38
  3
OVERHANGOFF
350
3C
  3
REALISTIC
350
33
  3
SHADED
350
42
  3
SHADED_WITH_EDGES
350
41
  3
SHADES_OF_GRAY
350
3E
  3
SKETCHY
350
3F
  3
THICKEN
350
37
  3
WIREFRAME
350
30
  3
X-RAY
350
40
  0
DICTIONARY
  5
230
102
{ACAD_REACTORS
330
C
102
}
330
C
100
AcDbDictionary
  3
CEPSNID
350
23A
  3
CEPSNTYPE
350
239
  3
DIMSTYLEDATA
350
250
  3
FINGERPRINTGUID
350
23B
  3
HYPERLINKBASE
350
233
  3
INSUNITS
350
238
  3
LAYOUTDICT
350
235
  3
LWETCUNION
350
237
  3
PLOTSETDICT
350
236
  3
PSVPSCALE
350
23D
  3
PUCSBASE
350
240
  3
PUCSORGBACK
350
246
  3
PUCSORGBOTTOM
350
242
  3
PUCSORGFRONT
350
245
  3
PUCSORGLEFT
350
243
  3
PUCSORGRIGHT
350
244
  3
PUCSORGTOP
350
241
  3
PUCSORTHOREF
350
23E
  3
PUCSORTHOVIEW
350
23F
  3
STYLESHEET
350
234
  3
TSTACKALIGN
350
231
  3
TSTACKSIZE
350
232
  3
UCSBASE
350
249
  3
UCSORGBACK
350
24F
  3
UCSORGBOTTOM
350
24B
  3
UCSORGFRONT
350
24E
  3
UCSORGLEFT
350
24C
  3
UCSORGRIGHT
350
24D
  3
UCSORGTOP
350
24A
  3
UCSORTHOREF
350
247
  3
UCSORTHOVIEW
350
248
  3
VERSIONGUID
350
23C
  0
DICTIONARY
  5
251
102
{ACAD_REACTORS
330
C
102
}
330
C
100
AcDbDictionary
  3
CANNOSCALE
350
25A
  3
CMLEADERSTYLE
350
253
  3
CTABLESTYLE
350
252
  3
DIMASSOC
350
256
  3
HIDETEXT
350
257
  3
MSLTSCALE
350
25B
  0
XRECORD
  5
259
102
{ACAD_REACTORS
330
258
102
}
330
258
100
AcDbXrecord
102
VTR_0.000_0.000_1.000_1.000_VISUALSTYLE
340
2F
102
VTR_0.000_0.000_1.000_1.000_GRIDDISPLAY
 70
     3
102
VTR_0.000_0.000_1.000_1.000_GRIDMAJOR
 70
     5
102
VTR_0.000_0.000_1.000_1.000_DEFAULTLIGHTING
280
     1
102
VTR_0.000_0.000_1.000_1.000_DEFAULTLIGHTINGTYPE
 70
     1
102
VTR_0.000_0.000_1.000_1.000_BRIGHTNESS
141
0.0
102
VTR_0.000_0.000_1.000_1.000_CONTRAST
142
0.0
  0
MATERIAL
  5
45
102
{ACAD_REACTORS
330
43
102
}
102
{ACAD_XDICTIONARY
360
25E
102
}
330
43
100
AcDbMaterial
  1
BYBLOCK
  0
MATERIAL
  5
44
102
{ACAD_REACTORS
330
43
102
}
102
{ACAD_XDICTIONARY
360
25C
102
}
330
43
100
AcDbMaterial
  1
BYLAYER
  0
MATERIAL
  5
46
102
{ACAD_REACTORS
330
43
102
}
102
{ACAD_XDICTIONARY
360
260
102
}
330
43
100
AcDbMaterial
  1
GLOBAL
  0
ACAD_PROXY_OBJECT
  5
6C
102
{ACAD_REACTORS
330
6B
102
}
330
6B
100
AcDbProxyObject
 90
      499
 91
      505
 93
      610
310
40901902A4063FBFFFFFE056BD1B81E855B9FC0AD7A3703D0AD73F4214DD185B99185C9900AD7A3703D0AC73F90141901A02B5E8DC0F42B1CFC02B5E8DC0F42B1CFE5764000000000000300FC0
340
14
340
0
340
11
340
0
 94
        0
1001
ACAD_MLEADERVER
1070
     2
  0
MLINESTYLE
  5
18
102
{ACAD_REACTORS
330
17
102
}
330
17
100
AcDbMlineStyle
  2
Standard
 70
     0
  3

 62
   256
 51
90.0
 52
90.0
 71
     2
 49
0.5
 62
   256
  6
BYLAYER
 49
-0.5
 62
   256
  6
BYLAYER
  0
ACAD_PROXY_OBJECT
  5
48
102
{ACAD_REACTORS
330
47
102
}
330
47
100
AcDbProxyObject
 90
      499
 91
      503
 93
       41
310
903313A31580
  0
ACAD_PROXY_OBJECT
  5
49
102
{ACAD_REACTORS
330
47
102
}
330
47
100
AcDbProxyObject
 90
      499
 91
      503
 93
      105
310
903313A324000000000000004000
  0
ACAD_PROXY_OBJECT
  5
4A
102
{ACAD_REACTORS
330
47
102
}
330
47
100
AcDbProxyObject
 90
      499
 91
      503
 93
      105
310
903313A344000000000000104000
  0
ACAD_PROXY_OBJECT
  5
4B
102
{ACAD_REACTORS
330
47
102
}
330
47
100
AcDbProxyObject
 90
      499
 91
      503
 93
      105
310
903313A354000000000000144000
  0
ACAD_PROXY_OBJECT
  5
4C
102
{ACAD_REACTORS
330
47
102
}
330
47
100
AcDbProxyObject
 90
      499
 91
      503
 93
      105
310
903313A384000000000000204000
  0
ACAD_PROXY_OBJECT
  5
4D
102
{ACAD_REACTORS
330
47
102
}
330
47
100
AcDbProxyObject
 90
      499
 91
      503
 93
      113
310
904313A31304000000000000244000
  0
ACAD_PROXY_OBJECT
  5
4E
102
{ACAD_REACTORS
330
47
102
}
330
47
100
AcDbProxyObject
 90
      499
 91
      503
 93
      113
310
904313A31364000000000000304000
  0
ACAD_PROXY_OBJECT
  5
4F
102
{ACAD_REACTORS
330
47
102
}
330
47
100
AcDbProxyObject
 90
      499
 91
      503
 93
      113
310
904313A32304000000000000344000
  0
ACAD_PROXY_OBJECT
  5
50
102
{ACAD_REACTORS
330
47
102
}
330
47
100
AcDbProxyObject
 90
      499
 91
      503
 93
      113
310
904313A333040000000000003E4000
  0
ACAD_PROXY_OBJECT
  5
51
102
{ACAD_REACTORS
330
47
102
}
330
47
100
AcDbProxyObject
 90
      499
 91
      503
 93
      113
310
904313A34304000000000000444000
  0
ACAD_PROXY_OBJECT
  5
52
102
{ACAD_REACTORS
330
47
102
}
330
47
100
AcDbProxyObject
 90
      499
 91
      503
 93
      113
310
904313A35304000000000000494000
  0
ACAD_PROXY_OBJECT
  5
53
102
{ACAD_REACTORS
330
47
102
}
330
47
100
AcDbProxyObject
 90
      499
 91
      503
 93
      121
310
905313A3130304000000000000594000
  0
ACAD_PROXY_OBJECT
  5
54
102
{ACAD_REACTORS
330
47
102
}
330
47
100
AcDbProxyObject
 90
      499
 91
      503
 93
      105
310
903323A310000000000000010100
  0
ACAD_PROXY_OBJECT
  5
55
102
{ACAD_REACTORS
330
47
102
}
330
47
100
AcDbProxyObject
 90
      499
 91
      503
 93
      105
310
903343A310000000000000410100
  0
ACAD_PROXY_OBJECT
  5
56
102
{ACAD_REACTORS
330
47
102
}
330
47
100
AcDbProxyObject
 90
      499
 91
      503
 93
      105
310
903383A310000000000000810100
  0
ACAD_PROXY_OBJECT
  5
57
102
{ACAD_REACTORS
330
47
102
}
330
47
100
AcDbProxyObject
 90
      499
 91
      503
 93
      113
310
90431303A310000000000000910100
  0
ACAD_PROXY_OBJECT
  5
58
102
{ACAD_REACTORS
330
47
102
}
330
47
100
AcDbProxyObject
 90
      499
 91
      503
 93
      121
310
9053130303A310000000000001650100
  0
ACAD_PROXY_OBJECT
  5
59
102
{ACAD_REACTORS
330
47
102
}
330
47
100
AcDbProxyObject
 90
      499
 91
      503
 93
      257
310
90E312F31323822203D2031272D3022000000000000200FC000000000000284000
  0
ACAD_PROXY_OBJECT
  5
5A
102
{ACAD_REACTORS
330
47
102
}
330
47
100
AcDbProxyObject
 90
      499
 91
      503
 93
      249
310
90D312F363422203D2031272D3022000000000000240FC000000000000284000
  0
ACAD_PROXY_OBJECT
  5
5B
102
{ACAD_REACTORS
330
47
102
}
330
47
100
AcDbProxyObject
 90
      499
 91
      503
 93
      249
310
90D312F333222203D2031272D3022000000000000280FC000000000000284000
  0
ACAD_PROXY_OBJECT
  5
5C
102
{ACAD_REACTORS
330
47
102
}
330
47
100
AcDbProxyObject
 90
      499
 91
      503
 93
      249
310
90D312F313622203D2031272D30220000000000002C0FC000000000000284000
  0
ACAD_PROXY_OBJECT
  5
5D
102
{ACAD_REACTORS
330
47
102
}
330
47
100
AcDbProxyObject
 90
      499
 91
      503
 93
      249
310
90D332F333222203D2031272D30220000000000002E0FC000000000000284000
  0
ACAD_PROXY_OBJECT
  5
5E
102
{ACAD_REACTORS
330
47
102
}
330
47
100
AcDbProxyObject
 90
      499
 91
      503
 93
      241
310
90C312F3822203D2031272D3022000000000000300FC000000000000284000
  0
ACAD_PROXY_OBJECT
  5
5F
102
{ACAD_REACTORS
330
47
102
}
330
47
100
AcDbProxyObject
 90
      499
 91
      503
 93
      249
310
90D332F313622203D2031272D3022000000000000320FC000000000000284000
  0
ACAD_PROXY_OBJECT
  5
60
102
{ACAD_REACTORS
330
47
102
}
330
47
100
AcDbProxyObject
 90
      499
 91
      503
 93
      241
310
90C312F3422203D2031272D3022000000000000340FC000000000000284000
  0
ACAD_PROXY_OBJECT
  5
61
102
{ACAD_REACTORS
330
47
102
}
330
47
100
AcDbProxyObject
 90
      499
 91
      503
 93
      241
310
90C332F3822203D2031272D3022000000000000360FC000000000000284000
  0
ACAD_PROXY_OBJECT
  5
62
102
{ACAD_REACTORS
330
47
102
}
330
47
100
AcDbProxyObject
 90
      499
 91
      503
 93
      241
310
90C312F3222203D2031272D3022000000000000380FC000000000000284000
  0
ACAD_PROXY_OBJECT
  5
63
102
{ACAD_REACTORS
330
47
102
}
330
47
100
AcDbProxyObject
 90
      499
 91
      503
 93
      241
310
90C332F3422203D2031272D30220000000000003A0FC000000000000284000
  0
ACAD_PROXY_OBJECT
  5
64
102
{ACAD_REACTORS
330
47
102
}
330
47
100
AcDbProxyObject
 90
      499
 91
      503
 93
      161
310
90A3122203D2031272D30224000000000000284000
  0
ACAD_PROXY_OBJECT
  5
65
102
{ACAD_REACTORS
330
47
102
}
330
47
100
AcDbProxyObject
 90
      499
 91
      503
 93
      257
310
90E312D312F3222203D2031272D30220000000000003E0FC000000000000284000
  0
ACAD_PROXY_OBJECT
  5
66
102
{ACAD_REACTORS
330
47
102
}
330
47
100
AcDbProxyObject
 90
      499
 91
      503
 93
      225
310
90A3322203D2031272D302200000000000002100000000000000284000
  0
ACAD_PROXY_OBJECT
  5
67
102
{ACAD_REACTORS
330
47
102
}
330
47
100
AcDbProxyObject
 90
      499
 91
      503
 93
      225
310
90A3622203D2031272D302200000000000006100000000000000284000
  0
ACAD_PROXY_OBJECT
  5
68
102
{ACAD_REACTORS
330
47
102
}
330
47
100
AcDbProxyObject
 90
      499
 91
      503
 93
      249
310
90D31272D3022203D2031272D30220000000000000A100000000000000284000
  0
ACAD_PROXY_OBJECT
  5
2F
102
{ACAD_REACTORS
330
2A
102
}
330
2A
100
AcDbProxyObject
 90
      499
 91
      501
 93
      436
310
42CC9915DA5C99599C985B595049028333333333333E33F0000000000000F90107901411070040501600405405064090741402480A0340
1001
ACAD
1000
AcDbSavedByObjectVersion
1070
     0
  0
ACAD_PROXY_OBJECT
  5
32
102
{ACAD_REACTORS
330
2A
102
}
330
2A
100
AcDbProxyObject
 90
      499
 91
      501
 93
      388
310
4150985CDA58D07406404333333333333E33F0000000000000F90107A41107004050150841D405064090741402480A0350
1001
ACAD
1000
AcDbSavedByObjectVersion
1070
     0
  0
ACAD_PROXY_OBJECT
  5
36
102
{ACAD_REACTORS
330
2A
102
}
330
2A
100
AcDbProxyObject
 90
      499
 91
      501
 93
      428
310
42109C9A59DA1D195B90C409028333333333333E33F0000000000000F9010790141107004050150841D405064090741402480A029950
1001
ACAD
1000
AcDbSavedByObjectVersion
1070
     0
  0
ACAD_PROXY_OBJECT
  5
3A
102
{ACAD_REACTORS
330
2A
102
}
330
2A
100
AcDbProxyObject
 90
      499
 91
      501
 93
      452
310
42D0DBDB1BDC90DA185B99D95104090240C333333333333E33F0000000000000F90108901411070040501508421405064090741402480A0350
1001
ACAD
1000
AcDbSavedByObjectVersion
1070
     0
  0
ACAD_PROXY_OBJECT
  5
34
102
{ACAD_REACTORS
330
2A
102
}
330
2A
100
AcDbProxyObject
 90
      499
 91
      501
 93
      500
310
4290DBDB98D95C1D1D585B10940D028333333333333E33F0000000000000F90107902409070040501000000000018199010841D405064090740C02480A0340
1001
ACAD
1000
AcDbSavedByObjectVersion
1070
     0
  0
ACAD_PROXY_OBJECT
  5
35
102
{ACAD_REACTORS
330
2A
102
}
330
2A
100
AcDbProxyObject
 90
      499
 91
      501
 93
      412
310
40D11A5B50B409028333333333333E33F0000000000000F9010790141107004050150841D405064090741402480A02677FFFFFD0
1001
ACAD
1000
AcDbSavedByObjectVersion
1070
     0
  0
ACAD_PROXY_OBJECT
  5
3D
102
{ACAD_REACTORS
330
2A
102
}
330
2A
100
AcDbProxyObject
 90
      499
 91
      501
 93
      452
310
43115919D950DBDB1BDC93D999916409028333333333333E33F0000000000000F9010790141107004050150841D405064090741402480A0350
1001
ACAD
1000
AcDbSavedByObjectVersion
1070
     0
  0
ACAD_PROXY_OBJECT
  5
39
102
{ACAD_REACTORS
330
2A
102
}
330
2A
100
AcDbProxyObject
 90
      499
 91
      501
 93
      444
310
42D19858D95C185D1D195C9B90F409028333333333333E33F0000000000000F9010790141107004050150841D405064090741402480A0350
1001
ACAD
1000
AcDbSavedByObjectVersion
1070
     0
  0
ACAD_PROXY_OBJECT
  5
2B
102
{ACAD_REACTORS
330
2A
102
}
330
2A
100
AcDbProxyObject
 90
      499
 91
      501
 93
      380
310
41119B185D240901404333333333333E33F0000000000000F9010740A907004050150841D405064090741402480A1B50
1001
ACAD
1000
AcDbSavedByObjectVersion
1070
     0
  0
ACAD_PROXY_OBJECT
  5
2C
102
{ACAD_REACTORS
330
2A
102
}
330
2A
100
AcDbProxyObject
 90
      499
 91
      501
 93
      468
310
43519B185D15DA5D1A115919D95CD0140901404333333333333E33F0000000000000F90107409019070040501600405405064090741402480A1B50
1001
ACAD
1000
AcDbSavedByObjectVersion
1070
     0
  0
ACAD_PROXY_OBJECT
  5
2D
102
{ACAD_REACTORS
330
2A
102
}
330
2A
100
AcDbProxyObject
 90
      499
 91
      501
 93
      404
310
41D1DBDD5C985D5910240902404333333333333E33F0000000000000F9010740A9070040501641D405064090741402480A1B50
1001
ACAD
1000
AcDbSavedByObjectVersion
1070
     0
  0
ACAD_PROXY_OBJECT
  5
2E
102
{ACAD_REACTORS
330
2A
102
}
330
2A
100
AcDbProxyObject
 90
      499
 91
      501
 93
      492
310
4411DBDD5C985D5915DA5D1A115919D95CD0340902404333333333333E33F0000000000000F90107409019070040501600405405064090741402480A1B50
1001
ACAD
1000
AcDbSavedByObjectVersion
1070
     0
  0
ACAD_PROXY_OBJECT
  5
31
102
{ACAD_REACTORS
330
2A
102
}
330
2A
100
AcDbProxyObject
 90
      499
 91
      501
 93
      476
310
41921A5919195B90640502408333333333333E33F0000000000000F901079024090700405020000000000001110200405405064090740C02480A0340
1001
ACAD
1000
AcDbSavedByObjectVersion
1070
     0
  0
ACAD_PROXY_OBJECT
  5
3B
102
{ACAD_REACTORS
330
2A
102
}
330
2A
100
AcDbProxyObject
 90
      499
 91
      501
 93
      428
310
42529A5D1D195C93D999914409028333333333333E33F0000000000000F9010790141107004050150A41D405064090741402480A0350
1001
ACAD
1000
AcDbSavedByObjectVersion
1070
     0
  0
ACAD_PROXY_OBJECT
  5
38
102
{ACAD_REACTORS
330
2A
102
}
330
2A
100
AcDbProxyObject
 90
      499
 91
      501
 93
      444
310
42D31A5B995C185D1D195C9B90E409028333333333333E33F0000000000000F9010790141107004050750841D405064090741402483A0350
1001
ACAD
1000
AcDbSavedByObjectVersion
1070
     0
  0
ACAD_PROXY_OBJECT
  5
3C
102
{ACAD_REACTORS
330
2A
102
}
330
2A
100
AcDbProxyObject
 90
      499
 91
      501
 93
      444
310
42D3DD995C9A185B99D3D999915409028333333333333E33F0000000000000F9010790141107004050150941D405064090741402480A0350
1001
ACAD
1000
AcDbSavedByObjectVersion
1070
     0
  0
ACAD_PROXY_OBJECT
  5
33
102
{ACAD_REACTORS
330
2A
102
}
330
2A
100
AcDbProxyObject
 90
      499
 91
      501
 93
      428
310
425499585B1A5CDD1A58D08409038333333333333E33F0000000000000F9010740A907004050150800405405064090740C02480A1B40
1001
ACAD
1000
AcDbSavedByObjectVersion
1070
     0
  0
ACAD_PROXY_OBJECT
  5
42
102
{ACAD_REACTORS
330
2A
102
}
330
2A
100
AcDbProxyObject
 90
      499
 91
      501
 93
      420
310
4194DA1859195911B40902404333333333333E33F0000000000000F9010740A41107004050150800405405064090840C02480A0B40
1001
ACAD
1000
AcDbSavedByObjectVersion
1070
     0
  0
ACAD_PROXY_OBJECT
  5
41
102
{ACAD_REACTORS
330
2A
102
}
330
2A
100
AcDbProxyObject
 90
      499
 91
      501
 93
      516
310
4454DA18591959081DDA5D1A08195919D95CD1A40902404333333333333E33F0000000000000F901074090142907004050250800405405064090740C02480A0B40
1001
ACAD
1000
AcDbSavedByObjectVersion
1070
     0
  0
ACAD_PROXY_OBJECT
  5
3E
102
{ACAD_REACTORS
330
2A
102
}
330
2A
100
AcDbProxyObject
 90
      499
 91
      501
 93
      532
310
4394DA1859195CC81BD98811DC985E5174090240C333333333333E33F0000000000000F901079024090741D01000000000000111010841D405064090740C02480A0340
1001
ACAD
1000
AcDbSavedByObjectVersion
1070
     0
  0
ACAD_PROXY_OBJECT
  5
3F
102
{ACAD_REACTORS
330
2A
102
}
330
2A
100
AcDbProxyObject
 90
      499
 91
      501
 93
      476
310
41D4DAD95D18DA1E51840502408333333333333E33F0000000000000F901079024090741D01000000000000111010B41D405064090741802480A0340
1001
ACAD
1000
AcDbSavedByObjectVersion
1070
     0
  0
ACAD_PROXY_OBJECT
  5
37
102
{ACAD_REACTORS
330
2A
102
}
330
2A
100
AcDbProxyObject
 90
      499
 91
      501
 93
      412
310
41D51A1A58DAD95B90D409028333333333333E33F0000000000000F9010790141107004050150C41D405064090741402480A0350
1001
ACAD
1000
AcDbSavedByObjectVersion
1070
     0
  0
ACAD_PROXY_OBJECT
  5
30
102
{ACAD_REACTORS
330
2A
102
}
330
2A
100
AcDbProxyObject
 90
      499
 91
      501
 93
      420
310
4255DA5C99599C985B595059028333333333333E33F0000000000000F90107901411070040501600405405064090740C02480A0340
1001
ACAD
1000
AcDbSavedByObjectVersion
1070
     0
  0
ACAD_PROXY_OBJECT
  5
40
102
{ACAD_REACTORS
330
2A
102
}
330
2A
100
AcDbProxyObject
 90
      499
 91
      501
 93
      404
310
41560B54985E51940902404000000000000E03F0000000000000F9010740501907004050150841D405064090740C02480A1B40
1001
ACAD
1000
AcDbSavedByObjectVersion
1070
     0
  0
XRECORD
  5
23A
102
{ACAD_REACTORS
330
230
102
}
330
230
100
AcDbXrecord
340
0
  0
XRECORD
  5
239
102
{ACAD_REACTORS
330
230
102
}
330
230
100
AcDbXrecord
 90
        0
  0
XRECORD
  5
250
102
{ACAD_REACTORS
330
230
102
}
330
230
100
AcDbXrecord
1000
DSTYLE
1002
{
1070
   179
 70
     2
1070
   171
 70
     2
1070
   143
 40
25.4
1070
   274
 70
     2
1070
    41
 40
3.0
1070
   141
 40
0.09
1070
    43
 40
0.38
1070
   278
 70
    46
1070
    44
 40
1.5
1070
    42
 40
0.0625
1070
   147
 40
1.5
1070
   272
 70
     4
1070
    73
 70
     1
1070
   172
 70
     0
1070
    74
 70
     1
1070
   283
 70
     1
1070
   340
340
6E
1070
   140
 40
3.0
1070
   284
 70
     0
1070
    78
 70
     0
1002
}
  0
XRECORD
  5
23B
102
{ACAD_REACTORS
330
230
102
}
330
230
100
AcDbXrecord
  1
{055F1F58-AD42-49AC-B0A3-5B7FF0592984}
  0
XRECORD
  5
233
102
{ACAD_REACTORS
330
230
102
}
330
230
100
AcDbXrecord
  1

  0
XRECORD
  5
238
102
{ACAD_REACTORS
330
230
102
}
330
230
100
AcDbXrecord
 90
        4
  0
XRECORD
  5
235
102
{ACAD_REACTORS
330
230
102
}
330
230
100
AcDbXrecord
340
1A
  0
XRECORD
  5
237
102
{ACAD_REACTORS
330
230
102
}
330
230
100
AcDbXrecord
 90
    10269
  0
XRECORD
  5
236
102
{ACAD_REACTORS
330
230
102
}
330
230
100
AcDbXrecord
340
19
  0
XRECORD
  5
23D
102
{ACAD_REACTORS
330
230
102
}
330
230
100
AcDbXrecord
 40
0.0
  0
XRECORD
  5
240
102
{ACAD_REACTORS
330
230
102
}
330
230
100
AcDbXrecord
340
0
  0
XRECORD
  5
246
102
{ACAD_REACTORS
330
230
102
}
330
230
100
AcDbXrecord
 10
0.0
 20
0.0
 30
0.0
  0
XRECORD
  5
242
102
{ACAD_REACTORS
330
230
102
}
330
230
100
AcDbXrecord
 10
0.0
 20
0.0
 30
0.0
  0
XRECORD
  5
245
102
{ACAD_REACTORS
330
230
102
}
330
230
100
AcDbXrecord
 10
0.0
 20
0.0
 30
0.0
  0
XRECORD
  5
243
102
{ACAD_REACTORS
330
230
102
}
330
230
100
AcDbXrecord
 10
0.0
 20
0.0
 30
0.0
  0
XRECORD
  5
244
102
{ACAD_REACTORS
330
230
102
}
330
230
100
AcDbXrecord
 10
0.0
 20
0.0
 30
0.0
  0
XRECORD
  5
241
102
{ACAD_REACTORS
330
230
102
}
330
230
100
AcDbXrecord
 10
0.0
 20
0.0
 30
0.0
  0
XRECORD
  5
23E
102
{ACAD_REACTORS
330
230
102
}
330
230
100
AcDbXrecord
340
0
  0
XRECORD
  5
23F
102
{ACAD_REACTORS
330
230
102
}
330
230
100
AcDbXrecord
 70
     0
  0
XRECORD
  5
234
102
{ACAD_REACTORS
330
230
102
}
330
230
100
AcDbXrecord
  1

  0
XRECORD
  5
231
102
{ACAD_REACTORS
330
230
102
}
330
230
100
AcDbXrecord
 90
        1
  0
XRECORD
  5
232
102
{ACAD_REACTORS
330
230
102
}
330
230
100
AcDbXrecord
 90
       70
  0
XRECORD
  5
249
102
{ACAD_REACTORS
330
230
102
}
330
230
100
AcDbXrecord
340
0
  0
XRECORD
  5
24F
102
{ACAD_REACTORS
330
230
102
}
330
230
100
AcDbXrecord
 10
0.0
 20
0.0
 30
0.0
  0
XRECORD
  5
24B
102
{ACAD_REACTORS
330
230
102
}
330
230
100
AcDbXrecord
 10
0.0
 20
0.0
 30
0.0
  0
XRECORD
  5
24E
102
{ACAD_REACTORS
330
230
102
}
330
230
100
AcDbXrecord
 10
0.0
 20
0.0
 30
0.0
  0
XRECORD
  5
24C
102
{ACAD_REACTORS
330
230
102
}
330
230
100
AcDbXrecord
 10
0.0
 20
0.0
 30
0.0
  0
XRECORD
  5
24D
102
{ACAD_REACTORS
330
230
102
}
330
230
100
AcDbXrecord
 10
0.0
 20
0.0
 30
0.0
  0
XRECORD
  5
24A
102
{ACAD_REACTORS
330
230
102
}
330
230
100
AcDbXrecord
 10
0.0
 20
0.0
 30
0.0
  0
XRECORD
  5
247
102
{ACAD_REACTORS
330
230
102
}
330
230
100
AcDbXrecord
340
0
  0
XRECORD
  5
248
102
{ACAD_REACTORS
330
230
102
}
330
230
100
AcDbXrecord
 70
     0
  0
XRECORD
  5
23C
102
{ACAD_REACTORS
330
230
102
}
330
230
100
AcDbXrecord
  1
{FAEB1C32-E019-11D5-929B-00C0DF256EC4}
  0
DICTIONARYVAR
  5
25A
102
{ACAD_REACTORS
330
251
102
}
330
251
100
DictionaryVariables
280
     0
  1
1:1
  0
DICTIONARYVAR
  5
253
102
{ACAD_REACTORS
330
251
102
}
330
251
100
DictionaryVariables
280
     0
  1
Standard
  0
DICTIONARYVAR
  5
252
102
{ACAD_REACTORS
330
251
102
}
330
251
100
DictionaryVariables
280
     0
  1
Standard
  0
DICTIONARYVAR
  5
256
102
{ACAD_REACTORS
330
251
102
}
330
251
100
DictionaryVariables
280
     0
  1
2
  0
DICTIONARYVAR
  5
257
102
{ACAD_REACTORS
330
251
102
}
330
251
100
DictionaryVariables
280
     0
  1
1
  0
DICTIONARYVAR
  5
25B
102
{ACAD_REACTORS
330
251
102
}
330
251
100
DictionaryVariables
280
     0
  1
1
  0
DICTIONARY
  5
25E
330
45
100
AcDbDictionary
280
     1
  3
ACAD_XREC_ROUNDTRIP
360
25F
  0
DICTIONARY
  5
25C
330
44
100
AcDbDictionary
280
     1
  3
ACAD_XREC_ROUNDTRIP
360
25D
  0
DICTIONARY
  5
260
330
46
100
AcDbDictionary
280
     1
  3
ACAD_XREC_ROUNDTRIP
360
261
  0
XRECORD
  5
25F
102
{ACAD_REACTORS
330
25E
102
}
330
25E
100
AcDbXrecord
102
MATERIAL
148
0.0
149
0.0
149
0.0
 93
        0
 94
      127
282
     0
 72
     1
 77
     1
171
     1
175
     1
179
     1
273
     0
  0
XRECORD
  5
25D
102
{ACAD_REACTORS
330
25C
102
}
330
25C
100
AcDbXrecord
102
MATERIAL
148
0.0
149
0.0
149
0.0
 93
        0
 94
      127
282
     0
 72
     1
 77
     1
171
     1
175
     1
179
     1
273
     0
  0
XRECORD
  5
261
102
{ACAD_REACTORS
330
260
102
}
330
260
100
AcDbXrecord
102
MATERIAL
148
0.0
149
0.0
149
0.0
 93
        0
 94
      127
282
     0
 72
     1
 77
     1
171
     1
175
     1
179
     1
273
     0
  0
ENDSEC
  0
EOF
