  0
SECTION
  2
HEADER
  9
$ACADVER
  1
AC1004
  9
$INSBASE
 10
0.0
 20
0.0
  9
$EXTMIN
 10
1343.6436571555
 20
367.6985101818182
  9
$EXTMAX
 10
1508.2484768567
 20
407.5125217015
  9
$LIMMIN
 10
0.0
 20
0.0
  9
$LIMMAX
 10
12.0
 20
9.0
  9
$ORTHOMODE
 70
     0
  9
$REGENMODE
 70
     1
  9
$FILLMODE
 70
     1
  9
$QTEXTMODE
 70
     0
  9
$DRAGMODE
 70
     2
  9
$LTSCALE
 40
1.0
  9
$OSMODE
 70
    37
  9
$ATTMODE
 70
     1
  9
$TEXTSIZE
 40
0.2
  9
$TRACEWID
 40
0.05
  9
$TEXTSTYLE
  7
STANDARD
  9
$CLAYER
  8
0
  9
$CELTYPE
  6
BYLAYER
  9
$CECOLOR
 62
   256
  9
$DIMSCALE
 40
1.0
  9
$DIMASZ
 40
2.0
  9
$DIMEXO
 40
0.0625
  9
$DIMDLI
 40
0.38
  9
$DIMRND
 40
0.0
  9
$DIMDLE
 40
0.0
  9
$DIMEXE
 40
1.0
  9
$DIMTP
 40
0.0
  9
$DIMTM
 40
0.0
  9
$DIMTXT
 40
3.2
  9
$DIMCEN
 40
0.09
  9
$DIMTSZ
 40
0.0
  9
$DIMTOL
 70
     0
  9
$DIMLIM
 70
     0
  9
$DIMTIH
 70
     1
  9
$DIMTOH
 70
     1
  9
$DIMSE1
 70
     0
  9
$DIMSE2
 70
     0
  9
$DIMTAD
 70
     1
  9
$DIMZIN
 70
     0
  9
$DIMBLK
  1

  9
$DIMASO
 70
     1
  9
$DIMSHO
 70
     1
  9
$DIMPOST
  1

  9
$DIMAPOST
  1

  9
$DIMALT
 70
     0
  9
$DIMALTD
 70
     2
  9
$DIMALTF
 40
25.4
  9
$DIMLFAC
 40
1.0
  9
$DIMTOFL
 70
     0
  9
$DIMTVP
 40
0.0
  9
$DIMTIX
 70
     0
  9
$DIMSOXD
 70
     0
  9
$DIMSAH
 70
     0
  9
$DIMBLK1
  1

  9
$DIMBLK2
  1

  9
$LUNITS
 70
     2
  9
$LUPREC
 70
     4
  9
$SKETCHINC
 40
0.1
  9
$FILLETRAD
 40
0.5
  9
$AUNITS
 70
     0
  9
$AUPREC
 70
     0
  9
$MENU
  1
.
  9
$ELEVATION
 40
0.0
  9
$THICKNESS
 40
0.0
  9
$LIMCHECK
 70
     0
  9
$CHAMFERA
 40
0.0
  9
$CHAMFERB
 40
0.0
  9
$SKPOLY
 70
     0
  9
$TDCREATE
 40
2459311.471164236
  9
$TDUPDATE
 40
2459311.471164421
  9
$TDINDWG
 40
0.0000000116
  9
$TDUSRTIMER
 40
0.0000000116
  9
$USRTIMER
 70
     1
  9
$ANGBASE
 50
0.0
  9
$ANGDIR
 70
     0
  9
$PDMODE
 70
     0
  9
$PDSIZE
 40
0.0
  9
$PLINEWID
 40
0.0
  9
$COORDS
 70
     1
  9
$SPLFRAME
 70
     0
  9
$SPLINETYPE
 70
     6
  9
$SPLINESEGS
 70
     8
  9
$ATTDIA
 70
     0
  9
$ATTREQ
 70
     1
  9
$SURFTAB1
 70
     6
  9
$SURFTAB2
 70
     6
  9
$SURFTYPE
 70
     6
  9
$SURFU
 70
     6
  9
$SURFV
 70
     6
  9
$UCSNAME
  2

  9
$UCSORG
 10
0.0
 20
0.0
 30
0.0
  9
$UCSXDIR
 10
1.0
 20
0.0
 30
0.0
  9
$UCSYDIR
 10
0.0
 20
1.0
 30
0.0
  9
$USERI1
 70
     0
  9
$USERI2
 70
     0
  9
$USERI3
 70
     0
  9
$USERI4
 70
     0
  9
$USERI5
 70
     0
  9
$USERR1
 40
0.0
  9
$USERR2
 40
0.0
  9
$USERR3
 40
0.0
  9
$USERR4
 40
0.0
  9
$USERR5
 40
0.0
  9
$WORLDVIEW
 70
     1
  0
ENDSEC
  0
SECTION
  2
TABLES
  0
TABLE
  2
LTYPE
 70
     2
  0
LTYPE
  2
CONTINUOUS
 70
     0
  3
Solid line
 72
    65
 73
     0
 40
0.0
  0
LTYPE
  2
CENTER
 70
     0
  3

 72
    65
 73
     0
 40
0.0
  0
ENDTAB
  0
TABLE
  2
LAYER
 70
     2
  0
LAYER
  2
0
 70
     0
 62
     7
  6
CONTINUOUS
  0
LAYER
  2
1
 70
     0
 62
     7
  6
CONTINUOUS
  0
ENDTAB
  0
TABLE
  2
STYLE
 70
     2
  0
STYLE
  2
STANDARD
 70
     0
 40
0.0
 41
1.0
 50
0.0
 71
     0
 42
0.2
  3
txt
  4

  0
STYLE
  2
ＭＳ_ゴシック
 70
     0
 40
0.0
 41
1.0
 50
0.0
 71
     0
 42
0.2
  3
ＭＳ ゴシック.shx
  4

  0
ENDTAB
  0
TABLE
  2
VIEW
 70
     0
  0
ENDTAB
  0
ENDSEC
  0
SECTION
  2
BLOCKS
  0
ENDSEC
  0
SECTION
  2
ENTITIES
  0
LINE
  8
1
  6
CONTINUOUS
 62
     7
 10
1439.1099593307
 20
390.7538568122
 11
1438.7832144009
 21
389.6387974666
  0
LINE
  8
1
  6
CONTINUOUS
 62
     7
 10
1438.1351415689
 20
386.709641435
 11
1438.1185242613
 21
386.1755652035
  0
LINE
  8
1
  6
CONTINUOUS
 62
     7
 10
1438.7832144009
 20
389.6387974666
 11
1438.4913747759
 21
388.5679963068
  0
LINE
  8
1
  6
CONTINUOUS
 62
     7
 10
1438.2651229879
 20
387.5790715555
 11
1438.1351415689
 21
386.709641435
  0
LINE
  8
1
  6
CONTINUOUS
 62
     7
 10
1438.4918384569
 20
384.9487233659
 11
1439.2644379441
 21
384.0990592907
  0
LINE
  8
1
  6
CONTINUOUS
 62
     7
 10
1440.7466684414
 20
382.5791573781
 11
1440.2712958033
 21
381.6521740934
  0
LINE
  8
1
  6
CONTINUOUS
 62
     7
 10
1440.2272680613
 20
400.3518047563
 11
1440.1933749298
 21
399.5494431204
  0
LINE
  8
1
  6
CONTINUOUS
 62
     7
 10
1440.1933749298
 20
399.5494431204
 11
1440.5834468574
 21
398.8475602818
  0
LINE
  8
1
  6
CONTINUOUS
 62
     7
 10
1442.0647187669
 20
397.4974555846
 11
1442.6541038655
 21
396.5417174715
  0
LINE
  8
1
  6
CONTINUOUS
 62
     7
 10
1439.4409270332
 20
391.8755561211
 11
1439.1099593307
 21
390.7538568122
  0
LINE
  8
1
  6
CONTINUOUS
 62
     7
 10
1440.101629102
 20
383.4623858398
 11
1440.6687183095
 21
382.8745158753
  0
LINE
  8
1
  6
CONTINUOUS
 62
     7
 10
1439.2644379441
 20
384.0990592907
 11
1440.101629102
 21
383.4623858398
  0
LINE
  8
1
  6
CONTINUOUS
 62
     7
 10
1438.3947286827
 20
380.1593904241
 11
1438.2177130679
 21
380.0502020047
  0
LINE
  8
1
  6
CONTINUOUS
 62
     7
 10
1439.7454349765
 20
392.9662771707
 11
1439.4409270332
 21
391.8755561211
  0
LINE
  8
1
  6
CONTINUOUS
 62
     7
 10
1440.5834468574
 20
398.8475602818
 11
1441.2908639504
 21
398.2148171456
  0
LINE
  8
1
  6
CONTINUOUS
 62
     7
 10
1441.2908639504
 20
398.2148171456
 11
1442.0647187669
 21
397.4974555846
  0
LINE
  8
1
  6
CONTINUOUS
 62
     7
 10
1438.4913747759
 20
388.5679963068
 11
1438.2651229879
 21
387.5790715555
  0
LINE
  8
1
  6
CONTINUOUS
 62
     7
 10
1438.1185242613
 20
386.1755652035
 11
1438.4918384569
 21
384.9487233659
  0
LINE
  8
1
  6
CONTINUOUS
 62
     7
 10
1440.6687183095
 20
382.8745158753
 11
1440.7466684414
 21
382.5791573781
  0
LINE
  8
1
  6
CONTINUOUS
 62
     7
 10
1440.2712958033
 20
381.6521740934
 11
1439.2640253467
 21
380.758357436
  0
LINE
  8
1
  6
CONTINUOUS
 62
     7
 10
1439.2640253467
 20
380.758357436
 11
1438.3947286827
 21
380.1593904241
  0
LINE
  8
1
  6
CONTINUOUS
 62
     7
 10
1441.1796788216
 20
402.6211384245
 11
1440.6519573634
 21
401.5924310113
  0
LINE
  8
1
  6
CONTINUOUS
 62
     7
 10
1441.4382853309
 20
403.0502020047
 11
1441.1796788216
 21
402.6211384245
  0
LINE
  8
1
  6
CONTINUOUS
 62
     7
 10
1440.6519573634
 20
401.5924310113
 11
1440.2272680613
 21
400.3518047563
  0
LINE
  8
1
  6
CONTINUOUS
 62
     7
 10
1438.8101411508
 20
403.0502020047
 11
1388.887900252
 21
403.0502020047
  0
LINE
  8
1
  6
CONTINUOUS
 62
     7
 10
1503.4012534054
 20
403.0502020047
 11
1503.4012534054
 21
380.0502020047
  0
LINE
  8
1
  6
CENTER
 62
     7
 10
1360.2302019856
 20
407.5125217015
 11
1360.2302019856
 21
374.3394320412
  0
LINE
  8
1
  6
CONTINUOUS
 62
     7
 10
1438.5515346414
 20
402.6211384245
 11
1438.0238131833
 21
401.5924310113
  0
LINE
  8
1
  6
CONTINUOUS
 62
     7
 10
1437.5652307497
 20
399.5494431204
 11
1437.9553026773
 21
398.8475602818
  0
LINE
  8
1
  6
CONTINUOUS
 62
     7
 10
1438.8101411508
 20
403.0502020047
 11
1438.5515346414
 21
402.6211384245
  0
LINE
  8
1
  6
CONTINUOUS
 62
     7
 10
1437.9553026773
 20
398.8475602818
 11
1438.6627197703
 21
398.2148171456
  0
LINE
  8
1
  6
CONTINUOUS
 62
     7
 10
1438.6627197703
 20
398.2148171456
 11
1439.4365745868
 21
397.4974555846
  0
LINE
  8
1
  6
CONTINUOUS
 62
     7
 10
1440.1523414569
 20
394.9043116023
 11
1439.9928006284
 21
393.9884017387
  0
LINE
  8
1
  6
CENTER
 62
     7
 10
1508.2484768567
 20
391.5502020047
 11
1386.4090426106
 21
391.5502020047
  0
LINE
  8
1
  6
CONTINUOUS
 62
     7
 10
1503.4012534054
 20
403.0502020047
 11
1441.4382853309
 21
403.0502020047
  0
LINE
  8
1
  6
CONTINUOUS
 62
     7
 10
1438.0238131833
 20
401.5924310113
 11
1437.5991238812
 21
400.3518047563
  0
LINE
  8
1
  6
CONTINUOUS
 62
     7
 10
1388.887900252
 20
403.0502020047
 11
1388.887900252
 21
380.0502020047
  0
LINE
  8
1
  6
CONTINUOUS
 62
     7
 10
1437.5991238812
 20
400.3518047563
 11
1437.5652307497
 21
399.5494431204
  0
LINE
  8
1
  6
CONTINUOUS
 62
     7
 10
1440.0259596854
 20
396.5417174715
 11
1440.1933749298
 21
395.6763885392
  0
LINE
  8
1
  6
CONTINUOUS
 62
     7
 10
1438.2177130679
 20
380.0502020047
 11
1388.887900252
 21
380.0502020047
  0
LINE
  8
1
  6
CENTER
 62
     7
 10
1343.6436571555
 20
391.5502020047
 11
1375.7416929842
 21
391.5502020047
  0
LINE
  8
1
  6
CONTINUOUS
 62
     7
 10
1440.1933749298
 20
395.6763885392
 11
1440.1523414569
 21
394.9043116023
  0
LINE
  8
1
  6
CONTINUOUS
 62
     7
 10
1439.9928006284
 20
393.9884017387
 11
1439.7454349765
 21
392.9662771707
  0
LINE
  8
1
  6
CONTINUOUS
 62
     7
 10
1503.4012534054
 20
380.0502020047
 11
1440.845857248
 21
380.0502020047
  0
LINE
  8
1
  6
CONTINUOUS
 62
     7
 10
1439.4365745868
 20
397.4974555846
 11
1440.0259596854
 21
396.5417174715
  0
LINE
  8
1
  6
CONTINUOUS
 62
     7
 10
1441.8921695269
 20
380.758357436
 11
1441.0228728628
 21
380.1593904241
  0
LINE
  8
1
  6
CONTINUOUS
 62
     7
 10
1442.0690712133
 20
391.8755561211
 11
1441.7381035108
 21
390.7538568122
  0
LINE
  8
1
  6
CONTINUOUS
 62
     7
 10
1442.8215191099
 20
395.6763885392
 11
1442.780485637
 21
394.9043116023
  0
LINE
  8
1
  6
CONTINUOUS
 62
     7
 10
1441.119982637
 20
384.9487233659
 11
1441.8925821242
 21
384.0990592907
  0
LINE
  8
1
  6
CONTINUOUS
 62
     7
 10
1441.8925821242
 20
384.0990592907
 11
1442.7297732821
 21
383.4623858398
  0
LINE
  8
1
  6
CONTINUOUS
 62
     7
 10
1443.2968624896
 20
382.8745158753
 11
1443.3748126215
 21
382.5791573781
  0
LINE
  8
1
  6
CONTINUOUS
 62
     7
 10
1442.6209448085
 20
393.9884017387
 11
1442.3735791566
 21
392.9662771707
  0
LINE
  8
1
  6
CONTINUOUS
 62
     7
 10
1441.411358581
 20
389.6387974666
 11
1441.119518956
 21
388.5679963068
  0
LINE
  8
1
  6
CONTINUOUS
 62
     7
 10
1441.119518956
 20
388.5679963068
 11
1440.893267168
 21
387.5790715555
  0
LINE
  8
1
  6
CONTINUOUS
 62
     7
 10
1442.8994399834
 20
381.6521740934
 11
1441.8921695269
 21
380.758357436
  0
CIRCLE
  8
1
  6
CONTINUOUS
 62
     7
 10
1360.2302019856
 20
391.5502020047
 40
11.5
  0
LINE
  8
1
  6
CONTINUOUS
 62
     7
 10
1440.893267168
 20
387.5790715555
 11
1440.763285749
 21
386.709641435
  0
LINE
  8
1
  6
CONTINUOUS
 62
     7
 10
1440.763285749
 20
386.709641435
 11
1440.7466684414
 21
386.1755652035
  0
LINE
  8
1
  6
CONTINUOUS
 62
     7
 10
1442.780485637
 20
394.9043116023
 11
1442.6209448085
 21
393.9884017387
  0
LINE
  8
1
  6
CONTINUOUS
 62
     7
 10
1441.7381035108
 20
390.7538568122
 11
1441.411358581
 21
389.6387974666
  0
LINE
  8
1
  6
CONTINUOUS
 62
     7
 10
1442.3735791566
 20
392.9662771707
 11
1442.0690712133
 21
391.8755561211
  0
LINE
  8
1
  6
CONTINUOUS
 62
     7
 10
1442.7297732821
 20
383.4623858398
 11
1443.2968624896
 21
382.8745158753
  0
LINE
  8
1
  6
CONTINUOUS
 62
     7
 10
1443.3748126215
 20
382.5791573781
 11
1442.8994399834
 21
381.6521740934
  0
LINE
  8
1
  6
CONTINUOUS
 62
     7
 10
1442.6541038655
 20
396.5417174715
 11
1442.8215191099
 21
395.6763885392
  0
LINE
  8
1
  6
CONTINUOUS
 62
     7
 10
1441.0228728628
 20
380.1593904241
 11
1440.845857248
 21
380.0502020047
  0
CIRCLE
  8
1
  6
CONTINUOUS
 62
     7
 10
1360.2302019856
 20
391.5502020047
 40
8.15
  0
LINE
  8
1
  6
CONTINUOUS
 62
     7
 10
1440.7466684414
 20
386.1755652035
 11
1441.119982637
 21
384.9487233659
  0
CIRCLE
  8
1
  6
CONTINUOUS
 62
     7
 10
1360.2302019856
 20
391.5502020047
 40
10.5
  0
TEXT
  8
1
  6
CONTINUOUS
 62
     7
 10
1490.121958082812
 20
367.2994699167187
 40
3.5
  1
MFPA-16M5
 41
0.89167
  0
ENDSEC
  0
EOF
