  0
SECTION
  2
HEADER
  9
$ACADVER
  1
AC1004
  9
$INSBASE
 10
0.0
 20
0.0
  9
$EXTMIN
 10
1343.6436571555
 20
367.6985101818182
  9
$EXTMAX
 10
1508.2484768567
 20
407.5125217015
  9
$LIMMIN
 10
0.0
 20
0.0
  9
$LIMMAX
 10
12.0
 20
9.0
  9
$ORTHOMODE
 70
     0
  9
$REGENMODE
 70
     1
  9
$FILLMODE
 70
     1
  9
$QTEXTMODE
 70
     0
  9
$DRAGMODE
 70
     2
  9
$LTSCALE
 40
1.0
  9
$OSMODE
 70
    37
  9
$ATTMODE
 70
     1
  9
$TEXTSIZE
 40
0.2
  9
$TRACEWID
 40
0.05
  9
$TEXTSTYLE
  7
STANDARD
  9
$CLAYER
  8
0
  9
$CELTYPE
  6
BYLAYER
  9
$CECOLOR
 62
   256
  9
$DIMSCALE
 40
1.0
  9
$DIMASZ
 40
2.0
  9
$DIMEXO
 40
0.0625
  9
$DIMDLI
 40
0.38
  9
$DIMRND
 40
0.0
  9
$DIMDLE
 40
0.0
  9
$DIMEXE
 40
1.0
  9
$DIMTP
 40
0.0
  9
$DIMTM
 40
0.0
  9
$DIMTXT
 40
3.2
  9
$DIMCEN
 40
0.09
  9
$DIMTSZ
 40
0.0
  9
$DIMTOL
 70
     0
  9
$DIMLIM
 70
     0
  9
$DIMTIH
 70
     1
  9
$DIMTOH
 70
     1
  9
$DIMSE1
 70
     0
  9
$DIMSE2
 70
     0
  9
$DIMTAD
 70
     1
  9
$DIMZIN
 70
     0
  9
$DIMBLK
  1

  9
$DIMASO
 70
     1
  9
$DIMSHO
 70
     1
  9
$DIMPOST
  1

  9
$DIMAPOST
  1

  9
$DIMALT
 70
     0
  9
$DIMALTD
 70
     2
  9
$DIMALTF
 40
25.4
  9
$DIMLFAC
 40
1.0
  9
$DIMTOFL
 70
     0
  9
$DIMTVP
 40
0.0
  9
$DIMTIX
 70
     0
  9
$DIMSOXD
 70
     0
  9
$DIMSAH
 70
     0
  9
$DIMBLK1
  1

  9
$DIMBLK2
  1

  9
$LUNITS
 70
     2
  9
$LUPREC
 70
     4
  9
$SKETCHINC
 40
0.1
  9
$FILLETRAD
 40
0.5
  9
$AUNITS
 70
     0
  9
$AUPREC
 70
     0
  9
$MENU
  1
.
  9
$ELEVATION
 40
0.0
  9
$THICKNESS
 40
0.0
  9
$LIMCHECK
 70
     0
  9
$CHAMFERA
 40
0.0
  9
$CHAMFERB
 40
0.0
  9
$SKPOLY
 70
     0
  9
$TDCREATE
 40
2459311.471959294
  9
$TDUPDATE
 40
2459311.471959479
  9
$TDINDWG
 40
0.0000000116
  9
$TDUSRTIMER
 40
0.0000000116
  9
$USRTIMER
 70
     1
  9
$ANGBASE
 50
0.0
  9
$ANGDIR
 70
     0
  9
$PDMODE
 70
     0
  9
$PDSIZE
 40
0.0
  9
$PLINEWID
 40
0.0
  9
$COORDS
 70
     1
  9
$SPLFRAME
 70
     0
  9
$SPLINETYPE
 70
     6
  9
$SPLINESEGS
 70
     8
  9
$ATTDIA
 70
     0
  9
$ATTREQ
 70
     1
  9
$SURFTAB1
 70
     6
  9
$SURFTAB2
 70
     6
  9
$SURFTYPE
 70
     6
  9
$SURFU
 70
     6
  9
$SURFV
 70
     6
  9
$UCSNAME
  2

  9
$UCSORG
 10
0.0
 20
0.0
 30
0.0
  9
$UCSXDIR
 10
1.0
 20
0.0
 30
0.0
  9
$UCSYDIR
 10
0.0
 20
1.0
 30
0.0
  9
$USERI1
 70
     0
  9
$USERI2
 70
     0
  9
$USERI3
 70
     0
  9
$USERI4
 70
     0
  9
$USERI5
 70
     0
  9
$USERR1
 40
0.0
  9
$USERR2
 40
0.0
  9
$USERR3
 40
0.0
  9
$USERR4
 40
0.0
  9
$USERR5
 40
0.0
  9
$WORLDVIEW
 70
     1
  0
ENDSEC
  0
SECTION
  2
TABLES
  0
TABLE
  2
LTYPE
 70
     2
  0
LTYPE
  2
CONTINUOUS
 70
     0
  3
Solid line
 72
    65
 73
     0
 40
0.0
  0
LTYPE
  2
CENTER
 70
     0
  3

 72
    65
 73
     0
 40
0.0
  0
ENDTAB
  0
TABLE
  2
LAYER
 70
     2
  0
LAYER
  2
0
 70
     0
 62
     7
  6
CONTINUOUS
  0
LAYER
  2
1
 70
     0
 62
     7
  6
CONTINUOUS
  0
ENDTAB
  0
TABLE
  2
STYLE
 70
     2
  0
STYLE
  2
STANDARD
 70
     0
 40
0.0
 41
1.0
 50
0.0
 71
     0
 42
0.2
  3
txt
  4

  0
STYLE
  2
ＭＳ_ゴシック
 70
     0
 40
0.0
 41
1.0
 50
0.0
 71
     0
 42
0.2
  3
ＭＳ ゴシック.shx
  4

  0
ENDTAB
  0
TABLE
  2
VIEW
 70
     0
  0
ENDTAB
  0
ENDSEC
  0
SECTION
  2
BLOCKS
  0
ENDSEC
  0
SECTION
  2
ENTITIES
  0
LINE
  8
1
  6
CONTINUOUS
 62
     7
 10
1439.2779642425
 20
389.4832868419
 11
1439.6313621863
 21
388.5474407126
  0
LINE
  8
1
  6
CONTINUOUS
 62
     7
 10
1438.2268437056
 20
392.4541411966
 11
1438.5039961112
 21
391.4457914104
  0
LINE
  8
1
  6
CONTINUOUS
 62
     7
 10
1439.8532438364
 20
386.1690045333
 11
1439.5956845078
 21
385.1818568376
  0
LINE
  8
1
  6
CONTINUOUS
 62
     7
 10
1439.0975436414
 20
378.40870427
 11
1439.0867879066
 21
377.9761318906
  0
LINE
  8
1
  6
CONTINUOUS
 62
     7
 10
1438.234982441
 20
394.5438904851
 11
1438.1206071722
 21
393.6030796534
  0
LINE
  8
1
  6
CONTINUOUS
 62
     7
 10
1438.1206071722
 20
393.6030796534
 11
1438.1185242613
 21
393.4683502154
  0
LINE
  8
1
  6
CONTINUOUS
 62
     7
 10
1438.4858367812
 20
395.5103567018
 11
1438.234982441
 21
394.5438904851
  0
LINE
  8
1
  6
CONTINUOUS
 62
     7
 10
1438.8101411508
 20
382.5408033613
 11
1438.799712591
 21
381.4794386819
  0
LINE
  8
1
  6
CONTINUOUS
 62
     7
 10
1438.799712591
 20
381.4794386819
 11
1438.8970244561
 21
380.3794482203
  0
LINE
  8
1
  6
CONTINUOUS
 62
     7
 10
1438.5788754055
 20
376.6980187268
 11
1438.2177130679
 21
376.3002020047
  0
LINE
  8
1
  6
CONTINUOUS
 62
     7
 10
1439.5956845078
 20
385.1818568376
 11
1439.25811509
 21
384.2455599933
  0
LINE
  8
1
  6
CONTINUOUS
 62
     7
 10
1438.8782725872
 20
390.4524551833
 11
1439.2779642425
 21
389.4832868419
  0
LINE
  8
1
  6
CONTINUOUS
 62
     7
 10
1438.1185242613
 20
393.4683502154
 11
1438.2268437056
 21
392.4541411966
  0
LINE
  8
1
  6
CONTINUOUS
 62
     7
 10
1438.5039961112
 20
391.4457914104
 11
1438.8782725872
 21
390.4524551833
  0
LINE
  8
1
  6
CONTINUOUS
 62
     7
 10
1439.916728174
 20
387.2437982099
 11
1439.8532438364
 21
386.1690045333
  0
LINE
  8
1
  6
CONTINUOUS
 62
     7
 10
1439.25811509
 20
384.2455599933
 11
1438.9546004846
 21
383.3233188707
  0
LINE
  8
1
  6
CONTINUOUS
 62
     7
 10
1438.9546004846
 20
383.3233188707
 11
1438.8101411508
 21
382.5408033613
  0
LINE
  8
1
  6
CONTINUOUS
 62
     7
 10
1439.0227452913
 20
379.3271105564
 11
1439.0975436414
 21
378.40870427
  0
LINE
  8
1
  6
CONTINUOUS
 62
     7
 10
1439.8667575276
 20
387.654071122
 11
1439.916728174
 21
387.2437982099
  0
LINE
  8
1
  6
CONTINUOUS
 62
     7
 10
1439.6313621863
 20
388.5474407126
 11
1439.8667575276
 21
387.654071122
  0
LINE
  8
1
  6
CONTINUOUS
 62
     7
 10
1439.0867879066
 20
377.9761318906
 11
1438.5788754055
 21
376.6980187268
  0
LINE
  8
1
  6
CONTINUOUS
 62
     7
 10
1441.4382853309
 20
406.8002020047
 11
1441.5154935295
 21
406.5257188633
  0
LINE
  8
1
  6
CONTINUOUS
 62
     7
 10
1441.5154935295
 20
406.5257188633
 11
1441.7100243528
 21
405.7916406739
  0
LINE
  8
1
  6
CONTINUOUS
 62
     7
 10
1438.8970244561
 20
380.3794482203
 11
1439.0227452913
 21
379.3271105564
  0
LINE
  8
1
  6
CONTINUOUS
 62
     7
 10
1503.4012534054
 20
406.8002020047
 11
1441.4382853309
 21
406.8002020047
  0
LINE
  8
1
  6
CONTINUOUS
 62
     7
 10
1439.6003470585
 20
403.480926559
 11
1439.8130018035
 21
402.1724043376
  0
LINE
  8
1
  6
CONTINUOUS
 62
     7
 10
1438.8101411508
 20
406.8002020047
 11
1388.887900252
 21
406.8002020047
  0
LINE
  8
1
  6
CONTINUOUS
 62
     7
 10
1439.5228266933
 20
398.4656878188
 11
1439.1832036611
 21
397.4810553529
  0
LINE
  8
1
  6
CONTINUOUS
 62
     7
 10
1438.8197254391
 20
396.4926783191
 11
1438.4858367812
 21
395.5103567018
  0
LINE
  8
1
  6
CONTINUOUS
 62
     7
 10
1503.4012534054
 20
376.3002020047
 11
1440.845857248
 21
376.3002020047
  0
LINE
  8
1
  6
CONTINUOUS
 62
     7
 10
1438.8101411508
 20
406.8002020047
 11
1438.8873493494
 21
406.5257188633
  0
LINE
  8
1
  6
CONTINUOUS
 62
     7
 10
1439.0818801727
 20
405.7916406739
 11
1439.338092962
 21
404.7320242884
  0
LINE
  8
1
  6
CONTINUOUS
 62
     7
 10
1439.338092962
 20
404.7320242884
 11
1439.6003470585
 21
403.480926559
  0
LINE
  8
1
  6
CONTINUOUS
 62
     7
 10
1388.887900252
 20
406.8002020047
 11
1388.887900252
 21
376.3002020047
  0
LINE
  8
1
  6
CONTINUOUS
 62
     7
 10
1438.8873493494
 20
406.5257188633
 11
1439.0818801727
 21
405.7916406739
  0
LINE
  8
1
  6
CONTINUOUS
 62
     7
 10
1439.916728174
 20
400.3845191104
 11
1439.7851497822
 21
399.4367757328
  0
LINE
  8
1
  6
CONTINUOUS
 62
     7
 10
1439.1832036611
 20
397.4810553529
 11
1438.8197254391
 21
396.4926783191
  0
LINE
  8
1
  6
CONTINUOUS
 62
     7
 10
1439.9204165382
 20
400.9405144763
 11
1439.916728174
 21
400.3845191104
  0
LINE
  8
1
  6
CENTER
 62
     7
 10
1508.2484768567
 20
391.5502020047
 11
1386.4090426106
 21
391.5502020047
  0
LINE
  8
1
  6
CONTINUOUS
 62
     7
 10
1438.2177130679
 20
376.3002020047
 11
1388.887900252
 21
376.3002020047
  0
LINE
  8
1
  6
CONTINUOUS
 62
     7
 10
1439.7851497822
 20
399.4367757328
 11
1439.5228266933
 21
398.4656878188
  0
LINE
  8
1
  6
CONTINUOUS
 62
     7
 10
1503.4012534054
 20
406.8002020047
 11
1503.4012534054
 21
376.3002020047
  0
LINE
  8
1
  6
CENTER
 62
     7
 10
1360.2302019856
 20
407.5125217015
 11
1360.2302019856
 21
374.3394320412
  0
LINE
  8
1
  6
CENTER
 62
     7
 10
1343.6436571555
 20
391.5502020047
 11
1375.7416929842
 21
391.5502020047
  0
LINE
  8
1
  6
CONTINUOUS
 62
     7
 10
1439.8130018035
 20
402.1724043376
 11
1439.9204165382
 21
400.9405144763
  0
LINE
  8
1
  6
CONTINUOUS
 62
     7
 10
1441.5251686362
 20
380.3794482203
 11
1441.6508894714
 21
379.3271105564
  0
LINE
  8
1
  6
CONTINUOUS
 62
     7
 10
1441.6508894714
 20
379.3271105564
 11
1441.7256878215
 21
378.40870427
  0
LINE
  8
1
  6
CONTINUOUS
 62
     7
 10
1441.7256878215
 20
378.40870427
 11
1441.7149320867
 21
377.9761318906
  0
LINE
  8
1
  6
CONTINUOUS
 62
     7
 10
1441.2070195856
 20
376.6980187268
 11
1440.845857248
 21
376.3002020047
  0
CIRCLE
  8
1
  6
CONTINUOUS
 62
     7
 10
1360.2302019856
 20
391.5502020047
 40
11.65
  0
LINE
  8
1
  6
CONTINUOUS
 62
     7
 10
1441.5827446647
 20
383.3233188707
 11
1441.4382853309
 21
382.5408033613
  0
CIRCLE
  8
1
  6
CONTINUOUS
 62
     7
 10
1360.2302019856
 20
391.5502020047
 40
14.25
  0
LINE
  8
1
  6
CONTINUOUS
 62
     7
 10
1441.4278567711
 20
381.4794386819
 11
1441.5251686362
 21
380.3794482203
  0
LINE
  8
1
  6
CONTINUOUS
 62
     7
 10
1441.7149320867
 20
377.9761318906
 11
1441.2070195856
 21
376.6980187268
  0
CIRCLE
  8
1
  6
CONTINUOUS
 62
     7
 10
1360.2302019856
 20
391.5502020047
 40
15.25
  0
LINE
  8
1
  6
CONTINUOUS
 62
     7
 10
1441.4382853309
 20
382.5408033613
 11
1441.4278567711
 21
381.4794386819
  0
LINE
  8
1
  6
CONTINUOUS
 62
     7
 10
1441.8862592701
 20
384.2455599933
 11
1441.5827446647
 21
383.3233188707
  0
LINE
  8
1
  6
CONTINUOUS
 62
     7
 10
1442.4949017077
 20
387.654071122
 11
1442.5448723541
 21
387.2437982099
  0
LINE
  8
1
  6
CONTINUOUS
 62
     7
 10
1442.2595063664
 20
388.5474407126
 11
1442.4949017077
 21
387.654071122
  0
LINE
  8
1
  6
CONTINUOUS
 62
     7
 10
1442.4813880165
 20
386.1690045333
 11
1442.2238286879
 21
385.1818568376
  0
LINE
  8
1
  6
CONTINUOUS
 62
     7
 10
1440.8549878857
 20
392.4541411966
 11
1441.1321402913
 21
391.4457914104
  0
LINE
  8
1
  6
CONTINUOUS
 62
     7
 10
1441.8113478412
 20
397.4810553529
 11
1441.4478696193
 21
396.4926783191
  0
LINE
  8
1
  6
CONTINUOUS
 62
     7
 10
1442.2238286879
 20
385.1818568376
 11
1441.8862592701
 21
384.2455599933
  0
LINE
  8
1
  6
CONTINUOUS
 62
     7
 10
1442.5448723541
 20
400.3845191104
 11
1442.4132939623
 21
399.4367757328
  0
LINE
  8
1
  6
CONTINUOUS
 62
     7
 10
1441.1139809613
 20
395.5103567018
 11
1440.8631266211
 21
394.5438904851
  0
LINE
  8
1
  6
CONTINUOUS
 62
     7
 10
1442.5448723541
 20
387.2437982099
 11
1442.4813880165
 21
386.1690045333
  0
LINE
  8
1
  6
CONTINUOUS
 62
     7
 10
1441.1321402913
 20
391.4457914104
 11
1441.5064167673
 21
390.4524551833
  0
LINE
  8
1
  6
CONTINUOUS
 62
     7
 10
1441.9662371421
 20
404.7320242884
 11
1442.2284912386
 21
403.480926559
  0
LINE
  8
1
  6
CONTINUOUS
 62
     7
 10
1442.4411459836
 20
402.1724043376
 11
1442.5485607183
 21
400.9405144763
  0
LINE
  8
1
  6
CONTINUOUS
 62
     7
 10
1442.4132939623
 20
399.4367757328
 11
1442.1509708734
 21
398.4656878188
  0
LINE
  8
1
  6
CONTINUOUS
 62
     7
 10
1442.1509708734
 20
398.4656878188
 11
1441.8113478412
 21
397.4810553529
  0
LINE
  8
1
  6
CONTINUOUS
 62
     7
 10
1440.7487513523
 20
393.6030796534
 11
1440.7466684414
 21
393.4683502154
  0
LINE
  8
1
  6
CONTINUOUS
 62
     7
 10
1442.2284912386
 20
403.480926559
 11
1442.4411459836
 21
402.1724043376
  0
LINE
  8
1
  6
CONTINUOUS
 62
     7
 10
1440.8631266211
 20
394.5438904851
 11
1440.7487513523
 21
393.6030796534
  0
LINE
  8
1
  6
CONTINUOUS
 62
     7
 10
1440.7466684414
 20
393.4683502154
 11
1440.8549878857
 21
392.4541411966
  0
LINE
  8
1
  6
CONTINUOUS
 62
     7
 10
1441.5064167673
 20
390.4524551833
 11
1441.9061084226
 21
389.4832868419
  0
LINE
  8
1
  6
CONTINUOUS
 62
     7
 10
1441.7100243528
 20
405.7916406739
 11
1441.9662371421
 21
404.7320242884
  0
LINE
  8
1
  6
CONTINUOUS
 62
     7
 10
1441.4478696193
 20
396.4926783191
 11
1441.1139809613
 21
395.5103567018
  0
LINE
  8
1
  6
CONTINUOUS
 62
     7
 10
1442.5485607183
 20
400.9405144763
 11
1442.5448723541
 21
400.3845191104
  0
LINE
  8
1
  6
CONTINUOUS
 62
     7
 10
1441.9061084226
 20
389.4832868419
 11
1442.2595063664
 21
388.5474407126
  0
TEXT
  8
1
  6
CONTINUOUS
 62
     7
 10
1490.121958082812
 20
367.2994699167187
 40
3.5
  1
MFPA-22M5
 41
0.89167
  0
ENDSEC
  0
EOF
