  0
SECTION
  2
HEADER
  9
$ACADVER
  1
AC1004
  9
$INSBASE
 10
0.0
 20
0.0
  9
$EXTMIN
 10
1337.9723986616
 20
367.6985101818182
  9
$EXTMAX
 10
1508.2484768567
 20
413.1102698773
  9
$LIMMIN
 10
0.0
 20
0.0
  9
$LIMMAX
 10
12.0
 20
9.0
  9
$ORTHOMODE
 70
     0
  9
$REGENMODE
 70
     1
  9
$FILLMODE
 70
     1
  9
$QTEXTMODE
 70
     0
  9
$DRAGMODE
 70
     2
  9
$LTSCALE
 40
1.0
  9
$OSMODE
 70
    37
  9
$ATTMODE
 70
     1
  9
$TEXTSIZE
 40
0.2
  9
$TRACEWID
 40
0.05
  9
$TEXTSTYLE
  7
STANDARD
  9
$CLAYER
  8
0
  9
$CELTYPE
  6
BYLAYER
  9
$CECOLOR
 62
   256
  9
$DIMSCALE
 40
1.0
  9
$DIMASZ
 40
2.0
  9
$DIMEXO
 40
0.0625
  9
$DIMDLI
 40
0.38
  9
$DIMRND
 40
0.0
  9
$DIMDLE
 40
0.0
  9
$DIMEXE
 40
1.0
  9
$DIMTP
 40
0.0
  9
$DIMTM
 40
0.0
  9
$DIMTXT
 40
3.2
  9
$DIMCEN
 40
0.09
  9
$DIMTSZ
 40
0.0
  9
$DIMTOL
 70
     0
  9
$DIMLIM
 70
     0
  9
$DIMTIH
 70
     1
  9
$DIMTOH
 70
     1
  9
$DIMSE1
 70
     0
  9
$DIMSE2
 70
     0
  9
$DIMTAD
 70
     1
  9
$DIMZIN
 70
     0
  9
$DIMBLK
  1

  9
$DIMASO
 70
     1
  9
$DIMSHO
 70
     1
  9
$DIMPOST
  1

  9
$DIMAPOST
  1

  9
$DIMALT
 70
     0
  9
$DIMALTD
 70
     2
  9
$DIMALTF
 40
25.4
  9
$DIMLFAC
 40
1.0
  9
$DIMTOFL
 70
     0
  9
$DIMTVP
 40
0.0
  9
$DIMTIX
 70
     0
  9
$DIMSOXD
 70
     0
  9
$DIMSAH
 70
     0
  9
$DIMBLK1
  1

  9
$DIMBLK2
  1

  9
$LUNITS
 70
     2
  9
$LUPREC
 70
     4
  9
$SKETCHINC
 40
0.1
  9
$FILLETRAD
 40
0.5
  9
$AUNITS
 70
     0
  9
$AUPREC
 70
     0
  9
$MENU
  1
.
  9
$ELEVATION
 40
0.0
  9
$THICKNESS
 40
0.0
  9
$LIMCHECK
 70
     0
  9
$CHAMFERA
 40
0.0
  9
$CHAMFERB
 40
0.0
  9
$SKPOLY
 70
     0
  9
$TDCREATE
 40
2459311.472422975
  9
$TDUPDATE
 40
2459311.472423148
  9
$TDINDWG
 40
0.0000000116
  9
$TDUSRTIMER
 40
0.0000000116
  9
$USRTIMER
 70
     1
  9
$ANGBASE
 50
0.0
  9
$ANGDIR
 70
     0
  9
$PDMODE
 70
     0
  9
$PDSIZE
 40
0.0
  9
$PLINEWID
 40
0.0
  9
$COORDS
 70
     1
  9
$SPLFRAME
 70
     0
  9
$SPLINETYPE
 70
     6
  9
$SPLINESEGS
 70
     8
  9
$ATTDIA
 70
     0
  9
$ATTREQ
 70
     1
  9
$SURFTAB1
 70
     6
  9
$SURFTAB2
 70
     6
  9
$SURFTYPE
 70
     6
  9
$SURFU
 70
     6
  9
$SURFV
 70
     6
  9
$UCSNAME
  2

  9
$UCSORG
 10
0.0
 20
0.0
 30
0.0
  9
$UCSXDIR
 10
1.0
 20
0.0
 30
0.0
  9
$UCSYDIR
 10
0.0
 20
1.0
 30
0.0
  9
$USERI1
 70
     0
  9
$USERI2
 70
     0
  9
$USERI3
 70
     0
  9
$USERI4
 70
     0
  9
$USERI5
 70
     0
  9
$USERR1
 40
0.0
  9
$USERR2
 40
0.0
  9
$USERR3
 40
0.0
  9
$USERR4
 40
0.0
  9
$USERR5
 40
0.0
  9
$WORLDVIEW
 70
     1
  0
ENDSEC
  0
SECTION
  2
TABLES
  0
TABLE
  2
LTYPE
 70
     2
  0
LTYPE
  2
CONTINUOUS
 70
     0
  3
Solid line
 72
    65
 73
     0
 40
0.0
  0
LTYPE
  2
CENTER
 70
     0
  3

 72
    65
 73
     0
 40
0.0
  0
ENDTAB
  0
TABLE
  2
LAYER
 70
     2
  0
LAYER
  2
0
 70
     0
 62
     7
  6
CONTINUOUS
  0
LAYER
  2
1
 70
     0
 62
     7
  6
CONTINUOUS
  0
ENDTAB
  0
TABLE
  2
STYLE
 70
     2
  0
STYLE
  2
STANDARD
 70
     0
 40
0.0
 41
1.0
 50
0.0
 71
     0
 42
0.2
  3
txt
  4

  0
STYLE
  2
ＭＳ_ゴシック
 70
     0
 40
0.0
 41
1.0
 50
0.0
 71
     0
 42
0.2
  3
ＭＳ ゴシック.shx
  4

  0
ENDTAB
  0
TABLE
  2
VIEW
 70
     0
  0
ENDTAB
  0
ENDSEC
  0
SECTION
  2
BLOCKS
  0
ENDSEC
  0
SECTION
  2
ENTITIES
  0
LINE
  8
1
  6
CONTINUOUS
 62
     7
 10
1440.2467844903
 20
387.2373989078
 11
1440.1145842919
 21
386.2215082588
  0
LINE
  8
1
  6
CONTINUOUS
 62
     7
 10
1440.1145842919
 20
386.2215082588
 11
1439.7383063582
 21
385.3408295784
  0
LINE
  8
1
  6
CONTINUOUS
 62
     7
 10
1439.4787970857
 20
382.8260116854
 11
1439.7891798257
 21
381.8718548465
  0
LINE
  8
1
  6
CONTINUOUS
 62
     7
 10
1439.3988175033
 20
384.4156081056
 11
1439.3311920245
 21
383.6971080399
  0
LINE
  8
1
  6
CONTINUOUS
 62
     7
 10
1439.7891798257
 20
381.8718548465
 11
1440.1495813294
 21
380.866889006
  0
LINE
  8
1
  6
CONTINUOUS
 62
     7
 10
1440.1260967053
 20
395.6382488708
 11
1439.7071350293
 21
394.7050272957
  0
LINE
  8
1
  6
CONTINUOUS
 62
     7
 10
1440.5694049674
 20
378.8335362514
 11
1440.5519819789
 21
378.5087507336
  0
LINE
  8
1
  6
CONTINUOUS
 62
     7
 10
1439.4083924068
 20
399.129543504
 11
1439.8649296552
 21
398.2089396244
  0
LINE
  8
1
  6
CONTINUOUS
 62
     7
 10
1439.8649296552
 20
398.2089396244
 11
1440.2119617473
 21
397.2931609991
  0
LINE
  8
1
  6
CONTINUOUS
 62
     7
 10
1439.6478416349
 20
389.122561503
 11
1440.0334795891
 21
388.1673596976
  0
LINE
  8
1
  6
CONTINUOUS
 62
     7
 10
1440.307823988
 20
396.5764420591
 11
1440.1260967053
 21
395.6382488708
  0
LINE
  8
1
  6
CONTINUOUS
 62
     7
 10
1439.2146546526
 20
390.1141869523
 11
1439.6478416349
 21
389.122561503
  0
LINE
  8
1
  6
CONTINUOUS
 62
     7
 10
1440.2119617473
 20
397.2931609991
 11
1440.307823988
 21
396.5764420591
  0
LINE
  8
1
  6
CONTINUOUS
 62
     7
 10
1439.2211450258
 20
393.768433899
 11
1438.8383327608
 21
392.8201252462
  0
LINE
  8
1
  6
CONTINUOUS
 62
     7
 10
1438.8383327608
 20
392.8201252462
 11
1438.7207970473
 21
392.0595192277
  0
LINE
  8
1
  6
CONTINUOUS
 62
     7
 10
1439.7071350293
 20
394.7050272957
 11
1439.2211450258
 21
393.768433899
  0
LINE
  8
1
  6
CONTINUOUS
 62
     7
 10
1438.8627095032
 20
391.1054386568
 11
1439.2146546526
 21
390.1141869523
  0
LINE
  8
1
  6
CONTINUOUS
 62
     7
 10
1438.7207970473
 20
392.0595192277
 11
1438.8627095032
 21
391.1054386568
  0
LINE
  8
1
  6
CONTINUOUS
 62
     7
 10
1440.0334795891
 20
388.1673596976
 11
1440.2427776545
 21
387.285378925
  0
LINE
  8
1
  6
CONTINUOUS
 62
     7
 10
1440.2427776545
 20
387.285378925
 11
1440.2467844903
 21
387.2373989078
  0
LINE
  8
1
  6
CONTINUOUS
 62
     7
 10
1439.7383063582
 20
385.3408295784
 11
1439.3988175033
 21
384.4156081056
  0
LINE
  8
1
  6
CONTINUOUS
 62
     7
 10
1439.3311920245
 20
383.6971080399
 11
1439.4787970857
 21
382.8260116854
  0
LINE
  8
1
  6
CONTINUOUS
 62
     7
 10
1440.1495813294
 20
380.866889006
 11
1440.4472426817
 21
379.8433656467
  0
LINE
  8
1
  6
CONTINUOUS
 62
     7
 10
1440.4472426817
 20
379.8433656467
 11
1440.5694049674
 21
378.8335362514
  0
CIRCLE
  8
1
  6
CONTINUOUS
 62
     7
 10
1360.2302019856
 20
391.5502020047
 40
14.25
  0
LINE
  8
1
  6
CONTINUOUS
 62
     7
 10
1438.9137933663
 20
402.6353840548
 11
1438.7833054331
 21
401.6254123734
  0
LINE
  8
1
  6
CONTINUOUS
 62
     7
 10
1438.7833054331
 20
401.6254123734
 11
1438.781836545
 21
401.0933648904
  0
LINE
  8
1
  6
CONTINUOUS
 62
     7
 10
1438.781836545
 20
401.0933648904
 11
1438.996108528
 21
400.0820071039
  0
LINE
  8
1
  6
CONTINUOUS
 62
     7
 10
1438.996108528
 20
400.0820071039
 11
1439.4083924068
 21
399.129543504
  0
LINE
  8
1
  6
CONTINUOUS
 62
     7
 10
1438.8101411508
 20
409.8002020047
 11
1388.887900252
 21
409.8002020047
  0
LINE
  8
1
  6
CONTINUOUS
 62
     7
 10
1438.2177130679
 20
373.3002020047
 11
1388.887900252
 21
373.3002020047
  0
LINE
  8
1
  6
CONTINUOUS
 62
     7
 10
1503.4012534054
 20
409.8002020047
 11
1503.4012534054
 21
373.3002020047
  0
LINE
  8
1
  6
CENTER
 62
     7
 10
1360.2302019856
 20
413.1102698773
 11
1360.2302019856
 21
368.2934954376
  0
LINE
  8
1
  6
CONTINUOUS
 62
     7
 10
1388.887900252
 20
409.8002020047
 11
1388.887900252
 21
373.3002020047
  0
LINE
  8
1
  6
CONTINUOUS
 62
     7
 10
1438.8101411508
 20
409.8002020047
 11
1439.0026664367
 21
409.3804460599
  0
LINE
  8
1
  6
CONTINUOUS
 62
     7
 10
1439.0026664367
 20
409.3804460599
 11
1439.3870949198
 21
408.3450371456
  0
LINE
  8
1
  6
CENTER
 62
     7
 10
1337.9723986616
 20
391.5502020047
 11
1381.2676159443
 21
391.5502020047
  0
LINE
  8
1
  6
CONTINUOUS
 62
     7
 10
1503.4012534054
 20
409.8002020047
 11
1441.4382853309
 21
409.8002020047
  0
LINE
  8
1
  6
CONTINUOUS
 62
     7
 10
1503.4012534054
 20
373.3002020047
 11
1440.845857248
 21
373.3002020047
  0
LINE
  8
1
  6
CENTER
 62
     7
 10
1508.2484768567
 20
391.5502020047
 11
1386.4090426106
 21
391.5502020047
  0
LINE
  8
1
  6
CONTINUOUS
 62
     7
 10
1439.3870949198
 20
408.3450371456
 11
1439.6737055377
 21
407.0297636415
  0
LINE
  8
1
  6
CONTINUOUS
 62
     7
 10
1439.6737055377
 20
407.0297636415
 11
1439.6974290108
 21
406.5869196853
  0
LINE
  8
1
  6
CONTINUOUS
 62
     7
 10
1439.609690261
 20
405.7254104353
 11
1439.4006971543
 21
404.7419440825
  0
LINE
  8
1
  6
CONTINUOUS
 62
     7
 10
1439.4006971543
 20
404.7419440825
 11
1439.1441610647
 21
403.6930816234
  0
LINE
  8
1
  6
CONTINUOUS
 62
     7
 10
1439.1441610647
 20
403.6930816234
 11
1438.9137933663
 21
402.6353840548
  0
LINE
  8
1
  6
CONTINUOUS
 62
     7
 10
1439.6974290108
 20
406.5869196853
 11
1439.609690261
 21
405.7254104353
  0
LINE
  8
1
  6
CONTINUOUS
 62
     7
 10
1442.7777255095
 20
380.866889006
 11
1443.0753868618
 21
379.8433656467
  0
LINE
  8
1
  6
CONTINUOUS
 62
     7
 10
1443.1975491475
 20
378.8335362514
 11
1443.180126159
 21
378.5087507336
  0
LINE
  8
1
  6
CONTINUOUS
 62
     7
 10
1443.180126159
 20
378.5087507336
 11
1442.9239199662
 21
377.4655366273
  0
LINE
  8
1
  6
CONTINUOUS
 62
     7
 10
1441.8575573569
 20
375.0896833885
 11
1441.3127579717
 21
374.0938321723
  0
LINE
  8
1
  6
CONTINUOUS
 62
     7
 10
1442.4173240058
 20
381.8718548465
 11
1442.7777255095
 21
380.866889006
  0
LINE
  8
1
  6
CONTINUOUS
 62
     7
 10
1441.3127579717
 20
374.0938321723
 11
1440.937117887
 21
373.4505565024
  0
LINE
  8
1
  6
CONTINUOUS
 62
     7
 10
1440.937117887
 20
373.4505565024
 11
1440.845857248
 21
373.3002020047
  0
LINE
  8
1
  6
CONTINUOUS
 62
     7
 10
1443.0753868618
 20
379.8433656467
 11
1443.1975491475
 21
378.8335362514
  0
LINE
  8
1
  6
CONTINUOUS
 62
     7
 10
1442.438837527
 20
376.2697161929
 11
1441.8575573569
 21
375.0896833885
  0
LINE
  8
1
  6
CONTINUOUS
 62
     7
 10
1442.9239199662
 20
377.4655366273
 11
1442.438837527
 21
376.2697161929
  0
LINE
  8
1
  6
CONTINUOUS
 62
     7
 10
1442.3352792094
 20
394.7050272957
 11
1441.8492892059
 21
393.768433899
  0
LINE
  8
1
  6
CONTINUOUS
 62
     7
 10
1441.4908536833
 20
391.1054386568
 11
1441.8427988327
 21
390.1141869523
  0
LINE
  8
1
  6
CONTINUOUS
 62
     7
 10
1442.6616237692
 20
388.1673596976
 11
1442.8709218346
 21
387.285378925
  0
LINE
  8
1
  6
CONTINUOUS
 62
     7
 10
1442.8709218346
 20
387.285378925
 11
1442.8749286704
 21
387.2373989078
  0
LINE
  8
1
  6
CONTINUOUS
 62
     7
 10
1442.742728472
 20
386.2215082588
 11
1442.3664505383
 21
385.3408295784
  0
LINE
  8
1
  6
CONTINUOUS
 62
     7
 10
1441.3489412274
 20
392.0595192277
 11
1441.4908536833
 21
391.1054386568
  0
LINE
  8
1
  6
CONTINUOUS
 62
     7
 10
1442.0269616834
 20
384.4156081056
 11
1441.9593362046
 21
383.6971080399
  0
LINE
  8
1
  6
CONTINUOUS
 62
     7
 10
1441.8492892059
 20
393.768433899
 11
1441.4664769409
 21
392.8201252462
  0
LINE
  8
1
  6
CONTINUOUS
 62
     7
 10
1441.8427988327
 20
390.1141869523
 11
1442.275985815
 21
389.122561503
  0
LINE
  8
1
  6
CONTINUOUS
 62
     7
 10
1442.8749286704
 20
387.2373989078
 11
1442.742728472
 21
386.2215082588
  0
LINE
  8
1
  6
CONTINUOUS
 62
     7
 10
1441.9593362046
 20
383.6971080399
 11
1442.1069412658
 21
382.8260116854
  0
LINE
  8
1
  6
CONTINUOUS
 62
     7
 10
1442.1069412658
 20
382.8260116854
 11
1442.4173240058
 21
381.8718548465
  0
LINE
  8
1
  6
CONTINUOUS
 62
     7
 10
1442.3664505383
 20
385.3408295784
 11
1442.0269616834
 21
384.4156081056
  0
LINE
  8
1
  6
CONTINUOUS
 62
     7
 10
1442.275985815
 20
389.122561503
 11
1442.6616237692
 21
388.1673596976
  0
LINE
  8
1
  6
CONTINUOUS
 62
     7
 10
1441.4664769409
 20
392.8201252462
 11
1441.3489412274
 21
392.0595192277
  0
LINE
  8
1
  6
CONTINUOUS
 62
     7
 10
1442.0152390999
 20
408.3450371456
 11
1442.3018497178
 21
407.0297636415
  0
LINE
  8
1
  6
CONTINUOUS
 62
     7
 10
1440.2957757861
 20
377.4655366273
 11
1439.8106933469
 21
376.2697161929
  0
LINE
  8
1
  6
CONTINUOUS
 62
     7
 10
1439.8106933469
 20
376.2697161929
 11
1439.2294131768
 21
375.0896833885
  0
LINE
  8
1
  6
CONTINUOUS
 62
     7
 10
1439.2294131768
 20
375.0896833885
 11
1438.6846137916
 21
374.0938321723
  0
LINE
  8
1
  6
CONTINUOUS
 62
     7
 10
1442.3255731909
 20
406.5869196853
 11
1442.2378344411
 21
405.7254104353
  0
LINE
  8
1
  6
CONTINUOUS
 62
     7
 10
1442.0288413344
 20
404.7419440825
 11
1441.7723052448
 21
403.6930816234
  0
LINE
  8
1
  6
CONTINUOUS
 62
     7
 10
1440.5519819789
 20
378.5087507336
 11
1440.2957757861
 21
377.4655366273
  0
LINE
  8
1
  6
CONTINUOUS
 62
     7
 10
1438.6846137916
 20
374.0938321723
 11
1438.3089737069
 21
373.4505565024
  0
LINE
  8
1
  6
CONTINUOUS
 62
     7
 10
1441.6308106168
 20
409.3804460599
 11
1442.0152390999
 21
408.3450371456
  0
LINE
  8
1
  6
CONTINUOUS
 62
     7
 10
1442.2378344411
 20
405.7254104353
 11
1442.0288413344
 21
404.7419440825
  0
LINE
  8
1
  6
CONTINUOUS
 62
     7
 10
1438.3089737069
 20
373.4505565024
 11
1438.2177130679
 21
373.3002020047
  0
LINE
  8
1
  6
CONTINUOUS
 62
     7
 10
1441.7723052448
 20
403.6930816234
 11
1441.5419375464
 21
402.6353840548
  0
LINE
  8
1
  6
CONTINUOUS
 62
     7
 10
1441.5419375464
 20
402.6353840548
 11
1441.4114496132
 21
401.6254123734
  0
LINE
  8
1
  6
CONTINUOUS
 62
     7
 10
1442.0365365869
 20
399.129543504
 11
1442.4930738353
 21
398.2089396244
  0
LINE
  8
1
  6
CONTINUOUS
 62
     7
 10
1442.3018497178
 20
407.0297636415
 11
1442.3255731909
 21
406.5869196853
  0
LINE
  8
1
  6
CONTINUOUS
 62
     7
 10
1441.4099807251
 20
401.0933648904
 11
1441.6242527081
 21
400.0820071039
  0
LINE
  8
1
  6
CONTINUOUS
 62
     7
 10
1442.4930738353
 20
398.2089396244
 11
1442.8401059274
 21
397.2931609991
  0
LINE
  8
1
  6
CONTINUOUS
 62
     7
 10
1442.8401059274
 20
397.2931609991
 11
1442.9359681681
 21
396.5764420591
  0
LINE
  8
1
  6
CONTINUOUS
 62
     7
 10
1442.9359681681
 20
396.5764420591
 11
1442.7542408854
 21
395.6382488708
  0
LINE
  8
1
  6
CONTINUOUS
 62
     7
 10
1442.7542408854
 20
395.6382488708
 11
1442.3352792094
 21
394.7050272957
  0
LINE
  8
1
  6
CONTINUOUS
 62
     7
 10
1441.4114496132
 20
401.6254123734
 11
1441.4099807251
 21
401.0933648904
  0
LINE
  8
1
  6
CONTINUOUS
 62
     7
 10
1441.6242527081
 20
400.0820071039
 11
1442.0365365869
 21
399.129543504
  0
LINE
  8
1
  6
CONTINUOUS
 62
     7
 10
1441.4382853309
 20
409.8002020047
 11
1441.6308106168
 21
409.3804460599
  0
CIRCLE
  8
1
  6
CONTINUOUS
 62
     7
 10
1360.2302019856
 20
391.5502020047
 40
18.25
  0
CIRCLE
  8
1
  6
CONTINUOUS
 62
     7
 10
1360.2302019856
 20
391.5502020047
 40
16.75
  0
TEXT
  8
1
  6
CONTINUOUS
 62
     7
 10
1490.121958082812
 20
367.2994699167187
 40
3.5
  1
MFPA-28M3
 41
0.89167
  0
ENDSEC
  0
EOF
