  0
SECTION
  2
HEADER
  9
$ACADVER
  1
AC1004
  9
$INSBASE
 10
0.0
 20
0.0
  9
$EXTMIN
 10
228.3707966025
 20
298.4488636363637
  9
$EXTMAX
 10
350.5827690064
 20
345.4033113267
  9
$LIMMIN
 10
0.0
 20
0.0
  9
$LIMMAX
 10
12.0
 20
9.0
  9
$ORTHOMODE
 70
     0
  9
$REGENMODE
 70
     1
  9
$FILLMODE
 70
     1
  9
$QTEXTMODE
 70
     0
  9
$DRAGMODE
 70
     2
  9
$LTSCALE
 40
1.0
  9
$OSMODE
 70
    37
  9
$ATTMODE
 70
     1
  9
$TEXTSIZE
 40
0.2
  9
$TRACEWID
 40
0.05
  9
$TEXTSTYLE
  7
STANDARD
  9
$CLAYER
  8
0
  9
$CELTYPE
  6
BYLAYER
  9
$CECOLOR
 62
   256
  9
$DIMSCALE
 40
1.0
  9
$DIMASZ
 40
0.9
  9
$DIMEXO
 40
0.0625
  9
$DIMDLI
 40
0.38
  9
$DIMRND
 40
0.0
  9
$DIMDLE
 40
0.0
  9
$DIMEXE
 40
0.45
  9
$DIMTP
 40
0.0
  9
$DIMTM
 40
0.0
  9
$DIMTXT
 40
3.0
  9
$DIMCEN
 40
0.09
  9
$DIMTSZ
 40
0.0
  9
$DIMTOL
 70
     0
  9
$DIMLIM
 70
     0
  9
$DIMTIH
 70
     1
  9
$DIMTOH
 70
     1
  9
$DIMSE1
 70
     0
  9
$DIMSE2
 70
     0
  9
$DIMTAD
 70
     1
  9
$DIMZIN
 70
     0
  9
$DIMBLK
  1

  9
$DIMASO
 70
     1
  9
$DIMSHO
 70
     1
  9
$DIMPOST
  1

  9
$DIMAPOST
  1

  9
$DIMALT
 70
     0
  9
$DIMALTD
 70
     2
  9
$DIMALTF
 40
25.4
  9
$DIMLFAC
 40
1.0
  9
$DIMTOFL
 70
     0
  9
$DIMTVP
 40
0.0
  9
$DIMTIX
 70
     0
  9
$DIMSOXD
 70
     0
  9
$DIMSAH
 70
     0
  9
$DIMBLK1
  1

  9
$DIMBLK2
  1

  9
$LUNITS
 70
     2
  9
$LUPREC
 70
     4
  9
$SKETCHINC
 40
0.1
  9
$FILLETRAD
 40
0.5
  9
$AUNITS
 70
     0
  9
$AUPREC
 70
     0
  9
$MENU
  1
.
  9
$ELEVATION
 40
0.0
  9
$THICKNESS
 40
0.0
  9
$LIMCHECK
 70
     0
  9
$CHAMFERA
 40
0.0
  9
$CHAMFERB
 40
0.0
  9
$SKPOLY
 70
     0
  9
$TDCREATE
 40
2460774.335913785
  9
$TDUPDATE
 40
2460774.335913843
  9
$TDINDWG
 40
0.0000000116
  9
$TDUSRTIMER
 40
0.0000000116
  9
$USRTIMER
 70
     1
  9
$ANGBASE
 50
0.0
  9
$ANGDIR
 70
     0
  9
$PDMODE
 70
     0
  9
$PDSIZE
 40
0.0
  9
$PLINEWID
 40
0.0
  9
$COORDS
 70
     1
  9
$SPLFRAME
 70
     0
  9
$SPLINETYPE
 70
     6
  9
$SPLINESEGS
 70
     8
  9
$ATTDIA
 70
     0
  9
$ATTREQ
 70
     1
  9
$SURFTAB1
 70
     6
  9
$SURFTAB2
 70
     6
  9
$SURFTYPE
 70
     6
  9
$SURFU
 70
     6
  9
$SURFV
 70
     6
  9
$UCSNAME
  2

  9
$UCSORG
 10
0.0
 20
0.0
 30
0.0
  9
$UCSXDIR
 10
1.0
 20
0.0
 30
0.0
  9
$UCSYDIR
 10
0.0
 20
1.0
 30
0.0
  9
$USERI1
 70
     0
  9
$USERI2
 70
     0
  9
$USERI3
 70
     0
  9
$USERI4
 70
     0
  9
$USERI5
 70
     0
  9
$USERR1
 40
0.0
  9
$USERR2
 40
0.0
  9
$USERR3
 40
0.0
  9
$USERR4
 40
0.0
  9
$USERR5
 40
0.0
  9
$WORLDVIEW
 70
     1
  0
ENDSEC
  0
SECTION
  2
TABLES
  0
TABLE
  2
LTYPE
 70
     3
  0
LTYPE
  2
CONTINUOUS
 70
     0
  3
Solid line
 72
    65
 73
     0
 40
0.0
  0
LTYPE
  2
PHANTOM
 70
     0
  3

 72
    65
 73
     0
 40
0.0
  0
LTYPE
  2
CENTER
 70
     0
  3

 72
    65
 73
     0
 40
0.0
  0
ENDTAB
  0
TABLE
  2
LAYER
 70
     2
  0
LAYER
  2
0
 70
     0
 62
     7
  6
CONTINUOUS
  0
LAYER
  2
1
 70
     0
 62
     7
  6
CONTINUOUS
  0
ENDTAB
  0
TABLE
  2
STYLE
 70
     2
  0
STYLE
  2
STANDARD
 70
     0
 40
0.0
 41
1.0
 50
0.0
 71
     0
 42
0.2
  3
txt
  4

  0
STYLE
  2
ＭＳ_ゴシック
 70
     0
 40
0.0
 41
1.0
 50
0.0
 71
     0
 42
0.2
  3
ＭＳ ゴシック.shx
  4

  0
ENDTAB
  0
TABLE
  2
VIEW
 70
     0
  0
ENDTAB
  0
ENDSEC
  0
SECTION
  2
BLOCKS
  0
ENDSEC
  0
SECTION
  2
ENTITIES
  0
ARC
  8
1
  6
CONTINUOUS
 62
     7
 10
331.2413614502
 20
325.9172584543
 40
10.0
 50
136.936174
 51
163.083976
  0
ARC
  8
1
  6
CONTINUOUS
 62
     7
 10
331.2413614502
 20
325.9172584543
 40
10.0
 50
256.936208
 51
283.084016
  0
ARC
  8
1
  6
CONTINUOUS
 62
     7
 10
331.2413614502
 20
325.9172584543
 40
10.0
 50
163.164682
 51
223.083989
  0
ARC
  8
1
  6
PHANTOM
 62
     7
 10
328.6223494502
 20
314.7196204543
 40
1.49984
 50
19.996688
 51
76.83863
  0
LINE
  8
1
  6
CONTINUOUS
 62
     7
 10
322.5928994502
 20
319.5273474543
 11
322.2133474502
 21
319.4604224543
  0
ARC
  8
1
  6
CONTINUOUS
 62
     7
 10
331.2413614502
 20
325.9172584543
 40
10.0
 50
223.164682
 51
256.835318
  0
LINE
  8
1
  6
CONTINUOUS
 62
     7
 10
330.1635844502
 20
314.8703514543
 11
330.0317674502
 21
315.2325144543
  0
LINE
  8
1
  6
CONTINUOUS
 62
     7
 10
321.3833054502
 20
330.2120914543
 11
321.4917684502
 21
330.0662574543
  0
ARC
  8
1
  6
CONTINUOUS
 62
     7
 10
320.2323554502
 20
329.2480714543
 40
1.501849
 50
343.179595
 51
33.01003500000002
  0
ARC
  8
1
  6
PHANTOM
 62
     7
 10
320.2344164502
 20
322.5865704543
 40
1.49984
 50
319.9966879999999
 51
16.83863000000002
  0
ARC
  8
1
  6
CONTINUOUS
 62
     7
 10
331.2413614502
 20
325.9172584543
 40
10.0
 50
316.936174
 51
343.083976
  0
LINE
  8
1
  6
CONTINUOUS
 62
     7
 10
322.5928994502
 20
319.5273474543
 11
322.7734394502
 21
319.5483634543
  0
ARC
  8
1
  6
CONTINUOUS
 62
     7
 10
322.8522894502
 20
318.0485854543
 40
1.50185
 50
43.179599
 51
93.009547
  0
LINE
  8
1
  6
CONTINUOUS
 62
     7
 10
241.4840054502
 20
318.4051372421
 11
251.4840054502
 21
318.4051372421
  0
LINE
  8
1
  6
CONTINUOUS
 62
     7
 10
241.4840054502
 20
341.6521069392
 11
251.4840054502
 21
341.6521069392
  0
LINE
  8
1
  6
CONTINUOUS
 62
     7
 10
241.4840054502
 20
324.089985727
 11
251.4840054502
 21
324.089985727
  0
LINE
  8
1
  6
CONTINUOUS
 62
     7
 10
241.4840054502
 20
340.433925121
 11
251.4840054502
 21
340.433925121
  0
LINE
  8
1
  6
CONTINUOUS
 62
     7
 10
241.4840054502
 20
341.0430160301
 11
251.4840054502
 21
341.0430160301
  0
LINE
  8
1
  6
CONTINUOUS
 62
     7
 10
241.4840054502
 20
320.0293796664
 11
251.4840054502
 21
320.0293796664
  0
LINE
  8
1
  6
CONTINUOUS
 62
     7
 10
241.4840054502
 20
317.59301603
 11
251.4840054502
 21
317.59301603
  0
LINE
  8
1
  6
CONTINUOUS
 62
     7
 10
251.4840054502
 20
321.8566523937
 11
241.4840054502
 21
321.8566523937
  0
LINE
  8
1
  6
CONTINUOUS
 62
     7
 10
241.4840054502
 20
322.8718039088
 11
251.4840054502
 21
322.8718039088
  0
LINE
  8
1
  6
CONTINUOUS
 62
     7
 10
251.4840054502
 20
320.8415008785
 11
241.4840054502
 21
320.8415008785
  0
LINE
  8
1
  6
CONTINUOUS
 62
     7
 10
241.4840054502
 20
325.3081675452
 11
251.4840054502
 21
325.3081675452
  0
LINE
  8
1
  6
CONTINUOUS
 62
     7
 10
241.4840054502
 20
342.2611978483
 11
251.4840054502
 21
342.2611978483
  0
LINE
  8
1
  6
CONTINUOUS
 62
     7
 10
241.4840054502
 20
319.2172584543
 11
251.4840054502
 21
319.2172584543
  0
LINE
  8
1
  6
CONTINUOUS
 62
     7
 10
253.4840054502
 20
309.1672584543
 11
253.4840054502
 21
342.6672584543
  0
LINE
  8
1
  6
CONTINUOUS
 62
     7
 10
241.4840054502
 20
326.5263493634
 11
251.4840054502
 21
326.5263493634
  0
ARC
  8
1
  6
CONTINUOUS
 62
     7
 10
331.2413614502
 20
325.9172584543
 40
10.4
 50
262.1571230000001
 51
277.842569
  0
LINE
  8
1
  6
CONTINUOUS
 62
     7
 10
251.4840054502
 20
329.9778645149
 11
241.4840054502
 21
329.9778645149
  0
ARC
  8
1
  6
CONTINUOUS
 62
     7
 10
331.2413614502
 20
325.9172584543
 40
10.4
 50
202.157123
 51
217.842569
  0
ARC
  8
1
  6
CONTINUOUS
 62
     7
 10
331.2413614502
 20
325.9172584543
 40
10.4
 50
322.157121
 51
337.842567
  0
ARC
  8
1
  6
CONTINUOUS
 62
     7
 10
331.2413614502
 20
325.9172584543
 40
10.4
 50
22.157123
 51
37.842569
  0
LINE
  8
1
  6
CENTER
 62
     1
 10
331.2414324502
 20
345.0507531258
 11
331.2414324502
 21
306.1204465061
  0
LINE
  8
1
  6
CONTINUOUS
 62
     7
 10
251.4840054502
 20
342.6672584543
 11
251.4840054502
 21
309.1672584543
  0
LINE
  8
1
  6
CONTINUOUS
 62
     7
 10
241.4840054502
 20
328.9627129998
 11
251.4840054502
 21
328.9627129998
  0
LINE
  8
1
  6
CONTINUOUS
 62
     7
 10
241.4840054502
 20
327.7445311816
 11
251.4840054502
 21
327.7445311816
  0
ARC
  8
1
  6
CONTINUOUS
 62
     7
 10
331.2414584502
 20
325.9173554543
 40
8.505966
 50
225.77241
 51
44.46758
  0
ARC
  8
1
  6
CONTINUOUS
 62
     7
 10
331.2413614502
 20
325.9172584543
 40
10.4
 50
75.0
 51
105.0
  0
LINE
  8
1
  6
CENTER
 62
     1
 10
311.4165211344
 20
325.9174574543
 11
350.5827690064
 21
325.9174574543
  0
TEXT
  8
0
  6
CONTINUOUS
 62
     7
 10
324.3668875828436
 20
298.0498233712642
 40
3.5
  1
MFPC-14W
  0
LINE
  8
1
  6
CONTINUOUS
 62
     7
 10
279.4840054502
 20
310.7915008785
 11
269.4840054502
 21
310.7915008785
  0
LINE
  8
1
  6
CONTINUOUS
 62
     7
 10
279.4840054502
 20
309.5733190603
 11
269.4840054502
 21
309.5733190603
  0
LINE
  8
1
  6
CONTINUOUS
 62
     7
 10
279.4840054502
 20
313.2278645149
 11
269.4840054502
 21
313.2278645149
  0
LINE
  8
1
  6
CONTINUOUS
 62
     7
 10
279.4840054502
 20
324.089985727
 11
269.4840054502
 21
324.089985727
  0
LINE
  8
1
  6
CONTINUOUS
 62
     7
 10
279.4840054502
 20
316.7808948179
 11
269.4840054502
 21
316.7808948179
  0
LINE
  8
1
  6
CONTINUOUS
 62
     7
 10
269.4840054502
 20
313.836955424
 11
279.4840054502
 21
313.836955424
  0
LINE
  8
1
  6
CONTINUOUS
 62
     7
 10
279.4840054502
 20
310.1824099694
 11
269.4840054502
 21
310.1824099694
  0
LINE
  8
1
  6
CONTINUOUS
 62
     7
 10
279.4840054502
 20
325.3081675452
 11
269.4840054502
 21
325.3081675452
  0
LINE
  8
1
  6
CONTINUOUS
 62
     7
 10
279.4840054502
 20
320.0293796664
 11
269.4840054502
 21
320.0293796664
  0
LINE
  8
1
  6
CONTINUOUS
 62
     7
 10
279.4840054502
 20
317.59301603
 11
269.4840054502
 21
317.59301603
  0
LINE
  8
1
  6
CONTINUOUS
 62
     7
 10
269.4840054502
 20
320.8415008785
 11
279.4840054502
 21
320.8415008785
  0
LINE
  8
1
  6
CONTINUOUS
 62
     7
 10
279.4840054502
 20
339.8248342119
 11
269.4840054502
 21
339.8248342119
  0
LINE
  8
1
  6
CONTINUOUS
 62
     7
 10
269.4840054502
 20
321.8566523937
 11
279.4840054502
 21
321.8566523937
  0
LINE
  8
1
  6
CONTINUOUS
 62
     7
 10
279.4840054502
 20
319.2172584543
 11
269.4840054502
 21
319.2172584543
  0
LINE
  8
1
  6
CONTINUOUS
 62
     7
 10
279.4840054502
 20
341.6521069392
 11
269.4840054502
 21
341.6521069392
  0
LINE
  8
1
  6
CONTINUOUS
 62
     7
 10
279.4840054502
 20
318.4051372421
 11
269.4840054502
 21
318.4051372421
  0
LINE
  8
1
  6
CONTINUOUS
 62
     7
 10
279.4840054502
 20
315.9687736058
 11
269.4840054502
 21
315.9687736058
  0
LINE
  8
1
  6
CONTINUOUS
 62
     7
 10
279.4840054502
 20
341.0430160301
 11
269.4840054502
 21
341.0430160301
  0
LINE
  8
1
  6
CONTINUOUS
 62
     7
 10
279.4840054502
 20
342.2611978483
 11
269.4840054502
 21
342.2611978483
  0
LINE
  8
1
  6
CONTINUOUS
 62
     7
 10
279.4840054502
 20
314.4460463331
 11
269.4840054502
 21
314.4460463331
  0
LINE
  8
1
  6
CONTINUOUS
 62
     7
 10
279.4840054502
 20
312.0096826967
 11
269.4840054502
 21
312.0096826967
  0
LINE
  8
1
  6
CONTINUOUS
 62
     7
 10
279.4840054502
 20
339.2157433028
 11
269.4840054502
 21
339.2157433028
  0
LINE
  8
1
  6
CONTINUOUS
 62
     7
 10
279.4840054502
 20
340.433925121
 11
269.4840054502
 21
340.433925121
  0
LINE
  8
1
  6
CONTINUOUS
 62
     7
 10
279.4840054502
 20
322.8718039088
 11
269.4840054502
 21
322.8718039088
  0
LINE
  8
1
  6
CONTINUOUS
 62
     7
 10
279.4840054502
 20
315.1566523937
 11
269.4840054502
 21
315.1566523937
  0
LINE
  8
1
  6
CONTINUOUS
 62
     7
 10
279.4840054502
 20
312.6187736058
 11
269.4840054502
 21
312.6187736058
  0
LINE
  8
1
  6
CONTINUOUS
 62
     7
 10
279.4840054502
 20
338.6066523937
 11
269.4840054502
 21
338.6066523937
  0
LINE
  8
1
  6
CONTINUOUS
 62
     7
 10
279.4840054502
 20
311.4005917876
 11
269.4840054502
 21
311.4005917876
  0
LINE
  8
1
  6
CONTINUOUS
 62
     7
 10
255.9840054502
 20
339.9672584543
 11
255.9840054502
 21
311.8672584543
  0
LINE
  8
1
  6
CONTINUOUS
 62
     7
 10
241.4840054502
 20
309.1672584543
 11
254.4932154502
 21
309.1672584543
  0
LINE
  8
1
  6
CONTINUOUS
 62
     7
 10
241.4840054502
 20
309.1672584543
 11
241.4840054502
 21
342.6672584543
  0
LINE
  8
1
  6
CONTINUOUS
 62
     7
 10
267.4840054502
 20
309.1672584543
 11
267.4840054502
 21
342.6672584543
  0
LINE
  8
1
  6
CONTINUOUS
 62
     7
 10
279.4840054502
 20
309.1672584543
 11
279.4840054502
 21
342.6672584543
  0
LINE
  8
1
  6
CONTINUOUS
 62
     7
 10
254.4932154502
 20
342.6672584543
 11
241.4840054502
 21
342.6672584543
  0
LINE
  8
1
  6
CONTINUOUS
 62
     7
 10
264.9840054502
 20
311.8672584543
 11
264.9840054502
 21
339.9672584543
  0
LINE
  8
1
  6
CONTINUOUS
 62
     7
 10
241.4840054502
 20
342.6672584543
 11
229.854595920252
 21
339.5511673714041
  0
LINE
  8
1
  6
CONTINUOUS
 62
     7
 10
229.854595920252
 20
312.2833495371959
 11
241.4840054502
 21
309.1672584543
  0
LINE
  8
1
  6
CONTINUOUS
 62
     7
 10
279.4840054502
 20
309.1672584543
 11
291.1134149915072
 21
312.2833498333971
  0
LINE
  8
1
  6
CONTINUOUS
 62
     7
 10
291.1134149915072
 20
339.5511670752029
 11
279.4840054502
 21
342.6672584543
  0
LINE
  8
1
  6
CONTINUOUS
 62
     7
 10
337.312687174
 20
331.8760351734
 11
337.1496104502
 21
332.0363924543
  0
ARC
  8
1
  6
CONTINUOUS
 62
     7
 10
331.2411234502
 20
325.9171564543
 40
8.506146
 50
46.755508
 51
223.652693
  0
LINE
  8
1
  6
CONTINUOUS
 62
     7
 10
325.0866094502
 20
320.0454894543
 11
325.2276504502
 21
319.9012304543
  0
CIRCLE
  8
1
  6
CONTINUOUS
 62
     7
 10
331.2413212714
 20
325.9173554543
 40
6.586948
  0
ARC
  8
1
  6
CONTINUOUS
 62
     7
 10
331.2413614502
 20
325.9172584543
 40
10.4
 50
142.157121
 51
157.842567
  0
LINE
  8
1
  6
CONTINUOUS
 62
     7
 10
337.3118894502
 20
331.8760034543
 11
337.2551144502
 21
331.9332494543
  0
ARC
  8
1
  6
PHANTOM
 62
     7
 10
322.8534284502
 20
333.7842084543
 40
1.49984
 50
259.996691
 51
316.838627
  0
LINE
  8
1
  6
CONTINUOUS
 62
     7
 10
341.0994184502
 20
321.6224254543
 11
341.3471524502
 21
321.3271874543
  0
LINE
  8
1
  6
CONTINUOUS
 62
     7
 10
322.2133474502
 20
332.3740944543
 11
322.5928994502
 21
332.3071694543
  0
ARC
  8
1
  6
PHANTOM
 62
     7
 10
342.2483064502
 20
329.2479464543
 40
1.49984
 50
139.996688
 51
196.83863
  0
ARC
  8
1
  6
CONTINUOUS
 62
     7
 10
342.2503684502
 20
322.5864454543
 40
1.501849
 50
163.179595
 51
213.010035
  0
LINE
  8
1
  6
CONTINUOUS
 62
     7
 10
341.3471524502
 20
330.5073294543
 11
341.0994184502
 21
330.2120914543
  0
LINE
  8
1
  6
CONTINUOUS
 62
     7
 10
328.3684704502
 20
336.6390354543
 11
328.6531714502
 21
335.5765164543
  0
ARC
  8
1
  6
CONTINUOUS
 62
     7
 10
254.4932154502
 20
310.1672584543
 40
1.0
 50
270.0
 51
345.0
  0
LINE
  8
1
  6
CONTINUOUS
 62
     7
 10
279.4840054502
 20
342.6672584543
 11
266.4747944502
 21
342.6672584543
  0
ARC
  8
1
  6
CONTINUOUS
 62
     7
 10
254.4932154502
 20
341.6672584543
 40
1.0
 50
15.0
 51
90.0
  0
LINE
  8
1
  6
CONTINUOUS
 62
     7
 10
255.4591414502
 20
309.9084394543
 11
255.9840054502
 21
311.8672584543
  0
LINE
  8
1
  6
CONTINUOUS
 62
     7
 10
255.9840054502
 20
339.9672584543
 11
255.4591414502
 21
341.9260774543
  0
ARC
  8
1
  6
CONTINUOUS
 62
     7
 10
266.4747944502
 20
310.1672584543
 40
1.0
 50
195.0
 51
270.0
  0
LINE
  8
1
  6
CONTINUOUS
 62
     7
 10
266.4747944502
 20
309.1672584543
 11
279.4840054502
 21
309.1672584543
  0
ARC
  8
1
  6
CONTINUOUS
 62
     7
 10
266.4747944502
 20
341.6672584543
 40
1.0
 50
90.0
 51
165.0
  0
LINE
  8
1
  6
CONTINUOUS
 62
     7
 10
265.5088694502
 20
341.9260774543
 11
264.9840054502
 21
339.9672584543
  0
CIRCLE
  8
0
  6
CONTINUOUS
 62
     7
 10
260.4840054502
 20
325.9172584543
 40
2.5
  0
ARC
  8
0
  6
CONTINUOUS
 62
     7
 10
290.9840054502
 20
339.0682041670839
 40
0.5
 50
0.0
 51
74.9999977749182
  0
ARC
  8
0
  6
CONTINUOUS
 62
     7
 10
229.9840054502
 20
339.0682044602415
 40
0.5
 50
105.0000008775015
 51
180.0
  0
ARC
  8
0
  6
CONTINUOUS
 62
     7
 10
229.9840054502
 20
312.7663124483585
 40
0.5
 50
180.0
 51
254.9999991224985
  0
ARC
  8
0
  6
CONTINUOUS
 62
     7
 10
290.9840054502
 20
312.7663127415161
 40
0.5
 50
285.0000022250818
 51
0.0
  0
LINE
  8
1
  6
CONTINUOUS
 62
     7
 10
251.4840054502
 20
337.9975614846
 11
241.4840054502
 21
337.9975614846
  0
LINE
  8
1
  6
CONTINUOUS
 62
     7
 10
241.4840054502
 20
335.0536220907
 11
251.4840054502
 21
335.0536220907
  0
LINE
  8
1
  6
CONTINUOUS
 62
     7
 10
241.4840054502
 20
332.6172584543
 11
251.4840054502
 21
332.6172584543
  0
LINE
  8
1
  6
CONTINUOUS
 62
     7
 10
251.4840054502
 20
330.9930160301
 11
241.4840054502
 21
330.9930160301
  0
LINE
  8
1
  6
CONTINUOUS
 62
     7
 10
241.4840054502
 20
331.8051372422
 11
251.4840054502
 21
331.8051372422
  0
LINE
  8
1
  6
CONTINUOUS
 62
     7
 10
241.4840054502
 20
336.6778645149
 11
251.4840054502
 21
336.6778645149
  0
LINE
  8
1
  6
CONTINUOUS
 62
     7
 10
241.4840054502
 20
333.4293796665
 11
251.4840054502
 21
333.4293796665
  0
LINE
  8
1
  6
CONTINUOUS
 62
     7
 10
241.4840054502
 20
337.3884705755
 11
251.4840054502
 21
337.3884705755
  0
LINE
  8
1
  6
CONTINUOUS
 62
     7
 10
241.4840054502
 20
335.8657433028
 11
251.4840054502
 21
335.8657433028
  0
LINE
  8
1
  6
CONTINUOUS
 62
     7
 10
241.4840054502
 20
339.2157433028
 11
251.4840054502
 21
339.2157433028
  0
LINE
  8
1
  6
CONTINUOUS
 62
     7
 10
241.4840054502
 20
338.6066523937
 11
251.4840054502
 21
338.6066523937
  0
LINE
  8
1
  6
CONTINUOUS
 62
     7
 10
241.4840054502
 20
339.8248342119
 11
251.4840054502
 21
339.8248342119
  0
LINE
  8
1
  6
CONTINUOUS
 62
     7
 10
241.4840054502
 20
334.2415008786
 11
251.4840054502
 21
334.2415008786
  0
LINE
  8
1
  6
CONTINUOUS
 62
     7
 10
279.4840054502
 20
335.8657433028
 11
269.4840054502
 21
335.8657433028
  0
LINE
  8
1
  6
CONTINUOUS
 62
     7
 10
241.4840054502
 20
316.7808948179
 11
251.4840054502
 21
316.7808948179
  0
LINE
  8
1
  6
CONTINUOUS
 62
     7
 10
241.4840054502
 20
312.6187736058
 11
251.4840054502
 21
312.6187736058
  0
LINE
  8
1
  6
CONTINUOUS
 62
     7
 10
279.4840054502
 20
331.8051372422
 11
269.4840054502
 21
331.8051372422
  0
LINE
  8
1
  6
CONTINUOUS
 62
     7
 10
269.4840054502
 20
337.9975614846
 11
279.4840054502
 21
337.9975614846
  0
LINE
  8
1
  6
CONTINUOUS
 62
     7
 10
279.4840054502
 20
335.0536220907
 11
269.4840054502
 21
335.0536220907
  0
LINE
  8
1
  6
CONTINUOUS
 62
     7
 10
241.4840054502
 20
311.4005917876
 11
251.4840054502
 21
311.4005917876
  0
LINE
  8
1
  6
CONTINUOUS
 62
     7
 10
241.4840054502
 20
315.9687736058
 11
251.4840054502
 21
315.9687736058
  0
LINE
  8
1
  6
CONTINUOUS
 62
     7
 10
241.4840054502
 20
312.0096826967
 11
251.4840054502
 21
312.0096826967
  0
LINE
  8
1
  6
CONTINUOUS
 62
     7
 10
241.4840054502
 20
310.7915008785
 11
251.4840054502
 21
310.7915008785
  0
LINE
  8
1
  6
CONTINUOUS
 62
     7
 10
241.4840054502
 20
315.1566523937
 11
251.4840054502
 21
315.1566523937
  0
LINE
  8
1
  6
CONTINUOUS
 62
     7
 10
251.4840054502
 20
313.836955424
 11
241.4840054502
 21
313.836955424
  0
LINE
  8
1
  6
CONTINUOUS
 62
     7
 10
279.4840054502
 20
326.5263493634
 11
269.4840054502
 21
326.5263493634
  0
LINE
  8
1
  6
CONTINUOUS
 62
     7
 10
279.4840054502
 20
328.9627129998
 11
269.4840054502
 21
328.9627129998
  0
LINE
  8
1
  6
CONTINUOUS
 62
     7
 10
279.4840054502
 20
333.4293796665
 11
269.4840054502
 21
333.4293796665
  0
LINE
  8
1
  6
CONTINUOUS
 62
     7
 10
279.4840054502
 20
327.7445311816
 11
269.4840054502
 21
327.7445311816
  0
LINE
  8
1
  6
CONTINUOUS
 62
     7
 10
279.4840054502
 20
332.6172584543
 11
269.4840054502
 21
332.6172584543
  0
LINE
  8
1
  6
CONTINUOUS
 62
     7
 10
269.4840054502
 20
330.9930160301
 11
279.4840054502
 21
330.9930160301
  0
LINE
  8
1
  6
CONTINUOUS
 62
     7
 10
279.4840054502
 20
334.2415008786
 11
269.4840054502
 21
334.2415008786
  0
LINE
  8
1
  6
CONTINUOUS
 62
     7
 10
279.4840054502
 20
336.6778645149
 11
269.4840054502
 21
336.6778645149
  0
LINE
  8
1
  6
CONTINUOUS
 62
     7
 10
279.4840054502
 20
337.3884705755
 11
269.4840054502
 21
337.3884705755
  0
LINE
  8
1
  6
CONTINUOUS
 62
     7
 10
241.4840054502
 20
314.4460463331
 11
251.4840054502
 21
314.4460463331
  0
LINE
  8
1
  6
CONTINUOUS
 62
     7
 10
241.4840054502
 20
310.1824099694
 11
251.4840054502
 21
310.1824099694
  0
LINE
  8
1
  6
CENTER
 62
     1
 10
228.3707966025
 20
325.9172584543
 11
293.6149305732
 21
325.9172584543
  0
LINE
  8
1
  6
CENTER
 62
     1
 10
260.4840054502
 20
345.4033113267
 11
260.4840054502
 21
308.4423487325
  0
LINE
  8
1
  6
CONTINUOUS
 62
     7
 10
269.4840054502
 20
329.9778645149
 11
279.4840054502
 21
329.9778645149
  0
LINE
  8
1
  6
CONTINUOUS
 62
     7
 10
241.4840054502
 20
309.5733190603
 11
251.4840054502
 21
309.5733190603
  0
LINE
  8
1
  6
CONTINUOUS
 62
     7
 10
241.4840054502
 20
313.2278645149
 11
251.4840054502
 21
313.2278645149
  0
LINE
  8
0
  6
CONTINUOUS
 62
     7
 10
229.4840054502
 20
339.0682044602415
 11
229.4840054502
 21
312.7663124483585
  0
LINE
  8
0
  6
CONTINUOUS
 62
     7
 10
291.4840054502
 20
312.7663127415161
 11
291.4840054502
 21
339.0682041670839
  0
LINE
  8
1
  6
CONTINUOUS
 62
     7
 10
269.4840054502
 20
342.6672584543
 11
269.4840054502
 21
309.1672584543
  0
LINE
  8
1
  6
CONTINUOUS
 62
     7
 10
264.9840054502
 20
311.8672584543
 11
265.5088694502
 21
309.9084394543
  0
LINE
  8
1
  6
CONTINUOUS
 62
     7
 10
337.3121714502
 20
331.8755104543
 11
337.2562774502
 21
331.9320874543
  0
ARC
  8
1
  6
CONTINUOUS
 62
     7
 10
328.8309462823
 20
326.0354486507
 40
6.09708
 50
181.109612
 51
242.049875
  0
CIRCLE
  8
1
  6
CONTINUOUS
 62
     7
 10
331.2413212714
 20
325.9173554543
 40
7.45
  0
LINE
  8
1
  6
CONTINUOUS
 62
     7
 10
255.9840054502
 20
311.8672584543
 11
264.9840054502
 21
311.8672584543
  0
CIRCLE
  8
1
  6
CONTINUOUS
 62
     7
 10
331.2413614502
 20
325.9172584543
 40
16.75
  0
ARC
  8
1
  6
CONTINUOUS
 62
     7
 10
328.7444070189
 20
325.8523327431
 40
6.009749
 50
117.461801
 51
179.379856
  0
CIRCLE
  8
1
  6
CONTINUOUS
 62
     7
 10
331.2413614502
 20
325.9172584543
 40
11.1
  0
ARC
  8
1
  6
CONTINUOUS
 62
     7
 10
333.5537435866
 20
326.0985763157
 40
6.198897
 50
298.480082
 51
357.588636
  0
ARC
  8
1
  6
CONTINUOUS
 62
     7
 10
331.2413614502
 20
325.9172584543
 40
10.0
 50
43.164682
 51
136.835318
  0
ARC
  8
1
  6
CONTINUOUS
 62
     7
 10
331.2413614502
 20
325.9172584543
 40
10.0
 50
343.164682
 51
43.08398899999997
  0
LINE
  8
1
  6
CONTINUOUS
 62
     7
 10
264.9840054502
 20
339.9672584543
 11
255.9840054502
 21
339.9672584543
  0
ARC
  8
1
  6
CONTINUOUS
 62
     7
 10
333.7413870989
 20
325.8544038589
 40
6.006577
 50
0.599918
 51
62.559358
  0
LINE
  8
1
  6
CONTINUOUS
 62
     7
 10
333.8295524502
 20
335.5765164543
 11
334.1142534502
 21
336.6390354543
  0
LINE
  8
1
  6
CONTINUOUS
 62
     7
 10
339.8898244502
 20
332.3071694543
 11
340.2693754502
 21
332.3740944543
  0
LINE
  8
1
  6
CONTINUOUS
 62
     7
 10
332.4509554502
 20
315.2325144543
 11
332.5230244502
 21
315.3993734543
  0
ARC
  8
1
  6
CONTINUOUS
 62
     7
 10
331.2413614502
 20
325.9172584543
 40
10.0
 50
283.164682
 51
316.835318
  0
LINE
  8
1
  6
CONTINUOUS
 62
     7
 10
332.4509554502
 20
315.2325144543
 11
332.3191384502
 21
314.8703514543
  0
LINE
  8
1
  6
CONTINUOUS
 62
     7
 10
341.0994184502
 20
321.6224254543
 11
340.9909544502
 21
321.7682594543
  0
LINE
  8
1
  6
CONTINUOUS
 62
     7
 10
321.1355704502
 20
321.3271874543
 11
321.3833054502
 21
321.6224254543
  0
ARC
  8
1
  6
PHANTOM
 62
     7
 10
339.6292944502
 20
318.0503084543
 40
1.49984
 50
79.99669099999998
 51
136.838627
  0
LINE
  8
1
  6
CONTINUOUS
 62
     7
 10
339.8898244502
 20
332.3071694543
 11
339.7092844502
 21
332.2861534543
  0
ARC
  8
1
  6
CONTINUOUS
 62
     7
 10
339.6304334502
 20
333.7859314543
 40
1.50185
 50
223.179599
 51
273.009547
  0
LINE
  8
1
  6
CONTINUOUS
 62
     7
 10
340.2693754502
 20
319.4604224543
 11
339.8898244502
 21
319.5273474543
  0
LINE
  8
1
  6
CONTINUOUS
 62
     7
 10
321.3833054502
 20
330.2120914543
 11
321.1355704502
 21
330.5073294543
  0
ARC
  8
1
  6
CONTINUOUS
 62
     7
 10
333.8612964502
 20
314.7177724543
 40
1.50185
 50
103.179598
 51
153.00963
  0
ENDSEC
  0
EOF
