  0
SECTION
  2
HEADER
  9
$ACADVER
  1
AC1004
  9
$INSBASE
 10
0.0
 20
0.0
  9
$EXTMIN
 10
232.0818220197
 20
298.4488636363636
  9
$EXTMAX
 10
349.5638840518
 20
348.9950824345
  9
$LIMMIN
 10
0.0
 20
0.0
  9
$LIMMAX
 10
12.0
 20
9.0
  9
$ORTHOMODE
 70
     0
  9
$REGENMODE
 70
     1
  9
$FILLMODE
 70
     1
  9
$QTEXTMODE
 70
     0
  9
$DRAGMODE
 70
     2
  9
$LTSCALE
 40
1.0
  9
$OSMODE
 70
    37
  9
$ATTMODE
 70
     1
  9
$TEXTSIZE
 40
0.2
  9
$TRACEWID
 40
0.05
  9
$TEXTSTYLE
  7
STANDARD
  9
$CLAYER
  8
0
  9
$CELTYPE
  6
BYLAYER
  9
$CECOLOR
 62
   256
  9
$DIMSCALE
 40
1.0
  9
$DIMASZ
 40
3.0
  9
$DIMEXO
 40
0.0625
  9
$DIMDLI
 40
0.38
  9
$DIMRND
 40
0.0
  9
$DIMDLE
 40
0.0
  9
$DIMEXE
 40
1.5
  9
$DIMTP
 40
0.0
  9
$DIMTM
 40
0.0
  9
$DIMTXT
 40
5.0
  9
$DIMCEN
 40
0.09
  9
$DIMTSZ
 40
0.0
  9
$DIMTOL
 70
     0
  9
$DIMLIM
 70
     0
  9
$DIMTIH
 70
     1
  9
$DIMTOH
 70
     1
  9
$DIMSE1
 70
     0
  9
$DIMSE2
 70
     0
  9
$DIMTAD
 70
     1
  9
$DIMZIN
 70
     0
  9
$DIMBLK
  1

  9
$DIMASO
 70
     1
  9
$DIMSHO
 70
     1
  9
$DIMPOST
  1

  9
$DIMAPOST
  1

  9
$DIMALT
 70
     0
  9
$DIMALTD
 70
     2
  9
$DIMALTF
 40
25.4
  9
$DIMLFAC
 40
1.0
  9
$DIMTOFL
 70
     0
  9
$DIMTVP
 40
0.0
  9
$DIMTIX
 70
     0
  9
$DIMSOXD
 70
     0
  9
$DIMSAH
 70
     0
  9
$DIMBLK1
  1

  9
$DIMBLK2
  1

  9
$LUNITS
 70
     2
  9
$LUPREC
 70
     4
  9
$SKETCHINC
 40
0.1
  9
$FILLETRAD
 40
0.5
  9
$AUNITS
 70
     0
  9
$AUPREC
 70
     0
  9
$MENU
  1
.
  9
$ELEVATION
 40
0.0
  9
$THICKNESS
 40
0.0
  9
$LIMCHECK
 70
     0
  9
$CHAMFERA
 40
0.0
  9
$CHAMFERB
 40
0.0
  9
$SKPOLY
 70
     0
  9
$TDCREATE
 40
2460774.339679016
  9
$TDUPDATE
 40
2460774.339679074
  9
$TDINDWG
 40
0.0000000116
  9
$TDUSRTIMER
 40
0.0000000116
  9
$USRTIMER
 70
     1
  9
$ANGBASE
 50
0.0
  9
$ANGDIR
 70
     0
  9
$PDMODE
 70
     0
  9
$PDSIZE
 40
0.0
  9
$PLINEWID
 40
0.0
  9
$COORDS
 70
     1
  9
$SPLFRAME
 70
     0
  9
$SPLINETYPE
 70
     6
  9
$SPLINESEGS
 70
     8
  9
$ATTDIA
 70
     0
  9
$ATTREQ
 70
     1
  9
$SURFTAB1
 70
     6
  9
$SURFTAB2
 70
     6
  9
$SURFTYPE
 70
     6
  9
$SURFU
 70
     6
  9
$SURFV
 70
     6
  9
$UCSNAME
  2

  9
$UCSORG
 10
0.0
 20
0.0
 30
0.0
  9
$UCSXDIR
 10
1.0
 20
0.0
 30
0.0
  9
$UCSYDIR
 10
0.0
 20
1.0
 30
0.0
  9
$USERI1
 70
     0
  9
$USERI2
 70
     0
  9
$USERI3
 70
     0
  9
$USERI4
 70
     0
  9
$USERI5
 70
     0
  9
$USERR1
 40
0.0
  9
$USERR2
 40
0.0
  9
$USERR3
 40
0.0
  9
$USERR4
 40
0.0
  9
$USERR5
 40
0.0
  9
$WORLDVIEW
 70
     1
  0
ENDSEC
  0
SECTION
  2
TABLES
  0
TABLE
  2
LTYPE
 70
     3
  0
LTYPE
  2
CONTINUOUS
 70
     0
  3
Solid line
 72
    65
 73
     0
 40
0.0
  0
LTYPE
  2
CENTER
 70
     0
  3

 72
    65
 73
     0
 40
0.0
  0
LTYPE
  2
PHANTOM
 70
     0
  3

 72
    65
 73
     0
 40
0.0
  0
ENDTAB
  0
TABLE
  2
LAYER
 70
     2
  0
LAYER
  2
0
 70
     0
 62
     7
  6
CONTINUOUS
  0
LAYER
  2
1
 70
     0
 62
     7
  6
CONTINUOUS
  0
ENDTAB
  0
TABLE
  2
STYLE
 70
     2
  0
STYLE
  2
STANDARD
 70
     0
 40
0.0
 41
1.0
 50
0.0
 71
     0
 42
0.2
  3
txt
  4

  0
STYLE
  2
ＭＳ_ゴシック
 70
     0
 40
0.0
 41
1.0
 50
0.0
 71
     0
 42
0.2
  3
ＭＳ ゴシック.shx
  4

  0
ENDTAB
  0
TABLE
  2
VIEW
 70
     0
  0
ENDTAB
  0
ENDSEC
  0
SECTION
  2
BLOCKS
  0
ENDSEC
  0
SECTION
  2
ENTITIES
  0
LINE
  8
1
  6
CONTINUOUS
 62
     7
 10
245.0818220197
 20
330.9892788148
 11
255.0818220197
 21
330.9892788148
  0
LINE
  8
1
  6
CONTINUOUS
 62
     7
 10
245.0818220197
 20
328.5529151785
 11
255.0818220197
 21
328.5529151785
  0
LINE
  8
1
  6
CONTINUOUS
 62
     7
 10
245.0818220197
 20
334.6438242694
 11
255.0818220197
 21
334.6438242694
  0
LINE
  8
1
  6
CONTINUOUS
 62
     7
 10
255.0818220197
 20
345.4438242694
 11
255.0818220197
 21
310.4438242694
  0
LINE
  8
1
  6
CONTINUOUS
 62
     7
 10
245.0818220197
 20
335.4559454815
 11
255.0818220197
 21
335.4559454815
  0
LINE
  8
1
  6
CENTER
 62
     1
 10
264.0818220197
 20
346.6573362188
 11
264.0818220197
 21
309.9820449399
  0
LINE
  8
1
  6
CONTINUOUS
 62
     7
 10
245.0818220197
 20
329.7710969967
 11
255.0818220197
 21
329.7710969967
  0
LINE
  8
1
  6
CONTINUOUS
 62
     7
 10
255.0818220197
 20
333.0195818451
 11
245.0818220197
 21
333.0195818451
  0
LINE
  8
1
  6
CONTINUOUS
 62
     7
 10
245.0818220197
 20
333.8317030573
 11
255.0818220197
 21
333.8317030573
  0
LINE
  8
1
  6
CONTINUOUS
 62
     7
 10
245.0818220197
 20
336.2680666936
 11
255.0818220197
 21
336.2680666936
  0
LINE
  8
1
  6
CONTINUOUS
 62
     7
 10
245.0818220197
 20
337.0801879057
 11
255.0818220197
 21
337.0801879057
  0
LINE
  8
1
  6
CENTER
 62
     1
 10
232.1908078231
 20
327.9438242694
 11
296.4737686961
 21
327.9438242694
  0
LINE
  8
1
  6
CONTINUOUS
 62
     7
 10
255.0818220197
 20
332.00443033
 11
245.0818220197
 21
332.00443033
  0
LINE
  8
1
  6
CONTINUOUS
 62
     7
 10
283.0818220197
 20
317.1832182088
 11
273.0818220197
 21
317.1832182088
  0
LINE
  8
1
  6
CONTINUOUS
 62
     7
 10
283.0818220197
 20
316.4726121482
 11
273.0818220197
 21
316.4726121482
  0
LINE
  8
1
  6
CONTINUOUS
 62
     7
 10
283.0818220197
 20
310.9907939664
 11
273.0818220197
 21
310.9907939664
  0
LINE
  8
1
  6
CONTINUOUS
 62
     7
 10
283.0818220197
 20
324.898369724
 11
273.0818220197
 21
324.898369724
  0
LINE
  8
1
  6
CONTINUOUS
 62
     7
 10
283.0818220197
 20
315.25443033
 11
273.0818220197
 21
315.25443033
  0
LINE
  8
1
  6
CONTINUOUS
 62
     7
 10
283.0818220197
 20
317.9953394209
 11
273.0818220197
 21
317.9953394209
  0
LINE
  8
1
  6
CONTINUOUS
 62
     7
 10
283.0818220197
 20
322.0559454815
 11
273.0818220197
 21
322.0559454815
  0
LINE
  8
1
  6
CONTINUOUS
 62
     7
 10
283.0818220197
 20
314.0362485118
 11
273.0818220197
 21
314.0362485118
  0
LINE
  8
1
  6
CONTINUOUS
 62
     7
 10
283.0818220197
 20
319.6195818452
 11
273.0818220197
 21
319.6195818452
  0
LINE
  8
1
  6
CONTINUOUS
 62
     7
 10
283.0818220197
 20
314.6453394209
 11
273.0818220197
 21
314.6453394209
  0
LINE
  8
1
  6
CONTINUOUS
 62
     7
 10
283.0818220197
 20
312.2089757846
 11
273.0818220197
 21
312.2089757846
  0
LINE
  8
1
  6
CONTINUOUS
 62
     7
 10
283.0818220197
 20
327.3347333603
 11
273.0818220197
 21
327.3347333603
  0
LINE
  8
1
  6
CONTINUOUS
 62
     7
 10
283.0818220197
 20
311.5998848755
 11
273.0818220197
 21
311.5998848755
  0
LINE
  8
1
  6
CENTER
 62
     1
 10
306.9379660422
 20
327.9438242694
 11
349.5638840518
 21
327.9438242694
  0
CIRCLE
  8
1
  6
CONTINUOUS
 62
     7
 10
264.0818220197
 20
327.9438242694
 40
4.0
  0
LINE
  8
1
  6
CONTINUOUS
 62
     7
 10
283.0818220197
 20
318.8074606331
 11
273.0818220197
 21
318.8074606331
  0
LINE
  8
1
  6
CONTINUOUS
 62
     7
 10
273.0818220197
 20
322.8680666937
 11
283.0818220197
 21
322.8680666937
  0
LINE
  8
1
  6
CONTINUOUS
 62
     7
 10
273.0818220197
 20
315.8635212391
 11
283.0818220197
 21
315.8635212391
  0
LINE
  8
1
  6
CONTINUOUS
 62
     7
 10
283.0818220197
 20
312.8180666937
 11
273.0818220197
 21
312.8180666937
  0
LINE
  8
1
  6
CENTER
 62
     1
 10
328.2113714855
 20
348.9950824345
 11
328.2113714855
 21
306.1870023821
  0
LINE
  8
1
  6
CONTINUOUS
 62
     7
 10
283.0818220197
 20
344.8968545724
 11
273.0818220197
 21
344.8968545724
  0
LINE
  8
1
  6
CONTINUOUS
 62
     7
 10
273.0818220197
 20
323.8832182088
 11
283.0818220197
 21
323.8832182088
  0
LINE
  8
1
  6
CONTINUOUS
 62
     7
 10
283.0818220197
 20
321.2438242694
 11
273.0818220197
 21
321.2438242694
  0
LINE
  8
1
  6
CONTINUOUS
 62
     7
 10
283.0818220197
 20
320.4317030573
 11
273.0818220197
 21
320.4317030573
  0
LINE
  8
1
  6
CONTINUOUS
 62
     7
 10
283.0818220197
 20
326.1165515421
 11
273.0818220197
 21
326.1165515421
  0
LINE
  8
1
  6
CONTINUOUS
 62
     7
 10
283.0818220197
 20
313.4271576028
 11
273.0818220197
 21
313.4271576028
  0
LINE
  8
1
  6
CONTINUOUS
 62
     7
 10
245.0818220197
 20
340.6332182088
 11
255.0818220197
 21
340.6332182088
  0
LINE
  8
1
  6
CONTINUOUS
 62
     7
 10
245.0818220197
 20
320.4317030573
 11
255.0818220197
 21
320.4317030573
  0
LINE
  8
1
  6
CONTINUOUS
 62
     7
 10
245.0818220197
 20
319.6195818452
 11
255.0818220197
 21
319.6195818452
  0
LINE
  8
1
  6
CONTINUOUS
 62
     7
 10
245.0818220197
 20
343.6786727542
 11
255.0818220197
 21
343.6786727542
  0
LINE
  8
1
  6
CONTINUOUS
 62
     7
 10
245.0818220197
 20
318.8074606331
 11
255.0818220197
 21
318.8074606331
  0
LINE
  8
1
  6
CONTINUOUS
 62
     7
 10
245.0818220197
 20
324.898369724
 11
255.0818220197
 21
324.898369724
  0
LINE
  8
1
  6
CONTINUOUS
 62
     7
 10
245.0818220197
 20
327.3347333603
 11
255.0818220197
 21
327.3347333603
  0
LINE
  8
1
  6
CONTINUOUS
 62
     7
 10
255.0818220197
 20
322.8680666937
 11
245.0818220197
 21
322.8680666937
  0
LINE
  8
1
  6
CONTINUOUS
 62
     7
 10
245.0818220197
 20
338.70443033
 11
255.0818220197
 21
338.70443033
  0
LINE
  8
1
  6
CONTINUOUS
 62
     7
 10
245.0818220197
 20
317.1832182088
 11
255.0818220197
 21
317.1832182088
  0
LINE
  8
1
  6
CONTINUOUS
 62
     7
 10
245.0818220197
 20
341.2423091179
 11
255.0818220197
 21
341.2423091179
  0
LINE
  8
1
  6
CONTINUOUS
 62
     7
 10
255.0818220197
 20
340.0241272997
 11
245.0818220197
 21
340.0241272997
  0
LINE
  8
1
  6
CONTINUOUS
 62
     7
 10
245.0818220197
 20
344.8968545724
 11
255.0818220197
 21
344.8968545724
  0
LINE
  8
1
  6
CONTINUOUS
 62
     7
 10
255.0818220197
 20
315.8635212391
 11
245.0818220197
 21
315.8635212391
  0
LINE
  8
1
  6
CONTINUOUS
 62
     7
 10
245.0818220197
 20
317.9953394209
 11
255.0818220197
 21
317.9953394209
  0
LINE
  8
1
  6
CONTINUOUS
 62
     7
 10
245.0818220197
 20
315.25443033
 11
255.0818220197
 21
315.25443033
  0
LINE
  8
1
  6
CONTINUOUS
 62
     7
 10
245.0818220197
 20
314.6453394209
 11
255.0818220197
 21
314.6453394209
  0
LINE
  8
1
  6
CONTINUOUS
 62
     7
 10
245.0818220197
 20
337.8923091179
 11
255.0818220197
 21
337.8923091179
  0
LINE
  8
1
  6
CONTINUOUS
 62
     7
 10
245.0818220197
 20
341.851400027
 11
255.0818220197
 21
341.851400027
  0
LINE
  8
1
  6
CONTINUOUS
 62
     7
 10
245.0818220197
 20
316.4726121482
 11
255.0818220197
 21
316.4726121482
  0
LINE
  8
1
  6
CONTINUOUS
 62
     7
 10
255.0818220197
 20
323.8832182088
 11
245.0818220197
 21
323.8832182088
  0
LINE
  8
1
  6
CONTINUOUS
 62
     7
 10
245.0818220197
 20
321.2438242694
 11
255.0818220197
 21
321.2438242694
  0
LINE
  8
1
  6
CONTINUOUS
 62
     7
 10
245.0818220197
 20
339.4150363906
 11
255.0818220197
 21
339.4150363906
  0
LINE
  8
1
  6
CONTINUOUS
 62
     7
 10
245.0818220197
 20
343.0695818451
 11
255.0818220197
 21
343.0695818451
  0
LINE
  8
1
  6
CONTINUOUS
 62
     7
 10
245.0818220197
 20
342.460490936
 11
255.0818220197
 21
342.460490936
  0
LINE
  8
1
  6
CONTINUOUS
 62
     7
 10
245.0818220197
 20
326.1165515421
 11
255.0818220197
 21
326.1165515421
  0
LINE
  8
1
  6
CONTINUOUS
 62
     7
 10
245.0818220197
 20
344.2877636633
 11
255.0818220197
 21
344.2877636633
  0
LINE
  8
1
  6
CONTINUOUS
 62
     7
 10
245.0818220197
 20
322.0559454815
 11
255.0818220197
 21
322.0559454815
  0
ARC
  8
1
  6
CONTINUOUS
 62
     7
 10
327.9064604855
 20
327.9435952694
 40
9.231738
 50
1.036099
 51
178.167984
  0
ARC
  8
1
  6
CONTINUOUS
 62
     7
 10
328.2113714855
 20
327.9438242694
 40
11.05
 50
22.084494
 51
37.91590699999999
  0
LINE
  8
1
  6
CONTINUOUS
 62
     7
 10
245.0818220197
 20
310.4438242694
 11
245.0818220197
 21
345.4438242694
  0
ARC
  8
1
  6
CONTINUOUS
 62
     7
 10
327.9070144855
 20
327.9439412694
 40
9.231741
 50
181.916809
 51
357.154078
  0
LINE
  8
1
  6
CONTINUOUS
 62
     7
 10
337.1273704855
 20
327.4855822694
 11
337.1334354855
 21
327.6318232694
  0
ARC
  8
1
  6
CONTINUOUS
 62
     7
 10
327.9067164855
 20
327.9438242694
 40
10.75
 50
261.185003
 51
103.43137
  0
ARC
  8
1
  6
CONTINUOUS
 62
     7
 10
328.2113714855
 20
327.9438242694
 40
11.05
 50
75.0
 51
105.0
  0
ARC
  8
1
  6
CONTINUOUS
 62
     7
 10
328.2113714855
 20
327.9438242694
 40
11.05
 50
322.084461
 51
337.915911
  0
LINE
  8
1
  6
CONTINUOUS
 62
     7
 10
337.1334354855
 20
327.6318232694
 11
337.1382094855
 21
327.8575962694
  0
LINE
  8
1
  6
CONTINUOUS
 62
     7
 10
337.1365808554
 20
327.4855422809
 11
337.1385736241
 21
327.9407822688
  0
ARC
  8
1
  6
CONTINUOUS
 62
     7
 10
328.2113714855
 20
327.9438242694
 40
11.05
 50
262.084497
 51
277.915908
  0
CIRCLE
  8
1
  6
CONTINUOUS
 62
     7
 10
327.9067164855
 20
327.9438242694
 40
7.436948
  0
LINE
  8
1
  6
CONTINUOUS
 62
     7
 10
318.6794414855
 20
328.2387272694
 11
318.6748556899
 21
327.9431042662
  0
LINE
  8
1
  6
CONTINUOUS
 62
     7
 10
337.5287634855
 20
334.7149272694
 11
337.3464394855
 21
334.6938142694
  0
LINE
  8
1
  6
CONTINUOUS
 62
     7
 10
330.9936764855
 20
338.3275272694
 11
331.2783774855
 21
339.3900452694
  0
ARC
  8
1
  6
CONTINUOUS
 62
     7
 10
328.2113714855
 20
327.9438242694
 40
10.75
 50
162.32474
 51
197.67526
  0
CIRCLE
  8
1
  6
CONTINUOUS
 62
     7
 10
328.2113714855
 20
327.9438242694
 40
17.5
  0
CIRCLE
  8
1
  6
CONTINUOUS
 62
     7
 10
328.2113714855
 20
327.9438242694
 40
11.85
  0
LINE
  8
1
  6
CONTINUOUS
 62
     7
 10
268.5818220197
 20
343.0938242694
 11
259.5818220197
 21
343.0938242694
  0
LINE
  8
1
  6
CONTINUOUS
 62
     7
 10
259.5818220197
 20
312.7938242694
 11
268.5818220197
 21
312.7938242694
  0
ARC
  8
1
  6
CONTINUOUS
 62
     7
 10
337.2693714855
 20
336.1936542694
 40
1.501818
 50
222.339742
 51
272.941513
  0
LINE
  8
1
  6
CONTINUOUS
 62
     7
 10
337.5287634855
 20
334.7149272694
 11
337.8893514855
 21
334.7785092694
  0
ARC
  8
1
  6
CONTINUOUS
 62
     7
 10
328.2113714855
 20
327.9438242694
 40
10.75
 50
42.32474
 51
75.0
  0
LINE
  8
1
  6
CONTINUOUS
 62
     7
 10
317.6887274855
 20
332.6273712694
 11
317.7981674855
 21
332.4800402694
  0
ARC
  8
1
  6
CONTINUOUS
 62
     7
 10
316.5378104855
 20
331.6633672694
 40
1.501818
 50
342.339738
 51
32.94199700000001
  0
ARC
  8
1
  6
PHANTOM
 62
     7
 10
316.5398304855
 20
324.2244252694
 40
1.499849
 50
319.996815
 51
17.67844500000001
  0
ARC
  8
1
  6
PHANTOM
 62
     7
 10
337.2682354855
 20
319.6956732694
 40
1.499849
 50
79.99681800000002
 51
137.678442
  0
LINE
  8
1
  6
CONTINUOUS
 62
     7
 10
317.6887274855
 20
332.6273712694
 11
317.4533714855
 21
332.9078582694
  0
LINE
  8
1
  6
CONTINUOUS
 62
     7
 10
329.4166224855
 20
316.4891742694
 11
329.4894994855
 21
316.6576262694
  0
LINE
  8
1
  6
CONTINUOUS
 62
     7
 10
338.7340154855
 20
323.2602772694
 11
338.9693724855
 21
322.9797902694
  0
LINE
  8
1
  6
CONTINUOUS
 62
     7
 10
317.4533714855
 20
322.9797902694
 11
317.6887274855
 21
323.2602772694
  0
LINE
  8
1
  6
CONTINUOUS
 62
     7
 10
338.9693724855
 20
332.9078582694
 11
338.7340154855
 21
332.6273712694
  0
ARC
  8
1
  6
CONTINUOUS
 62
     7
 10
330.8269334855
 20
315.9744522694
 40
1.501818
 50
102.339741
 51
152.941595
  0
ARC
  8
1
  6
PHANTOM
 62
     7
 10
339.8829124855
 20
331.6632232694
 40
1.499849
 50
139.996815
 51
197.678445
  0
LINE
  8
1
  6
CONTINUOUS
 62
     7
 10
338.7340154855
 20
323.2602772694
 11
338.6245754855
 21
323.4076082694
  0
ARC
  8
1
  6
CONTINUOUS
 62
     7
 10
339.8849324855
 20
324.2242812694
 40
1.501818
 50
162.339738
 51
212.941997
  0
ARC
  8
1
  6
CONTINUOUS
 62
     7
 10
328.2113714855
 20
327.9438242694
 40
10.75
 50
342.3247400000001
 51
17.67525999999998
  0
ARC
  8
1
  6
CONTINUOUS
 62
     7
 10
328.2113714855
 20
327.9438242694
 40
10.75
 50
282.32474
 51
317.67526
  0
LINE
  8
1
  6
CONTINUOUS
 62
     7
 10
337.8893514855
 20
321.1091392694
 11
337.5287634855
 21
321.1727212694
  0
LINE
  8
1
  6
CONTINUOUS
 62
     7
 10
245.0818220197
 20
345.4438242694
 11
232.4524124874619
 21
342.059783912859
  0
LINE
  8
1
  6
CONTINUOUS
 62
     7
 10
283.0818220197
 20
310.4438242694
 11
295.7112315415558
 21
313.8278643321693
  0
LINE
  8
1
  6
CONTINUOUS
 62
     7
 10
295.7112315415558
 20
342.0597842066308
 11
283.0818220197
 21
345.4438242694
  0
LINE
  8
1
  6
CONTINUOUS
 62
     7
 10
232.4524124874619
 20
313.827864625941
 11
245.0818220197
 21
310.4438242694
  0
LINE
  8
1
  6
CONTINUOUS
 62
     7
 10
273.0818220197
 20
332.00443033
 11
283.0818220197
 21
332.00443033
  0
LINE
  8
1
  6
CONTINUOUS
 62
     7
 10
283.0818220197
 20
335.4559454815
 11
273.0818220197
 21
335.4559454815
  0
LINE
  8
1
  6
CONTINUOUS
 62
     7
 10
283.0818220197
 20
334.6438242694
 11
273.0818220197
 21
334.6438242694
  0
LINE
  8
1
  6
CONTINUOUS
 62
     7
 10
283.0818220197
 20
337.0801879057
 11
273.0818220197
 21
337.0801879057
  0
LINE
  8
1
  6
CONTINUOUS
 62
     7
 10
283.0818220197
 20
340.6332182088
 11
273.0818220197
 21
340.6332182088
  0
LINE
  8
1
  6
CONTINUOUS
 62
     7
 10
245.0818220197
 20
312.8180666937
 11
255.0818220197
 21
312.8180666937
  0
LINE
  8
1
  6
CONTINUOUS
 62
     7
 10
245.0818220197
 20
311.5998848755
 11
255.0818220197
 21
311.5998848755
  0
LINE
  8
1
  6
CONTINUOUS
 62
     7
 10
283.0818220197
 20
330.9892788148
 11
273.0818220197
 21
330.9892788148
  0
LINE
  8
1
  6
CONTINUOUS
 62
     7
 10
283.0818220197
 20
328.5529151785
 11
273.0818220197
 21
328.5529151785
  0
LINE
  8
1
  6
CONTINUOUS
 62
     7
 10
283.0818220197
 20
337.8923091179
 11
273.0818220197
 21
337.8923091179
  0
LINE
  8
1
  6
CONTINUOUS
 62
     7
 10
283.0818220197
 20
344.2877636633
 11
273.0818220197
 21
344.2877636633
  0
LINE
  8
1
  6
CONTINUOUS
 62
     7
 10
245.0818220197
 20
312.2089757846
 11
255.0818220197
 21
312.2089757846
  0
LINE
  8
1
  6
CONTINUOUS
 62
     7
 10
245.0818220197
 20
314.0362485118
 11
255.0818220197
 21
314.0362485118
  0
LINE
  8
1
  6
CONTINUOUS
 62
     7
 10
283.0818220197
 20
338.70443033
 11
273.0818220197
 21
338.70443033
  0
LINE
  8
1
  6
CONTINUOUS
 62
     7
 10
245.0818220197
 20
313.4271576028
 11
255.0818220197
 21
313.4271576028
  0
LINE
  8
1
  6
CONTINUOUS
 62
     7
 10
283.0818220197
 20
329.7710969967
 11
273.0818220197
 21
329.7710969967
  0
LINE
  8
1
  6
CONTINUOUS
 62
     7
 10
273.0818220197
 20
340.0241272997
 11
283.0818220197
 21
340.0241272997
  0
LINE
  8
1
  6
CONTINUOUS
 62
     7
 10
283.0818220197
 20
342.460490936
 11
273.0818220197
 21
342.460490936
  0
LINE
  8
1
  6
CONTINUOUS
 62
     7
 10
283.0818220197
 20
333.8317030573
 11
273.0818220197
 21
333.8317030573
  0
LINE
  8
1
  6
CONTINUOUS
 62
     7
 10
283.0818220197
 20
341.2423091179
 11
273.0818220197
 21
341.2423091179
  0
LINE
  8
1
  6
CONTINUOUS
 62
     7
 10
273.0818220197
 20
333.0195818451
 11
283.0818220197
 21
333.0195818451
  0
LINE
  8
1
  6
CONTINUOUS
 62
     7
 10
283.0818220197
 20
343.6786727542
 11
273.0818220197
 21
343.6786727542
  0
LINE
  8
1
  6
CONTINUOUS
 62
     7
 10
245.0818220197
 20
310.9907939664
 11
255.0818220197
 21
310.9907939664
  0
LINE
  8
1
  6
CONTINUOUS
 62
     7
 10
273.0818220197
 20
345.4438242694
 11
273.0818220197
 21
310.4438242694
  0
LINE
  8
1
  6
CONTINUOUS
 62
     7
 10
283.0818220197
 20
343.0695818451
 11
273.0818220197
 21
343.0695818451
  0
LINE
  8
1
  6
CONTINUOUS
 62
     7
 10
283.0818220197
 20
336.2680666936
 11
273.0818220197
 21
336.2680666936
  0
LINE
  8
1
  6
CONTINUOUS
 62
     7
 10
283.0818220197
 20
339.4150363906
 11
273.0818220197
 21
339.4150363906
  0
LINE
  8
1
  6
CONTINUOUS
 62
     7
 10
283.0818220197
 20
341.851400027
 11
273.0818220197
 21
341.851400027
  0
LINE
  8
1
  6
CONTINUOUS
 62
     7
 10
318.5333914855
 20
334.7785092694
 11
318.8939794855
 21
334.7149272694
  0
LINE
  8
1
  6
CONTINUOUS
 62
     7
 10
325.1443654855
 20
339.3900452694
 11
325.4290664855
 21
338.3275272694
  0
LINE
  8
1
  6
CONTINUOUS
 62
     7
 10
318.8939794855
 20
321.1727212694
 11
318.5333914855
 21
321.1091392694
  0
ARC
  8
1
  6
CONTINUOUS
 62
     7
 10
328.2113714855
 20
327.9438242694
 40
10.75
 50
105.0
 51
137.67526
  0
CIRCLE
  8
1
  6
CONTINUOUS
 62
     7
 10
327.9067164855
 20
327.9438242694
 40
8.0
  0
ARC
  8
1
  6
PHANTOM
 62
     7
 10
319.1545074855
 20
336.1919752694
 40
1.499849
 50
259.996818
 51
317.678442
  0
LINE
  8
1
  6
CONTINUOUS
 62
     7
 10
337.1375684855
 20
327.8238012694
 11
337.1385694855
 21
327.9407822694
  0
LINE
  8
1
  6
CONTINUOUS
 62
     7
 10
318.6748644855
 20
327.9431032694
 11
318.6785474855
 21
328.1708242694
  0
LINE
  8
1
  6
CONTINUOUS
 62
     7
 10
337.1313374855
 20
327.6272712694
 11
337.1375684855
 21
327.8238012694
  0
ARC
  8
1
  6
CONTINUOUS
 62
     7
 10
330.9244914855
 20
327.9745722694
 40
6.21417
 50
359.688445
 51
64.865889
  0
LINE
  8
1
  6
CONTINUOUS
 62
     7
 10
331.4397014855
 20
319.4146402694
 11
331.3253314855
 21
319.3685402694
  0
ARC
  8
1
  6
CONTINUOUS
 62
     7
 10
330.7315184855
 20
328.0412752694
 40
6.413196
 50
296.211766
 51
356.298696
  0
TEXT
  8
0
  6
CONTINUOUS
 62
     7
 10
321.8668875828436
 20
298.0498233712642
 40
3.5
  1
MFPC-16W
  0
LINE
  8
1
  6
CONTINUOUS
 62
     7
 10
329.4166224855
 20
316.4891742694
 11
329.2913914855
 21
316.1451052694
  0
LINE
  8
1
  6
CONTINUOUS
 62
     7
 10
318.8939794855
 20
321.1727212694
 11
319.0763034855
 21
321.1938342694
  0
ARC
  8
1
  6
CONTINUOUS
 62
     7
 10
319.1533724855
 20
319.6939942694
 40
1.501818
 50
42.33974199999999
 51
92.941513
  0
ARC
  8
1
  6
CONTINUOUS
 62
     7
 10
328.2113714855
 20
327.9438242694
 40
10.75
 50
222.32474
 51
257.67526
  0
ARC
  8
1
  6
PHANTOM
 62
     7
 10
325.5966954855
 20
315.9762742694
 40
1.499849
 50
19.996815
 51
77.678445
  0
LINE
  8
1
  6
CONTINUOUS
 62
     7
 10
327.1313514855
 20
316.1451052694
 11
327.0061204855
 21
316.4891742694
  0
ARC
  8
0
  6
CONTINUOUS
 62
     7
 10
295.5818220197
 20
314.3108272455001
 40
0.5
 50
284.9999999174892
 51
0.0
  0
ARC
  8
0
  6
CONTINUOUS
 62
     7
 10
232.5818220197
 20
341.5768210023101
 40
0.5
 50
105.0000011491861
 51
180.0
  0
ARC
  8
0
  6
CONTINUOUS
 62
     7
 10
295.5818220197
 20
341.5768212932999
 40
0.5
 50
0.0
 51
75.00000008251084
  0
ARC
  8
0
  6
CONTINUOUS
 62
     7
 10
232.5818220197
 20
314.31082753649
 40
0.5
 50
180.0
 51
254.9999988508156
  0
ARC
  8
1
  6
CONTINUOUS
 62
     7
 10
328.2113714855
 20
327.9438242694
 40
11.05
 50
142.084461
 51
157.915911
  0
ARC
  8
1
  6
CONTINUOUS
 62
     7
 10
324.9756574855
 20
327.9678482694
 40
6.300841
 50
180.225008
 51
244.36385
  0
LINE
  8
1
  6
CONTINUOUS
 62
     7
 10
318.6785474855
 20
328.1708242694
 11
318.6810894855
 21
328.2378152694
  0
ARC
  8
1
  6
CONTINUOUS
 62
     7
 10
327.9067164855
 20
327.9438242694
 40
10.75
 50
140.653835
 51
157.428846
  0
ARC
  8
1
  6
CONTINUOUS
 62
     7
 10
327.9067164855
 20
327.9438242694
 40
10.75
 50
202.571562
 51
219.346585
  0
ARC
  8
1
  6
CONTINUOUS
 62
     7
 10
324.9763014855
 20
327.9171622694
 40
6.303373
 50
115.634299
 51
177.084099
  0
LINE
  8
0
  6
CONTINUOUS
 62
     7
 10
296.0818220197
 20
341.5768212932999
 11
296.0818220197
 21
314.3108272455001
  0
LINE
  8
0
  6
CONTINUOUS
 62
     7
 10
232.0818220197
 20
314.31082753649
 11
232.0818220197
 21
341.5768210023101
  0
ARC
  8
1
  6
CONTINUOUS
 62
     7
 10
258.2518020197
 20
344.1938242694
 40
1.0
 50
15.0
 51
90.0
  0
LINE
  8
1
  6
CONTINUOUS
 62
     7
 10
259.2177280197
 20
311.4350052694
 11
259.5818220197
 21
312.7938242694
  0
ARC
  8
1
  6
CONTINUOUS
 62
     7
 10
258.2518020197
 20
311.6938242694
 40
1.0
 50
270.0
 51
345.0
  0
LINE
  8
1
  6
CONTINUOUS
 62
     7
 10
269.9118430197
 20
310.6938242694
 11
271.0818220197
 21
310.6938242694
  0
LINE
  8
1
  6
CONTINUOUS
 62
     7
 10
259.5818220197
 20
343.0938242694
 11
259.2177280197
 21
344.4526432694
  0
LINE
  8
1
  6
CONTINUOUS
 62
     7
 10
268.9459170197
 20
344.4526432694
 11
268.5818220197
 21
343.0938242694
  0
LINE
  8
1
  6
CONTINUOUS
 62
     7
 10
268.5818220197
 20
312.7938242694
 11
268.9459170197
 21
311.4350052694
  0
LINE
  8
1
  6
CONTINUOUS
 62
     7
 10
258.2518020197
 20
345.1938242694
 11
257.0818220197
 21
345.1938242694
  0
ARC
  8
1
  6
CONTINUOUS
 62
     7
 10
269.9118430197
 20
344.1938242694
 40
1.0
 50
90.0
 51
165.0
  0
LINE
  8
1
  6
CONTINUOUS
 62
     7
 10
271.0818220197
 20
345.1938242694
 11
269.9118430197
 21
345.1938242694
  0
LINE
  8
1
  6
CONTINUOUS
 62
     7
 10
257.0818220197
 20
310.6938242694
 11
258.2518020197
 21
310.6938242694
  0
ARC
  8
1
  6
CONTINUOUS
 62
     7
 10
269.9118430197
 20
311.6938242694
 40
1.0
 50
195.0
 51
270.0
  0
LINE
  8
1
  6
CONTINUOUS
 62
     7
 10
271.0818220197
 20
310.4438242694
 11
271.0818220197
 21
345.4438242694
  0
LINE
  8
1
  6
CONTINUOUS
 62
     7
 10
283.0818220197
 20
310.4438242694
 11
283.0818220197
 21
345.4438242694
  0
LINE
  8
1
  6
CONTINUOUS
 62
     7
 10
257.0818220197
 20
310.4438242694
 11
257.0818220197
 21
345.4438242694
  0
LINE
  8
1
  6
CONTINUOUS
 62
     7
 10
268.5818220197
 20
312.7938242694
 11
268.5818220197
 21
343.0938242694
  0
LINE
  8
1
  6
CONTINUOUS
 62
     7
 10
259.5818220197
 20
343.0938242694
 11
259.5818220197
 21
312.7938242694
  0
LINE
  8
1
  6
CONTINUOUS
 62
     7
 10
245.0818220197
 20
310.4438242694
 11
257.0818220197
 21
310.4438242694
  0
LINE
  8
1
  6
CONTINUOUS
 62
     7
 10
283.0818220197
 20
345.4438242694
 11
271.0818220197
 21
345.4438242694
  0
LINE
  8
1
  6
CONTINUOUS
 62
     7
 10
271.0818220197
 20
310.4438242694
 11
283.0818220197
 21
310.4438242694
  0
LINE
  8
1
  6
CONTINUOUS
 62
     7
 10
257.0818220197
 20
345.4438242694
 11
245.0818220197
 21
345.4438242694
  0
ENDSEC
  0
EOF
