  0
SECTION
  2
HEADER
  9
$ACADVER
  1
AC1006
  9
$DWGCODEPAGE
  3
ansi_932
  9
$INSBASE
 10
0.0
 20
0.0
 30
0.0
  9
$EXTMIN
 10
1343.6436571555
 20
367.3312880985368
  9
$EXTMAX
 10
1509.882581196448
 20
407.5125217015
  9
$LIMMIN
 10
0.0
 20
0.0
  9
$LIMMAX
 10
12.0
 20
9.0
  9
$ORTHOMODE
 70
     0
  9
$REGENMODE
 70
     1
  9
$FILLMODE
 70
     1
  9
$QTEXTMODE
 70
     0
  9
$MIRRTEXT
 70
     1
  9
$DRAGMODE
 70
     2
  9
$LTSCALE
 40
1.0
  9
$OSMODE
 70
    37
  9
$ATTMODE
 70
     1
  9
$TEXTSIZE
 40
0.2
  9
$TRACEWID
 40
0.05
  9
$TEXTSTYLE
  7
STANDARD
  9
$CLAYER
  8
0
  9
$CELTYPE
  6
BYLAYER
  9
$CECOLOR
 62
   256
  9
$DIMSCALE
 40
1.0
  9
$DIMASZ
 40
2.0
  9
$DIMEXO
 40
0.0625
  9
$DIMDLI
 40
0.38
  9
$DIMRND
 40
0.0
  9
$DIMDLE
 40
0.0
  9
$DIMEXE
 40
1.0
  9
$DIMTP
 40
0.0
  9
$DIMTM
 40
0.0
  9
$DIMTXT
 40
3.2
  9
$DIMCEN
 40
0.09
  9
$DIMTSZ
 40
0.0
  9
$DIMTOL
 70
     0
  9
$DIMLIM
 70
     0
  9
$DIMTIH
 70
     1
  9
$DIMTOH
 70
     1
  9
$DIMSE1
 70
     0
  9
$DIMSE2
 70
     0
  9
$DIMTAD
 70
     1
  9
$DIMZIN
 70
     0
  9
$DIMBLK
  1

  9
$DIMASO
 70
     1
  9
$DIMSHO
 70
     1
  9
$DIMPOST
  1

  9
$DIMAPOST
  1

  9
$DIMALT
 70
     0
  9
$DIMALTD
 70
     2
  9
$DIMALTF
 40
25.4
  9
$DIMLFAC
 40
1.0
  9
$DIMTOFL
 70
     0
  9
$DIMTVP
 40
0.0
  9
$DIMTIX
 70
     0
  9
$DIMSOXD
 70
     0
  9
$DIMSAH
 70
     0
  9
$DIMBLK1
  1

  9
$DIMBLK2
  1

  9
$LUNITS
 70
     2
  9
$LUPREC
 70
     4
  9
$SKETCHINC
 40
0.1
  9
$FILLETRAD
 40
0.5
  9
$AUNITS
 70
     0
  9
$AUPREC
 70
     0
  9
$MENU
  1
.
  9
$ELEVATION
 40
0.0
  9
$THICKNESS
 40
0.0
  9
$LIMCHECK
 70
     0
  9
$CHAMFERA
 40
0.0
  9
$CHAMFERB
 40
0.0
  9
$SKPOLY
 70
     0
  9
$TDCREATE
 40
2460426.583415486
  9
$TDUPDATE
 40
2460426.583415625
  9
$TDINDWG
 40
0.0000000116
  9
$TDUSRTIMER
 40
0.0000000116
  9
$USRTIMER
 70
     1
  9
$ANGBASE
 50
0.0
  9
$ANGDIR
 70
     0
  9
$PDMODE
 70
     0
  9
$PDSIZE
 40
0.0
  9
$PLINEWID
 40
0.0
  9
$COORDS
 70
     1
  9
$SPLFRAME
 70
     0
  9
$SPLINETYPE
 70
     6
  9
$SPLINESEGS
 70
     8
  9
$ATTDIA
 70
     0
  9
$ATTREQ
 70
     1
  9
$HANDLING
 70
     1
  9
$HANDSEED
  5
C9
  9
$SURFTAB1
 70
     6
  9
$SURFTAB2
 70
     6
  9
$SURFTYPE
 70
     6
  9
$SURFU
 70
     6
  9
$SURFV
 70
     6
  9
$UCSNAME
  2

  9
$UCSORG
 10
0.0
 20
0.0
 30
0.0
  9
$UCSXDIR
 10
1.0
 20
0.0
 30
0.0
  9
$UCSYDIR
 10
0.0
 20
1.0
 30
0.0
  9
$USERI1
 70
     0
  9
$USERI2
 70
     0
  9
$USERI3
 70
     0
  9
$USERI4
 70
     0
  9
$USERI5
 70
     0
  9
$USERR1
 40
0.0
  9
$USERR2
 40
0.0
  9
$USERR3
 40
0.0
  9
$USERR4
 40
0.0
  9
$USERR5
 40
0.0
  9
$WORLDVIEW
 70
     1
  0
ENDSEC
  0
SECTION
  2
TABLES
  0
TABLE
  2
VPORT
 70
     1
  0
VPORT
  2
*ACTIVE
 70
     0
 10
0.0
 20
0.0
 11
1.0
 21
1.0
 12
1426.763119175974
 22
387.4219049000184
 13
0.0
 23
0.0
 14
0.5
 24
0.5
 15
0.5
 25
0.5
 16
0.0
 26
0.0
 36
1.0
 17
0.0
 27
0.0
 37
0.0
 40
40.18123360296318
 41
1.6
 42
50.0
 43
0.0
 44
0.0
 50
0.0
 51
0.0
 71
     0
 72
   100
 73
     1
 74
     3
 75
     0
 76
     0
 77
     0
 78
     0
  0
ENDTAB
  0
TABLE
  2
LTYPE
 70
     2
  0
LTYPE
  2
CONTINUOUS
 70
     0
  3
Solid line
 72
    65
 73
     0
 40
0.0
  0
LTYPE
  2
CENTER
 70
     0
  3

 72
    65
 73
     0
 40
0.0
  0
ENDTAB
  0
TABLE
  2
LAYER
 70
     2
  0
LAYER
  2
0
 70
     0
 62
     7
  6
CONTINUOUS
  0
LAYER
  2
1
 70
     0
 62
     7
  6
CONTINUOUS
  0
ENDTAB
  0
TABLE
  2
STYLE
 70
     2
  0
STYLE
  2
STANDARD
 70
     0
 40
0.0
 41
1.0
 50
0.0
 71
     0
 42
0.2
  3
txt
  4

  0
STYLE
  2
ＭＳ_ゴシック
 70
     0
 40
0.0
 41
1.0
 50
0.0
 71
     0
 42
0.2
  3
ＭＳ ゴシック.shx
  4

  0
ENDTAB
  0
TABLE
  2
VIEW
 70
     0
  0
ENDTAB
  0
TABLE
  2
UCS
 70
     0
  0
ENDTAB
  0
ENDSEC
  0
SECTION
  2
BLOCKS
  0
ENDSEC
  0
SECTION
  2
ENTITIES
  0
LINE
  5
70
  8
1
  6
CONTINUOUS
 62
     7
 10
1439.5956845078
 20
385.1818568376
 30
0.0
 11
1439.25811509
 21
384.2455599933
 31
0.0
  0
LINE
  5
71
  8
1
  6
CONTINUOUS
 62
     7
 10
1439.0867879066
 20
377.9761318906
 30
0.0
 11
1438.5788754055
 21
376.6980187268
 31
0.0
  0
LINE
  5
72
  8
1
  6
CONTINUOUS
 62
     7
 10
1439.8130018035
 20
402.1724043376
 30
0.0
 11
1439.9204165382
 21
400.9405144763
 31
0.0
  0
LINE
  5
73
  8
1
  6
CONTINUOUS
 62
     7
 10
1441.6508894714
 20
379.3271105564
 30
0.0
 11
1441.7256878215
 21
378.40870427
 31
0.0
  0
LINE
  5
74
  8
1
  6
CONTINUOUS
 62
     7
 10
1441.7256878215
 20
378.40870427
 30
0.0
 11
1441.7149320867
 21
377.9761318906
 31
0.0
  0
LINE
  5
75
  8
1
  6
CONTINUOUS
 62
     7
 10
1441.2070195856
 20
376.6980187268
 30
0.0
 11
1440.845857248
 21
376.3002020047
 31
0.0
  0
LINE
  5
76
  8
1
  6
CONTINUOUS
 62
     7
 10
1441.5827446647
 20
383.3233188707
 30
0.0
 11
1441.4382853309
 21
382.5408033613
 31
0.0
  0
CIRCLE
  5
77
  8
1
  6
CONTINUOUS
 62
     7
 10
1360.2302019856
 20
391.5502020047
 30
0.0
 40
14.25
  0
LINE
  5
78
  8
1
  6
CONTINUOUS
 62
     7
 10
1441.4278567711
 20
381.4794386819
 30
0.0
 11
1441.5251686362
 21
380.3794482203
 31
0.0
  0
LINE
  5
79
  8
1
  6
CONTINUOUS
 62
     7
 10
1441.7149320867
 20
377.9761318906
 30
0.0
 11
1441.2070195856
 21
376.6980187268
 31
0.0
  0
LINE
  5
7A
  8
1
  6
CONTINUOUS
 62
     7
 10
1441.4382853309
 20
382.5408033613
 30
0.0
 11
1441.4278567711
 21
381.4794386819
 31
0.0
  0
LINE
  5
7B
  8
1
  6
CONTINUOUS
 62
     7
 10
1441.8862592701
 20
384.2455599933
 30
0.0
 11
1441.5827446647
 21
383.3233188707
 31
0.0
  0
LINE
  5
7C
  8
1
  6
CONTINUOUS
 62
     7
 10
1442.4949017077
 20
387.654071122
 30
0.0
 11
1442.5448723541
 21
387.2437982099
 31
0.0
  0
LINE
  5
7D
  8
1
  6
CONTINUOUS
 62
     7
 10
1442.2595063664
 20
388.5474407126
 30
0.0
 11
1442.4949017077
 21
387.654071122
 31
0.0
  0
LINE
  5
7E
  8
1
  6
CONTINUOUS
 62
     7
 10
1442.4813880165
 20
386.1690045333
 30
0.0
 11
1442.2238286879
 21
385.1818568376
 31
0.0
  0
LINE
  5
7F
  8
1
  6
CONTINUOUS
 62
     7
 10
1440.8549878857
 20
392.4541411966
 30
0.0
 11
1441.1321402913
 21
391.4457914104
 31
0.0
  0
LINE
  5
80
  8
1
  6
CONTINUOUS
 62
     7
 10
1441.8113478412
 20
397.4810553529
 30
0.0
 11
1441.4478696193
 21
396.4926783191
 31
0.0
  0
LINE
  5
81
  8
1
  6
CONTINUOUS
 62
     7
 10
1442.2238286879
 20
385.1818568376
 30
0.0
 11
1441.8862592701
 21
384.2455599933
 31
0.0
  0
LINE
  5
82
  8
1
  6
CONTINUOUS
 62
     7
 10
1441.5251686362
 20
380.3794482203
 30
0.0
 11
1441.6508894714
 21
379.3271105564
 31
0.0
  0
LINE
  5
83
  8
1
  6
CONTINUOUS
 62
     7
 10
1442.5448723541
 20
400.3845191104
 30
0.0
 11
1442.4132939623
 21
399.4367757328
 31
0.0
  0
LINE
  5
84
  8
1
  6
CONTINUOUS
 62
     7
 10
1438.4858367812
 20
395.5103567018
 30
0.0
 11
1438.234982441
 21
394.5438904851
 31
0.0
  0
LINE
  5
85
  8
1
  6
CONTINUOUS
 62
     7
 10
1438.1185242613
 20
393.4683502154
 30
0.0
 11
1438.2268437056
 21
392.4541411966
 31
0.0
  0
LINE
  5
86
  8
1
  6
CONTINUOUS
 62
     7
 10
1439.916728174
 20
387.2437982099
 30
0.0
 11
1439.8532438364
 21
386.1690045333
 31
0.0
  0
LINE
  5
87
  8
1
  6
CONTINUOUS
 62
     7
 10
1439.25811509
 20
384.2455599933
 30
0.0
 11
1438.9546004846
 21
383.3233188707
 31
0.0
  0
LINE
  5
88
  8
1
  6
CONTINUOUS
 62
     7
 10
1438.9546004846
 20
383.3233188707
 30
0.0
 11
1438.8101411508
 21
382.5408033613
 31
0.0
  0
LINE
  5
89
  8
1
  6
CONTINUOUS
 62
     7
 10
1441.5154935295
 20
406.5257188633
 30
0.0
 11
1441.7100243528
 21
405.7916406739
 31
0.0
  0
LINE
  5
8A
  8
1
  6
CONTINUOUS
 62
     7
 10
1439.6003470585
 20
403.480926559
 30
0.0
 11
1439.8130018035
 21
402.1724043376
 31
0.0
  0
LINE
  5
8B
  8
1
  6
CONTINUOUS
 62
     7
 10
1439.0818801727
 20
405.7916406739
 30
0.0
 11
1439.338092962
 21
404.7320242884
 31
0.0
  0
LINE
  5
8C
  8
1
  6
CONTINUOUS
 62
     7
 10
1438.5039961112
 20
391.4457914104
 30
0.0
 11
1438.8782725872
 21
390.4524551833
 31
0.0
  0
LINE
  5
8D
  8
1
  6
CONTINUOUS
 62
     7
 10
1438.8970244561
 20
380.3794482203
 30
0.0
 11
1439.0227452913
 21
379.3271105564
 31
0.0
  0
LINE
  5
8E
  8
1
  6
CONTINUOUS
 62
     7
 10
1438.234982441
 20
394.5438904851
 30
0.0
 11
1438.1206071722
 21
393.6030796534
 31
0.0
  0
LINE
  5
8F
  8
1
  6
CENTER
 62
     1
 10
1343.6436571555
 20
391.5502020047
 30
0.0
 11
1375.7416929842
 21
391.5502020047
 31
0.0
  0
LINE
  5
91
  8
1
  6
CONTINUOUS
 62
     7
 10
1438.8782725872
 20
390.4524551833
 30
0.0
 11
1439.2779642425
 21
389.4832868419
 31
0.0
  0
LINE
  5
92
  8
1
  6
CONTINUOUS
 62
     7
 10
1439.2779642425
 20
389.4832868419
 30
0.0
 11
1439.6313621863
 21
388.5474407126
 31
0.0
  0
LINE
  5
93
  8
1
  6
CONTINUOUS
 62
     7
 10
1441.4382853309
 20
406.8002020047
 30
0.0
 11
1441.5154935295
 21
406.5257188633
 31
0.0
  0
LINE
  5
94
  8
1
  6
CONTINUOUS
 62
     7
 10
1438.8197254391
 20
396.4926783191
 30
0.0
 11
1438.4858367812
 21
395.5103567018
 31
0.0
  0
LINE
  5
95
  8
1
  6
CONTINUOUS
 62
     7
 10
1439.8532438364
 20
386.1690045333
 30
0.0
 11
1439.5956845078
 21
385.1818568376
 31
0.0
  0
LINE
  5
96
  8
1
  6
CONTINUOUS
 62
     7
 10
1438.8873493494
 20
406.5257188633
 30
0.0
 11
1439.0818801727
 21
405.7916406739
 31
0.0
  0
LINE
  5
97
  8
1
  6
CONTINUOUS
 62
     7
 10
1439.916728174
 20
400.3845191104
 30
0.0
 11
1439.7851497822
 21
399.4367757328
 31
0.0
  0
LINE
  5
98
  8
1
  6
CONTINUOUS
 62
     7
 10
1438.799712591
 20
381.4794386819
 30
0.0
 11
1438.8970244561
 21
380.3794482203
 31
0.0
  0
LINE
  5
99
  8
1
  6
CONTINUOUS
 62
     7
 10
1439.8667575276
 20
387.654071122
 30
0.0
 11
1439.916728174
 21
387.2437982099
 31
0.0
  0
LINE
  5
9A
  8
1
  6
CONTINUOUS
 62
     7
 10
1439.5228266933
 20
398.4656878188
 30
0.0
 11
1439.1832036611
 21
397.4810553529
 31
0.0
  0
LINE
  5
9B
  8
1
  6
CONTINUOUS
 62
     7
 10
1439.0975436414
 20
378.40870427
 30
0.0
 11
1439.0867879066
 21
377.9761318906
 31
0.0
  0
LINE
  5
9C
  8
1
  6
CONTINUOUS
 62
     7
 10
1438.5788754055
 20
376.6980187268
 30
0.0
 11
1438.2177130679
 21
376.3002020047
 31
0.0
  0
LINE
  5
9D
  8
1
  6
CONTINUOUS
 62
     7
 10
1438.2268437056
 20
392.4541411966
 30
0.0
 11
1438.5039961112
 21
391.4457914104
 31
0.0
  0
LINE
  5
9E
  8
1
  6
CONTINUOUS
 62
     7
 10
1439.6313621863
 20
388.5474407126
 30
0.0
 11
1439.8667575276
 21
387.654071122
 31
0.0
  0
LINE
  5
9F
  8
1
  6
CONTINUOUS
 62
     7
 10
1438.8101411508
 20
382.5408033613
 30
0.0
 11
1438.799712591
 21
381.4794386819
 31
0.0
  0
LINE
  5
A0
  8
1
  6
CONTINUOUS
 62
     7
 10
1439.0227452913
 20
379.3271105564
 30
0.0
 11
1439.0975436414
 21
378.40870427
 31
0.0
  0
LINE
  5
A1
  8
1
  6
CONTINUOUS
 62
     7
 10
1439.338092962
 20
404.7320242884
 30
0.0
 11
1439.6003470585
 21
403.480926559
 31
0.0
  0
LINE
  5
A2
  8
1
  6
CONTINUOUS
 62
     7
 10
1439.1832036611
 20
397.4810553529
 30
0.0
 11
1438.8197254391
 21
396.4926783191
 31
0.0
  0
LINE
  5
A3
  8
1
  6
CONTINUOUS
 62
     7
 10
1439.9204165382
 20
400.9405144763
 30
0.0
 11
1439.916728174
 21
400.3845191104
 31
0.0
  0
LINE
  5
A4
  8
1
  6
CENTER
 62
     1
 10
1508.2484768567
 20
391.5502020047
 30
0.0
 11
1386.4090426106
 21
391.5502020047
 31
0.0
  0
LINE
  5
A5
  8
1
  6
CONTINUOUS
 62
     7
 10
1438.8101411508
 20
406.8002020047
 30
0.0
 11
1438.8873493494
 21
406.5257188633
 31
0.0
  0
LINE
  5
A6
  8
1
  6
CONTINUOUS
 62
     7
 10
1439.7851497822
 20
399.4367757328
 30
0.0
 11
1439.5228266933
 21
398.4656878188
 31
0.0
  0
LINE
  5
A7
  8
1
  6
CENTER
 62
     1
 10
1360.2302019856
 20
407.5125217015
 30
0.0
 11
1360.2302019856
 21
374.3394320412
 31
0.0
  0
LINE
  5
A8
  8
1
  6
CONTINUOUS
 62
     7
 10
1438.1206071722
 20
393.6030796534
 30
0.0
 11
1438.1185242613
 21
393.4683502154
 31
0.0
  0
LINE
  5
A9
  8
1
  6
CONTINUOUS
 62
     7
 10
1442.2284912386
 20
403.480926559
 30
0.0
 11
1442.4411459836
 21
402.1724043376
 31
0.0
  0
LINE
  5
AA
  8
1
  6
CONTINUOUS
 62
     7
 10
1440.7466684414
 20
393.4683502154
 30
0.0
 11
1440.8549878857
 21
392.4541411966
 31
0.0
  0
LINE
  5
AB
  8
1
  6
CONTINUOUS
 62
     7
 10
1442.5485607183
 20
400.9405144763
 30
0.0
 11
1442.5448723541
 21
400.3845191104
 31
0.0
  0
LINE
  5
AC
  8
1
  6
CONTINUOUS
 62
     7
 10
1442.4411459836
 20
402.1724043376
 30
0.0
 11
1442.5485607183
 21
400.9405144763
 31
0.0
  0
LINE
  5
AD
  8
1
  6
CONTINUOUS
 62
     7
 10
1441.4478696193
 20
396.4926783191
 30
0.0
 11
1441.1139809613
 21
395.5103567018
 31
0.0
  0
LINE
  5
AE
  8
1
  6
CONTINUOUS
 62
     7
 10
1441.5064167673
 20
390.4524551833
 30
0.0
 11
1441.9061084226
 21
389.4832868419
 31
0.0
  0
LINE
  5
AF
  8
1
  6
CONTINUOUS
 62
     7
 10
1441.9061084226
 20
389.4832868419
 30
0.0
 11
1442.2595063664
 21
388.5474407126
 31
0.0
  0
LINE
  5
B0
  8
1
  6
CONTINUOUS
 62
     7
 10
1440.7487513523
 20
393.6030796534
 30
0.0
 11
1440.7466684414
 21
393.4683502154
 31
0.0
  0
LINE
  5
B1
  8
1
  6
CONTINUOUS
 62
     7
 10
1442.5448723541
 20
387.2437982099
 30
0.0
 11
1442.4813880165
 21
386.1690045333
 31
0.0
  0
LINE
  5
B2
  8
1
  6
CONTINUOUS
 62
     7
 10
1442.1509708734
 20
398.4656878188
 30
0.0
 11
1441.8113478412
 21
397.4810553529
 31
0.0
  0
LINE
  5
B3
  8
1
  6
CONTINUOUS
 62
     7
 10
1440.8631266211
 20
394.5438904851
 30
0.0
 11
1440.7487513523
 21
393.6030796534
 31
0.0
  0
LINE
  5
B4
  8
1
  6
CONTINUOUS
 62
     7
 10
1441.1139809613
 20
395.5103567018
 30
0.0
 11
1440.8631266211
 21
394.5438904851
 31
0.0
  0
LINE
  5
B5
  8
1
  6
CONTINUOUS
 62
     7
 10
1442.4132939623
 20
399.4367757328
 30
0.0
 11
1442.1509708734
 21
398.4656878188
 31
0.0
  0
LINE
  5
B6
  8
1
  6
CONTINUOUS
 62
     7
 10
1441.1321402913
 20
391.4457914104
 30
0.0
 11
1441.5064167673
 21
390.4524551833
 31
0.0
  0
LINE
  5
B7
  8
1
  6
CONTINUOUS
 62
     7
 10
1441.7100243528
 20
405.7916406739
 30
0.0
 11
1441.9662371421
 21
404.7320242884
 31
0.0
  0
LINE
  5
B8
  8
1
  6
CONTINUOUS
 62
     7
 10
1441.9662371421
 20
404.7320242884
 30
0.0
 11
1442.2284912386
 21
403.480926559
 31
0.0
  0
LINE
  5
B9
  8
0
  6
CONTINUOUS
 62
     7
 10
1438.838269726641
 20
406.7002020047
 30
0.0
 11
1388.887900252
 21
406.7002020047
 31
0.0
  0
LINE
  5
BA
  8
1
  6
CONTINUOUS
 62
     7
 10
1503.4012534054
 20
406.7002020047
 30
0.0
 11
1503.4012534054
 21
376.4002020047
 31
0.0
  0
LINE
  5
BB
  8
0
  6
CONTINUOUS
 62
     7
 10
1438.308499180584
 20
376.4002020047
 30
0.0
 11
1388.887900252
 21
376.4002020047
 31
0.0
  0
LINE
  5
BC
  8
0
  6
CONTINUOUS
 62
     7
 10
1503.4012534054
 20
406.7002020047
 30
0.0
 11
1441.466413906741
 21
406.7002020047
 31
0.0
  0
LINE
  5
BD
  8
0
  6
CONTINUOUS
 62
     7
 10
1503.4012534054
 20
376.4002020047
 30
0.0
 11
1440.936643360684
 21
376.4002020047
 31
0.0
  0
LINE
  5
BE
  8
1
  6
CONTINUOUS
 62
     7
 10
1388.887900252
 20
406.7002020047
 30
0.0
 11
1388.887900252
 21
376.4002020047
 31
0.0
  0
TEXT
  5
BF
  8
1
  6
CONTINUOUS
 62
     7
 10
1490.175520165624
 20
366.9322478334374
 30
0.0
 40
3.5
  1
MFPＦ-22Ｋ5
 41
0.89167
  0
CIRCLE
  5
C0
  8
0
  6
CONTINUOUS
 62
     7
 10
1360.2302019856
 20
391.5502020047
 30
0.0
 40
15.15
  0
CIRCLE
  5
C1
  8
0
  6
CONTINUOUS
 62
     7
 10
1360.2302019856
 20
391.5502020047
 30
0.0
 40
11.45
  0
ENDSEC
  0
EOF
