  0
SECTION
  2
HEADER
  9
$ACADVER
  1
AC1004
  9
$INSBASE
 10
0.0
 20
0.0
  9
$EXTMIN
 10
0.0
 20
0.0
  9
$EXTMAX
 10
166.7957983193
 20
150.3338094372
  9
$LIMMIN
 10
0.0
 20
0.0
  9
$LIMMAX
 10
12.0
 20
9.0
  9
$ORTHOMODE
 70
     0
  9
$REGENMODE
 70
     1
  9
$FILLMODE
 70
     1
  9
$QTEXTMODE
 70
     0
  9
$DRAGMODE
 70
     2
  9
$LTSCALE
 40
1.0
  9
$OSMODE
 70
    37
  9
$ATTMODE
 70
     1
  9
$TEXTSIZE
 40
0.2
  9
$TRACEWID
 40
0.05
  9
$TEXTSTYLE
  7
STANDARD
  9
$CLAYER
  8
0
  9
$CELTYPE
  6
BYLAYER
  9
$CECOLOR
 62
   256
  9
$DIMSCALE
 40
1.0
  9
$DIMASZ
 40
0.9
  9
$DIMEXO
 40
0.0625
  9
$DIMDLI
 40
0.38
  9
$DIMRND
 40
0.0
  9
$DIMDLE
 40
0.0
  9
$DIMEXE
 40
0.45
  9
$DIMTP
 40
0.0
  9
$DIMTM
 40
0.0
  9
$DIMTXT
 40
3.0
  9
$DIMCEN
 40
0.09
  9
$DIMTSZ
 40
0.0
  9
$DIMTOL
 70
     0
  9
$DIMLIM
 70
     0
  9
$DIMTIH
 70
     1
  9
$DIMTOH
 70
     1
  9
$DIMSE1
 70
     0
  9
$DIMSE2
 70
     0
  9
$DIMTAD
 70
     1
  9
$DIMZIN
 70
     0
  9
$DIMBLK
  1

  9
$DIMASO
 70
     1
  9
$DIMSHO
 70
     1
  9
$DIMPOST
  1

  9
$DIMAPOST
  1

  9
$DIMALT
 70
     0
  9
$DIMALTD
 70
     2
  9
$DIMALTF
 40
25.4
  9
$DIMLFAC
 40
1.0
  9
$DIMTOFL
 70
     0
  9
$DIMTVP
 40
0.0
  9
$DIMTIX
 70
     0
  9
$DIMSOXD
 70
     0
  9
$DIMSAH
 70
     0
  9
$DIMBLK1
  1

  9
$DIMBLK2
  1

  9
$LUNITS
 70
     2
  9
$LUPREC
 70
     4
  9
$SKETCHINC
 40
0.1
  9
$FILLETRAD
 40
0.5
  9
$AUNITS
 70
     0
  9
$AUPREC
 70
     0
  9
$MENU
  1
.
  9
$ELEVATION
 40
0.0
  9
$THICKNESS
 40
0.0
  9
$LIMCHECK
 70
     0
  9
$CHAMFERA
 40
0.0
  9
$CHAMFERB
 40
0.0
  9
$SKPOLY
 70
     0
  9
$TDCREATE
 40
2459047.626412419
  9
$TDUPDATE
 40
2459047.626412778
  9
$TDINDWG
 40
0.0000000116
  9
$TDUSRTIMER
 40
0.0000000116
  9
$USRTIMER
 70
     1
  9
$ANGBASE
 50
0.0
  9
$ANGDIR
 70
     0
  9
$PDMODE
 70
     0
  9
$PDSIZE
 40
0.0
  9
$PLINEWID
 40
0.0
  9
$COORDS
 70
     1
  9
$SPLFRAME
 70
     0
  9
$SPLINETYPE
 70
     6
  9
$SPLINESEGS
 70
     8
  9
$ATTDIA
 70
     0
  9
$ATTREQ
 70
     1
  9
$SURFTAB1
 70
     6
  9
$SURFTAB2
 70
     6
  9
$SURFTYPE
 70
     6
  9
$SURFU
 70
     6
  9
$SURFV
 70
     6
  9
$UCSNAME
  2

  9
$UCSORG
 10
0.0
 20
0.0
 30
0.0
  9
$UCSXDIR
 10
1.0
 20
0.0
 30
0.0
  9
$UCSYDIR
 10
0.0
 20
1.0
 30
0.0
  9
$USERI1
 70
     0
  9
$USERI2
 70
     0
  9
$USERI3
 70
     0
  9
$USERI4
 70
     0
  9
$USERI5
 70
     0
  9
$USERR1
 40
0.0
  9
$USERR2
 40
0.0
  9
$USERR3
 40
0.0
  9
$USERR4
 40
0.0
  9
$USERR5
 40
0.0
  9
$WORLDVIEW
 70
     1
  0
ENDSEC
  0
SECTION
  2
TABLES
  0
TABLE
  2
LTYPE
 70
     2
  0
LTYPE
  2
CONTINUOUS
 70
     0
  3
Solid line
 72
    65
 73
     0
 40
0.0
  0
LTYPE
  2
CENTER
 70
     0
  3

 72
    65
 73
     0
 40
0.0
  0
ENDTAB
  0
TABLE
  2
LAYER
 70
     2
  0
LAYER
  2
0
 70
     0
 62
     7
  6
CONTINUOUS
  0
LAYER
  2
1
 70
     0
 62
     7
  6
CONTINUOUS
  0
ENDTAB
  0
TABLE
  2
STYLE
 70
     2
  0
STYLE
  2
STANDARD
 70
     0
 40
0.0
 41
1.0
 50
0.0
 71
     0
 42
0.2
  3
txt
  4

  0
STYLE
  2
ＭＳ_ゴシック
 70
     0
 40
0.0
 41
1.0
 50
0.0
 71
     0
 42
0.2
  3
ＭＳ ゴシック.shx
  4

  0
ENDTAB
  0
TABLE
  2
VIEW
 70
     0
  0
ENDTAB
  0
ENDSEC
  0
SECTION
  2
BLOCKS
  0
ENDSEC
  0
SECTION
  2
ENTITIES
  0
LINE
  8
1
  6
CONTINUOUS
 62
     7
 10
153.348333967
 20
131.2531575945
 11
153.7502577557
 21
133.0
  0
LINE
  8
1
  6
CONTINUOUS
 62
     7
 10
160.5000000169
 20
145.2069063257
 11
160.5000000169
 21
146.0
  0
CIRCLE
  8
1
  6
CONTINUOUS
 62
     7
 10
75.0
 20
130.0
 40
11.85
  0
LINE
  8
1
  6
CONTINUOUS
 62
     7
 10
140.5
 20
147.5
 11
140.5
 21
112.5
  0
LINE
  8
1
  6
CONTINUOUS
 62
     7
 10
159.5000000169
 20
147.0
 11
153.348333967
 21
147.0
  0
LINE
  8
1
  6
CONTINUOUS
 62
     7
 10
138.5
 20
144.708043
 11
128.5
 21
144.708043
  0
LINE
  8
1
  6
CONTINUOUS
 62
     7
 10
153.7502577557
 20
133.0
 11
153.7502577557
 21
138.6315862402
  0
LINE
  8
1
  6
CONTINUOUS
 62
     7
 10
153.0000000169
 20
148.120628014
 11
153.0000000169
 21
111.879371986
  0
LINE
  8
1
  6
CONTINUOUS
 62
     7
 10
153.348333967
 20
141.1019944615
 11
153.348333967
 21
142.8742269274
  0
LINE
  8
1
  6
CONTINUOUS
 62
     7
 10
160.5000000169
 20
114.7930936743
 11
160.5000000169
 21
114.0
  0
LINE
  8
1
  6
CONTINUOUS
 62
     7
 10
163.5
 20
116.7795
 11
163.5
 21
143.2205
  0
LINE
  8
1
  6
CONTINUOUS
 62
     7
 10
159.5000000169
 20
117.1257730726
 11
153.348333967
 21
117.1257730726
  0
LINE
  8
1
  6
CONTINUOUS
 62
     7
 10
160.5000000169
 20
120.3684137598
 11
160.5000000169
 21
118.1257730726
  0
LINE
  8
1
  6
CONTINUOUS
 62
     7
 10
153.7502577557
 20
138.6315862402
 11
153.348333967
 21
141.1019944615
  0
LINE
  8
1
  6
CONTINUOUS
 62
     7
 10
160.5000000169
 20
139.6315862402
 11
160.5000000169
 21
141.8742269274
  0
LINE
  8
1
  6
CONTINUOUS
 62
     7
 10
138.5
 20
147.5
 11
138.5
 21
112.5
  0
LINE
  8
1
  6
CONTINUOUS
 62
     7
 10
138.5
 20
145.159595
 11
128.5
 21
145.159595
  0
LINE
  8
1
  6
CONTINUOUS
 62
     7
 10
159.5000000169
 20
121.3684137598
 11
153.7502577557
 21
121.3684137598
  0
ARC
  8
1
  6
CONTINUOUS
 62
     7
 10
159.5000000169
 20
141.8742269274
 40
1.0
 50
0.0
 51
90.0
  0
LINE
  8
1
  6
CONTINUOUS
 62
     7
 10
159.5000000169
 20
127.0
 11
153.7502577557
 21
127.0
  0
LINE
  8
1
  6
CONTINUOUS
 62
     7
 10
159.5000000169
 20
113.0
 11
153.348333967
 21
113.0
  0
ARC
  8
1
  6
CONTINUOUS
 62
     7
 10
159.5000000169
 20
120.3684137598
 40
1.0
 50
0.0
 51
90.0
  0
ARC
  8
1
  6
CONTINUOUS
 62
     7
 10
159.5000000169
 20
128.0
 40
1.0
 50
270.0
 51
0.0
  0
LINE
  8
1
  6
CONTINUOUS
 62
     7
 10
152.6163365229
 20
111.7
 11
151.5000000169
 21
111.7
  0
LINE
  8
1
  6
CONTINUOUS
 62
     7
 10
153.099299436
 20
112.0705904774
 11
153.7502577557
 21
114.5
  0
ARC
  8
1
  6
CONTINUOUS
 62
     7
 10
152.6163365229
 20
112.2
 40
0.5
 50
270.0
 51
345.0
  0
LINE
  8
1
  6
CONTINUOUS
 62
     7
 10
153.7502577557
 20
114.7930936743
 11
160.5000000169
 21
114.7930936743
  0
LINE
  8
1
  6
CONTINUOUS
 62
     7
 10
153.7502577557
 20
121.3684137598
 11
153.348333967
 21
118.8980055385
  0
LINE
  8
1
  6
CONTINUOUS
 62
     7
 10
153.348333967
 20
118.8980055385
 11
153.348333967
 21
117.1257730726
  0
LINE
  8
1
  6
CONTINUOUS
 62
     7
 10
153.7502577557
 20
117.1257730726
 11
153.7502577557
 21
114.5
  0
ARC
  8
1
  6
CONTINUOUS
 62
     7
 10
159.5000000169
 20
132.0
 40
1.0
 50
0.0
 51
90.0
  0
LINE
  8
1
  6
CONTINUOUS
 62
     7
 10
153.7502577557
 20
142.8742269274
 11
153.7502577557
 21
145.5
  0
LINE
  8
1
  6
CONTINUOUS
 62
     7
 10
153.099299436
 20
147.9294095226
 11
153.7502577557
 21
145.5
  0
ARC
  8
1
  6
CONTINUOUS
 62
     7
 10
159.5000000169
 20
114.0
 40
1.0
 50
270.0
 51
0.0
  0
LINE
  8
1
  6
CENTER
 62
     7
 10
95.4462184874
 20
130.0
 11
54.1151260504
 21
130.0
  0
CIRCLE
  8
1
  6
CONTINUOUS
 62
     7
 10
75.0
 20
130.0
 40
17.5
  0
LINE
  8
1
  6
CONTINUOUS
 62
     7
 10
153.7502577557
 20
127.0
 11
153.7502577557
 21
121.3684137598
  0
LINE
  8
1
  6
CONTINUOUS
 62
     7
 10
138.5
 20
115.783823
 11
128.5
 21
115.783823
  0
LINE
  8
1
  6
CONTINUOUS
 62
     7
 10
138.5
 20
144.216177
 11
128.5
 21
144.216177
  0
ARC
  8
1
  6
CONTINUOUS
 62
     7
 10
159.5000000169
 20
118.1257730726
 40
1.0
 50
270.0
 51
0.0
  0
LINE
  8
1
  6
CONTINUOUS
 62
     7
 10
138.5
 20
115.291957
 11
128.5
 21
115.291957
  0
LINE
  8
1
  6
CONTINUOUS
 62
     7
 10
128.5
 20
112.5
 11
128.5
 21
147.5
  0
ARC
  8
1
  6
CONTINUOUS
 62
     7
 10
152.6163365229
 20
147.8
 40
0.5
 50
15.0
 51
90.0
  0
ARC
  8
1
  6
CONTINUOUS
 62
     7
 10
159.5000000169
 20
146.0
 40
1.0
 50
0.0
 51
90.0
  0
LINE
  8
1
  6
CONTINUOUS
 62
     7
 10
160.5000000169
 20
132.0
 11
160.5000000169
 21
128.0
  0
LINE
  8
1
  6
CONTINUOUS
 62
     7
 10
153.348333967
 20
128.7468424055
 11
153.348333967
 21
131.2531575945
  0
LINE
  8
1
  6
CONTINUOUS
 62
     7
 10
153.348333967
 20
128.7468424055
 11
153.7502577557
 21
127.0
  0
LINE
  8
1
  6
CENTER
 62
     7
 10
113.0831932773
 20
130.0
 11
166.7957983193
 21
130.0
  0
LINE
  8
1
  6
CONTINUOUS
 62
     7
 10
159.5000000169
 20
142.8742269274
 11
153.348333967
 21
142.8742269274
  0
LINE
  8
1
  6
CENTER
 62
     7
 10
75.000187
 20
150.3338094372
 11
75.000187
 21
108.6464144792
  0
ARC
  8
1
  6
CONTINUOUS
 62
     7
 10
159.5000000169
 20
139.6315862402
 40
1.0
 50
270.0
 51
0.0
  0
LINE
  8
1
  6
CONTINUOUS
 62
     7
 10
128.5
 20
147.5
 11
116.2584600526669
 21
144.452958869727
  0
ARC
  8
1
  6
CONTINUOUS
 62
     7
 10
116.5
 20
143.4825679928931
 40
1.000000000000006
 50
103.9774471330389
 51
179.9999999999998
  0
LINE
  8
1
  6
CONTINUOUS
 62
     7
 10
115.5
 20
143.4825679928931
 11
115.5
 21
116.5174320071068
  0
ARC
  8
1
  6
CONTINUOUS
 62
     7
 10
116.5
 20
116.5174320071068
 40
1.000000000000001
 50
180.0
 51
256.0225528669612
  0
LINE
  8
1
  6
CONTINUOUS
 62
     7
 10
116.2584600526669
 20
115.5470411302729
 11
128.5
 21
112.5
  0
LINE
  8
1
  6
CONTINUOUS
 62
     7
 10
138.5
 20
114.840405
 11
128.5
 21
114.840405
  0
LINE
  8
1
  6
CONTINUOUS
 62
     7
 10
159.5000000169
 20
133.0
 11
153.7502577557
 21
133.0
  0
LINE
  8
1
  6
CONTINUOUS
 62
     7
 10
152.6163365229
 20
148.3
 11
151.5000000169
 21
148.3
  0
CIRCLE
  8
1
  6
CONTINUOUS
 62
     7
 10
75.0
 20
130.0
 40
7.45
  0
LINE
  8
1
  6
CONTINUOUS
 62
     7
 10
138.5
 20
145.592614
 11
128.5
 21
145.592614
  0
LINE
  8
1
  6
CONTINUOUS
 62
     7
 10
138.5
 20
143.685345
 11
128.5
 21
143.685345
  0
LINE
  8
1
  6
CONTINUOUS
 62
     7
 10
159.5000000169
 20
138.6315862402
 11
153.7502577557
 21
138.6315862402
  0
LINE
  8
1
  6
CONTINUOUS
 62
     7
 10
153.7502577557
 20
145.2069063257
 11
160.5000000169
 21
145.2069063257
  0
LINE
  8
1
  6
CONTINUOUS
 62
     7
 10
138.5
 20
116.314655
 11
128.5
 21
116.314655
  0
LINE
  8
1
  6
CONTINUOUS
 62
     7
 10
138.5
 20
134.026933
 11
128.5
 21
134.026933
  0
LINE
  8
1
  6
CONTINUOUS
 62
     7
 10
138.5
 20
135.758168
 11
128.5
 21
135.758168
  0
LINE
  8
1
  6
CONTINUOUS
 62
     7
 10
138.5
 20
126.856437
 11
128.5
 21
126.856437
  0
LINE
  8
1
  6
CONTINUOUS
 62
     7
 10
138.5
 20
125.973067
 11
128.5
 21
125.973067
  0
LINE
  8
1
  6
CONTINUOUS
 62
     7
 10
138.5
 20
125.100735
 11
128.5
 21
125.100735
  0
LINE
  8
1
  6
CONTINUOUS
 62
     7
 10
138.5
 20
124.241832
 11
128.5
 21
124.241832
  0
LINE
  8
1
  6
CONTINUOUS
 62
     7
 10
138.5
 20
129.548448
 11
128.5
 21
129.548448
  0
LINE
  8
1
  6
CONTINUOUS
 62
     7
 10
138.5
 20
143.117003
 11
128.5
 21
143.117003
  0
LINE
  8
1
  6
CONTINUOUS
 62
     7
 10
138.5
 20
140.501135
 11
128.5
 21
140.501135
  0
LINE
  8
1
  6
CONTINUOUS
 62
     7
 10
138.5
 20
147.284546
 11
128.5
 21
147.284546
  0
LINE
  8
1
  6
CONTINUOUS
 62
     7
 10
138.5
 20
131.353419
 11
128.5
 21
131.353419
  0
LINE
  8
1
  6
CONTINUOUS
 62
     7
 10
138.5
 20
113.096298
 11
128.5
 21
113.096298
  0
LINE
  8
1
  6
CONTINUOUS
 62
     7
 10
148.0
 20
113.5
 11
148.0
 21
112.5
  0
LINE
  8
1
  6
CONTINUOUS
 62
     7
 10
148.0
 20
147.5
 11
148.0
 21
146.5
  0
LINE
  8
1
  6
CONTINUOUS
 62
     7
 10
138.5
 20
121.769011
 11
128.5
 21
121.769011
  0
LINE
  8
1
  6
CONTINUOUS
 62
     7
 10
138.5
 20
139.0131
 11
128.5
 21
139.0131
  0
LINE
  8
1
  6
CONTINUOUS
 62
     7
 10
138.5
 20
146.643489
 11
128.5
 21
146.643489
  0
LINE
  8
1
  6
CONTINUOUS
 62
     7
 10
161.5
 20
144.5
 11
161.5
 21
115.5
  0
LINE
  8
1
  6
CONTINUOUS
 62
     7
 10
161.5
 20
116.7795
 11
163.5
 21
116.7795
  0
LINE
  8
1
  6
CONTINUOUS
 62
     7
 10
138.5
 20
136.601289
 11
128.5
 21
136.601289
  0
ARC
  8
1
  6
CONTINUOUS
 62
     7
 10
160.5
 20
144.5
 40
1.0
 50
0.0
 51
90.0
  0
ARC
  8
1
  6
CONTINUOUS
 62
     7
 10
75.0
 20
130.0
 40
10.75
 50
227.665882
 51
282.334118
  0
LINE
  8
1
  6
CONTINUOUS
 62
     7
 10
140.5
 20
113.5
 11
148.0
 21
113.5
  0
LINE
  8
1
  6
CONTINUOUS
 62
     7
 10
138.5
 20
116.882997
 11
128.5
 21
116.882997
  0
LINE
  8
1
  6
CONTINUOUS
 62
     7
 10
138.5
 20
112.882417
 11
128.5
 21
112.882417
  0
ARC
  8
1
  6
CONTINUOUS
 62
     7
 10
75.0
 20
130.0
 40
10.75
 50
180.0
 51
222.334118
  0
LINE
  8
1
  6
CONTINUOUS
 62
     7
 10
138.5
 20
112.715454
 11
128.5
 21
112.715454
  0
LINE
  8
1
  6
CONTINUOUS
 62
     7
 10
138.5
 20
142.512708
 11
128.5
 21
142.512708
  0
LINE
  8
1
  6
CONTINUOUS
 62
     7
 10
138.5
 20
139.770508
 11
128.5
 21
139.770508
  0
LINE
  8
1
  6
CONTINUOUS
 62
     7
 10
138.5
 20
119.498865
 11
128.5
 21
119.498865
  0
LINE
  8
1
  6
CONTINUOUS
 62
     7
 10
138.5
 20
130.451552
 11
128.5
 21
130.451552
  0
LINE
  8
1
  6
CONTINUOUS
 62
     7
 10
138.5
 20
118.125884
 11
128.5
 21
118.125884
  0
LINE
  8
1
  6
CONTINUOUS
 62
     7
 10
138.5
 20
146.903702
 11
128.5
 21
146.903702
  0
ARC
  8
1
  6
CONTINUOUS
 62
     7
 10
160.5
 20
115.5
 40
1.0
 50
270.0
 51
0.0
  0
ARC
  8
1
  6
CONTINUOUS
 62
     7
 10
75.0
 20
130.0
 40
10.75
 50
287.665882
 51
342.334118
  0
ARC
  8
1
  6
CONTINUOUS
 62
     7
 10
75.0
 20
130.0
 40
10.75
 50
107.665882
 51
150.0
  0
ARC
  8
1
  6
CONTINUOUS
 62
     7
 10
75.0
 20
130.0
 40
10.75
 50
47.66588200000001
 51
102.334118
  0
LINE
  8
1
  6
CONTINUOUS
 62
     7
 10
138.5
 20
117.487292
 11
128.5
 21
117.487292
  0
LINE
  8
1
  6
CONTINUOUS
 62
     7
 10
138.5
 20
137.426316
 11
128.5
 21
137.426316
  0
LINE
  8
1
  6
CONTINUOUS
 62
     7
 10
138.5
 20
141.202979
 11
128.5
 21
141.202979
  0
LINE
  8
1
  6
CONTINUOUS
 62
     7
 10
148.0
 20
146.5
 11
140.5
 21
146.5
  0
LINE
  8
1
  6
CONTINUOUS
 62
     7
 10
138.5
 20
132.251577
 11
128.5
 21
132.251577
  0
LINE
  8
1
  6
CONTINUOUS
 62
     7
 10
138.5
 20
120.9869
 11
128.5
 21
120.9869
  0
LINE
  8
1
  6
CONTINUOUS
 62
     7
 10
163.5
 20
143.2205
 11
161.5
 21
143.2205
  0
ARC
  8
1
  6
CONTINUOUS
 62
     7
 10
75.0
 20
130.0
 40
10.75
 50
347.665882
 51
42.33411799999999
  0
LINE
  8
1
  6
CONTINUOUS
 62
     7
 10
138.5
 20
120.229492
 11
128.5
 21
120.229492
  0
LINE
  8
1
  6
CONTINUOUS
 62
     7
 10
138.5
 20
128.646581
 11
128.5
 21
128.646581
  0
LINE
  8
1
  6
CONTINUOUS
 62
     7
 10
138.5
 20
127.748423
 11
128.5
 21
127.748423
  0
LINE
  8
1
  6
CONTINUOUS
 62
     7
 10
138.5
 20
113.356511
 11
128.5
 21
113.356511
  0
LINE
  8
1
  6
CONTINUOUS
 62
     7
 10
138.5
 20
141.874116
 11
128.5
 21
141.874116
  0
LINE
  8
1
  6
CONTINUOUS
 62
     7
 10
138.5
 20
147.117583
 11
128.5
 21
147.117583
  0
LINE
  8
1
  6
CONTINUOUS
 62
     7
 10
138.5
 20
118.797021
 11
128.5
 21
118.797021
  0
LINE
  8
1
  6
CONTINUOUS
 62
     7
 10
138.5
 20
138.230989
 11
128.5
 21
138.230989
  0
LINE
  8
1
  6
CONTINUOUS
 62
     7
 10
138.5
 20
133.143563
 11
128.5
 21
133.143563
  0
LINE
  8
1
  6
CONTINUOUS
 62
     7
 10
138.5
 20
134.899265
 11
128.5
 21
134.899265
  0
LINE
  8
1
  6
CONTINUOUS
 62
     7
 10
138.5
 20
123.398711
 11
128.5
 21
123.398711
  0
LINE
  8
1
  6
CONTINUOUS
 62
     7
 10
138.5
 20
122.573684
 11
128.5
 21
122.573684
  0
LINE
  8
1
  6
CONTINUOUS
 62
     7
 10
138.5
 20
113.662343
 11
128.5
 21
113.662343
  0
LINE
  8
1
  6
CONTINUOUS
 62
     7
 10
138.5
 20
145.987046
 11
128.5
 21
145.987046
  0
LINE
  8
1
  6
CONTINUOUS
 62
     7
 10
151.5
 20
147.5
 11
148.0
 21
147.5
  0
LINE
  8
1
  6
CONTINUOUS
 62
     7
 10
66.95
 20
130.0
 11
65.767949
 21
130.0
  0
LINE
  8
1
  6
CONTINUOUS
 62
     7
 10
83.05
 20
130.0
 11
84.232051
 21
130.0
  0
LINE
  8
1
  6
CONTINUOUS
 62
     7
 10
86.3066178532
 20
126.4527626633
 11
85.243055
 21
126.737744
  0
LINE
  8
1
  6
CONTINUOUS
 62
     7
 10
138.5
 20
146.337657
 11
128.5
 21
146.337657
  0
CIRCLE
  8
1
  6
CONTINUOUS
 62
     7
 10
75.0
 20
130.0
 40
8.05
  0
LINE
  8
1
  6
CONTINUOUS
 62
     7
 10
66.2746934027
 20
121.9818004027
 11
67.053275
 21
122.760382
  0
LINE
  8
1
  6
CONTINUOUS
 62
     7
 10
138.5
 20
114.012954
 11
128.5
 21
114.012954
  0
CIRCLE
  8
1
  6
CONTINUOUS
 62
     7
 10
75.0
 20
130.0
 40
13.900946
  0
LINE
  8
1
  6
CONTINUOUS
 62
     7
 10
84.231639
 20
129.913201
 11
84.232461
 21
130.086528
  0
LINE
  8
1
  6
CONTINUOUS
 62
     7
 10
64.25
 20
130.0
 11
63.15
 21
130.0
  0
LINE
  8
1
  6
CONTINUOUS
 62
     7
 10
138.5
 20
114.407386
 11
128.5
 21
114.407386
  0
LINE
  8
1
  6
CONTINUOUS
 62
     7
 10
71.737744
 20
140.243055
 11
71.4527626633
 21
141.3066178532
  0
LINE
  8
1
  6
CONTINUOUS
 62
     7
 10
148.0
 20
112.5
 11
151.5
 21
112.5
  0
CIRCLE
  8
1
  6
CONTINUOUS
 62
     7
 10
75.0
 20
130.0
 40
10.4
  0
ARC
  8
1
  6
CONTINUOUS
 62
     7
 10
75.000187
 20
129.999909
 40
9.231859
 50
179.9994352258
 51
359.461852
  0
LINE
  8
1
  6
CONTINUOUS
 62
     7
 10
65.7684
 20
130.093527
 11
65.767403
 21
129.88654
  0
LINE
  8
1
  6
CONTINUOUS
 62
     7
 10
65.690227
 20
135.375
 11
64.737599
 21
135.925
  0
LINE
  8
1
  6
CONTINUOUS
 62
     7
 10
78.262256
 20
119.756945
 11
78.5472373367
 21
118.6933821468
  0
LINE
  8
1
  6
CONTINUOUS
 62
     7
 10
83.7253065973
 20
138.0181995973
 11
82.946725
 21
137.239618
  0
CIRCLE
  8
1
  6
CONTINUOUS
 62
     7
 10
75.0
 20
130.0
 40
14.383909
  0
LINE
  8
1
  6
CONTINUOUS
 62
     7
 10
77.581310988
 20
118.4345629748
 11
77.296331
 21
119.498126
  0
LINE
  8
1
  6
CONTINUOUS
 62
     7
 10
128.5
 20
112.5
 11
140.5
 21
112.5
  0
LINE
  8
1
  6
CONTINUOUS
 62
     7
 10
85.501874
 20
127.703669
 11
86.5654370252
 21
127.418689012
  0
LINE
  8
1
  6
CONTINUOUS
 62
     7
 10
140.5
 20
147.5
 11
128.5
 21
147.5
  0
LINE
  8
1
  6
CONTINUOUS
 62
     7
 10
151.5
 20
111.7
 11
151.5
 21
148.3
  0
LINE
  8
1
  6
CONTINUOUS
 62
     7
 10
149.5
 20
112.5
 11
149.5
 21
147.5
  0
LINE
  8
1
  6
CONTINUOUS
 62
     7
 10
67.760382
 20
122.053275
 11
66.9818004027
 21
121.2746934027
  0
LINE
  8
1
  6
CONTINUOUS
 62
     7
 10
72.418689012
 20
141.5654370252
 11
72.703669
 21
140.501874
  0
CIRCLE
  8
1
  6
CONTINUOUS
 62
     7
 10
75.0
 20
130.0
 40
12.85
  0
LINE
  8
1
  6
CONTINUOUS
 62
     7
 10
82.239618
 20
137.946725
 11
83.0181995973
 21
138.7253065973
  0
TEXT
  8
1
  6
CONTINUOUS
 62
     7
 10
144.8086954086263
 20
106.6151549090909
 40
3.5
  1
ＭＦＰＫ－１６
 41
0.530958
 51
15.0
  0
ENDSEC
  0
EOF
