  0
SECTION
  2
HEADER
  9
$ACADVER
  1
AC1004
  9
$INSBASE
 10
0.0
 20
0.0
  9
$EXTMIN
 10
0.0
 20
0.0
  9
$EXTMAX
 10
88.3536929327
 20
145.2643282059
  9
$LIMMIN
 10
0.0
 20
0.0
  9
$LIMMAX
 10
12.0
 20
9.0
  9
$ORTHOMODE
 70
     0
  9
$REGENMODE
 70
     1
  9
$FILLMODE
 70
     1
  9
$QTEXTMODE
 70
     0
  9
$DRAGMODE
 70
     2
  9
$LTSCALE
 40
1.0
  9
$OSMODE
 70
    37
  9
$ATTMODE
 70
     1
  9
$TEXTSIZE
 40
0.2
  9
$TRACEWID
 40
0.05
  9
$TEXTSTYLE
  7
STANDARD
  9
$CLAYER
  8
0
  9
$CELTYPE
  6
BYLAYER
  9
$CECOLOR
 62
   256
  9
$DIMSCALE
 40
1.0
  9
$DIMASZ
 40
1.5
  9
$DIMEXO
 40
0.0625
  9
$DIMDLI
 40
0.38
  9
$DIMRND
 40
0.0
  9
$DIMDLE
 40
0.0
  9
$DIMEXE
 40
0.75
  9
$DIMTP
 40
0.0
  9
$DIMTM
 40
0.0
  9
$DIMTXT
 40
3.5
  9
$DIMCEN
 40
0.09
  9
$DIMTSZ
 40
0.0
  9
$DIMTOL
 70
     0
  9
$DIMLIM
 70
     0
  9
$DIMTIH
 70
     1
  9
$DIMTOH
 70
     1
  9
$DIMSE1
 70
     0
  9
$DIMSE2
 70
     0
  9
$DIMTAD
 70
     1
  9
$DIMZIN
 70
     0
  9
$DIMBLK
  1

  9
$DIMASO
 70
     1
  9
$DIMSHO
 70
     1
  9
$DIMPOST
  1

  9
$DIMAPOST
  1

  9
$DIMALT
 70
     0
  9
$DIMALTD
 70
     2
  9
$DIMALTF
 40
25.4
  9
$DIMLFAC
 40
1.0
  9
$DIMTOFL
 70
     0
  9
$DIMTVP
 40
0.0
  9
$DIMTIX
 70
     0
  9
$DIMSOXD
 70
     0
  9
$DIMSAH
 70
     0
  9
$DIMBLK1
  1

  9
$DIMBLK2
  1

  9
$LUNITS
 70
     2
  9
$LUPREC
 70
     4
  9
$SKETCHINC
 40
0.1
  9
$FILLETRAD
 40
0.5
  9
$AUNITS
 70
     0
  9
$AUPREC
 70
     0
  9
$MENU
  1
.
  9
$ELEVATION
 40
0.0
  9
$THICKNESS
 40
0.0
  9
$LIMCHECK
 70
     0
  9
$CHAMFERA
 40
0.0
  9
$CHAMFERB
 40
0.0
  9
$SKPOLY
 70
     0
  9
$TDCREATE
 40
2459048.486037292
  9
$TDUPDATE
 40
2459048.486037465
  9
$TDINDWG
 40
0.0000000116
  9
$TDUSRTIMER
 40
0.0000000116
  9
$USRTIMER
 70
     1
  9
$ANGBASE
 50
0.0
  9
$ANGDIR
 70
     0
  9
$PDMODE
 70
     0
  9
$PDSIZE
 40
0.0
  9
$PLINEWID
 40
0.0
  9
$COORDS
 70
     1
  9
$SPLFRAME
 70
     0
  9
$SPLINETYPE
 70
     6
  9
$SPLINESEGS
 70
     8
  9
$ATTDIA
 70
     0
  9
$ATTREQ
 70
     1
  9
$SURFTAB1
 70
     6
  9
$SURFTAB2
 70
     6
  9
$SURFTYPE
 70
     6
  9
$SURFU
 70
     6
  9
$SURFV
 70
     6
  9
$UCSNAME
  2

  9
$UCSORG
 10
0.0
 20
0.0
 30
0.0
  9
$UCSXDIR
 10
1.0
 20
0.0
 30
0.0
  9
$UCSYDIR
 10
0.0
 20
1.0
 30
0.0
  9
$USERI1
 70
     0
  9
$USERI2
 70
     0
  9
$USERI3
 70
     0
  9
$USERI4
 70
     0
  9
$USERI5
 70
     0
  9
$USERR1
 40
0.0
  9
$USERR2
 40
0.0
  9
$USERR3
 40
0.0
  9
$USERR4
 40
0.0
  9
$USERR5
 40
0.0
  9
$WORLDVIEW
 70
     1
  0
ENDSEC
  0
SECTION
  2
TABLES
  0
TABLE
  2
LTYPE
 70
     2
  0
LTYPE
  2
CONTINUOUS
 70
     0
  3
Solid line
 72
    65
 73
     0
 40
0.0
  0
LTYPE
  2
CENTER
 70
     0
  3

 72
    65
 73
     0
 40
0.0
  0
ENDTAB
  0
TABLE
  2
LAYER
 70
     2
  0
LAYER
  2
0
 70
     0
 62
     7
  6
CONTINUOUS
  0
LAYER
  2
1
 70
     0
 62
     7
  6
CONTINUOUS
  0
ENDTAB
  0
TABLE
  2
STYLE
 70
     2
  0
STYLE
  2
STANDARD
 70
     0
 40
0.0
 41
1.0
 50
0.0
 71
     0
 42
0.2
  3
txt
  4

  0
STYLE
  2
ＭＳ_ゴシック
 70
     0
 40
0.0
 41
1.0
 50
0.0
 71
     0
 42
0.2
  3
ＭＳ ゴシック.shx
  4

  0
ENDTAB
  0
TABLE
  2
VIEW
 70
     0
  0
ENDTAB
  0
ENDSEC
  0
SECTION
  2
BLOCKS
  0
ENDSEC
  0
SECTION
  2
ENTITIES
  0
TEXT
  8
1
  6
CONTINUOUS
 62
     7
 10
73.71447272369628
 20
83.73650791671876
 40
3.5
  1
MFPK-22
 41
0.88608
 51
15.0
  0
LINE
  8
1
  6
CONTINUOUS
 62
     7
 10
72.7184978529
 20
112.1623337444
 11
72.7184978529
 21
110.3901012785
  0
ARC
  8
1
  6
CONTINUOUS
 62
     7
 10
78.8701639028
 20
121.2643282059
 40
1.0
 50
270.0
 51
0.0
  0
LINE
  8
1
  6
CONTINUOUS
 62
     7
 10
72.4694633219
 20
105.3349186833
 11
73.1204216416
 21
107.7643282059
  0
ARC
  8
1
  6
CONTINUOUS
 62
     7
 10
71.9865004088
 20
105.4643282059
 40
0.5
 50
270.0
 51
345.0
  0
LINE
  8
1
  6
CONTINUOUS
 62
     7
 10
73.1204216416
 20
110.3901012785
 11
73.1204216416
 21
107.7643282059
  0
LINE
  8
1
  6
CONTINUOUS
 62
     7
 10
72.7184978529
 20
122.0111706114
 11
73.1204216416
 21
120.2643282059
  0
LINE
  8
1
  6
CONTINUOUS
 62
     7
 10
73.1204216416
 20
108.0574218802
 11
79.8701639028
 21
108.0574218802
  0
LINE
  8
1
  6
CONTINUOUS
 62
     7
 10
73.1204216416
 20
114.6327419657
 11
72.7184978529
 21
112.1623337444
  0
LINE
  8
1
  6
CONTINUOUS
 62
     7
 10
73.1204216416
 20
120.2643282059
 11
73.1204216416
 21
114.6327419657
  0
LINE
  8
1
  6
CONTINUOUS
 62
     7
 10
71.9865004088
 20
104.9643282059
 11
70.8701639028
 21
104.9643282059
  0
LINE
  8
1
  6
CONTINUOUS
 62
     7
 10
79.8701639028
 20
138.4712345316
 11
79.8701639028
 21
139.2643282059
  0
LINE
  8
1
  6
CONTINUOUS
 62
     7
 10
72.3701639028
 20
141.3849562199
 11
72.3701639028
 21
105.1437001919
  0
LINE
  8
1
  6
CONTINUOUS
 62
     7
 10
73.1204216416
 20
126.2643282059
 11
73.1204216416
 21
131.8959144461
  0
LINE
  8
1
  6
CONTINUOUS
 62
     7
 10
73.1204216416
 20
138.4712345316
 11
79.8701639028
 21
138.4712345316
  0
LINE
  8
1
  6
CONTINUOUS
 62
     7
 10
73.1204216416
 20
136.1385551333
 11
73.1204216416
 21
138.7643282059
  0
ARC
  8
1
  6
CONTINUOUS
 62
     7
 10
78.8701639028
 20
113.6327419657
 40
1.0
 50
0.0
 51
90.0
  0
LINE
  8
1
  6
CONTINUOUS
 62
     7
 10
71.9865004088
 20
141.5643282059
 11
70.8701639028
 21
141.5643282059
  0
LINE
  8
1
  6
CONTINUOUS
 62
     7
 10
78.8701639028
 20
110.3901012785
 11
72.7184978529
 21
110.3901012785
  0
LINE
  8
1
  6
CONTINUOUS
 62
     7
 10
79.8701639028
 20
108.0574218802
 11
79.8701639028
 21
107.2643282059
  0
LINE
  8
1
  6
CONTINUOUS
 62
     7
 10
78.8701639028
 20
131.8959144461
 11
73.1204216416
 21
131.8959144461
  0
ARC
  8
1
  6
CONTINUOUS
 62
     7
 10
78.8701639028
 20
135.1385551333
 40
1.0
 50
0.0
 51
90.0
  0
LINE
  8
1
  6
CONTINUOUS
 62
     7
 10
72.4694633219
 20
141.1937377285
 11
73.1204216416
 21
138.7643282059
  0
LINE
  8
1
  6
CONTINUOUS
 62
     7
 10
78.8701639028
 20
136.1385551333
 11
72.7184978529
 21
136.1385551333
  0
LINE
  8
1
  6
CONTINUOUS
 62
     7
 10
80.8701639028
 20
137.7643282059
 11
80.8701639028
 21
108.7643282059
  0
ARC
  8
1
  6
CONTINUOUS
 62
     7
 10
79.8701639028
 20
137.7643282059
 40
1.0
 50
0.0
 51
90.0
  0
LINE
  8
1
  6
CONTINUOUS
 62
     7
 10
79.8701639028
 20
125.2643282059
 11
79.8701639028
 21
121.2643282059
  0
LINE
  8
1
  6
CONTINUOUS
 62
     7
 10
78.8701639028
 20
140.2643282059
 11
72.7184978529
 21
140.2643282059
  0
LINE
  8
1
  6
CONTINUOUS
 62
     7
 10
79.8701639028
 20
132.8959144461
 11
79.8701639028
 21
135.1385551333
  0
ARC
  8
1
  6
CONTINUOUS
 62
     7
 10
78.8701639028
 20
132.8959144461
 40
1.0
 50
270.0
 51
0.0
  0
ARC
  8
1
  6
CONTINUOUS
 62
     7
 10
78.8701639028
 20
125.2643282059
 40
1.0
 50
0.0
 51
90.0
  0
ARC
  8
1
  6
CONTINUOUS
 62
     7
 10
71.9865004088
 20
141.0643282059
 40
0.5
 50
15.0
 51
90.0
  0
LINE
  8
1
  6
CONTINUOUS
 62
     7
 10
73.1204216416
 20
131.8959144461
 11
72.7184978529
 21
134.3663226674
  0
ARC
  8
1
  6
CONTINUOUS
 62
     7
 10
79.8701639028
 20
108.7643282059
 40
1.0
 50
270.0
 51
0.0
  0
ARC
  8
1
  6
CONTINUOUS
 62
     7
 10
78.8701639028
 20
107.2643282059
 40
1.0
 50
270.0
 51
0.0
  0
LINE
  8
1
  6
CONTINUOUS
 62
     7
 10
78.8701639028
 20
106.2643282059
 11
72.7184978529
 21
106.2643282059
  0
LINE
  8
1
  6
CONTINUOUS
 62
     7
 10
79.8701639028
 20
113.6327419657
 11
79.8701639028
 21
111.3901012785
  0
LINE
  8
1
  6
CONTINUOUS
 62
     7
 10
72.7184978529
 20
134.3663226674
 11
72.7184978529
 21
136.1385551333
  0
LINE
  8
1
  6
CONTINUOUS
 62
     7
 10
78.8701639028
 20
114.6327419657
 11
73.1204216416
 21
114.6327419657
  0
LINE
  8
1
  6
CONTINUOUS
 62
     7
 10
72.7184978529
 20
124.5174858004
 11
73.1204216416
 21
126.2643282059
  0
LINE
  8
1
  6
CONTINUOUS
 62
     7
 10
72.7184978529
 20
122.0111706114
 11
72.7184978529
 21
124.5174858004
  0
LINE
  8
1
  6
CONTINUOUS
 62
     7
 10
78.8701639028
 20
120.2643282059
 11
73.1204216416
 21
120.2643282059
  0
ARC
  8
1
  6
CONTINUOUS
 62
     7
 10
78.8701639028
 20
139.2643282059
 40
1.0
 50
0.0
 51
90.0
  0
LINE
  8
1
  6
CONTINUOUS
 62
     7
 10
78.8701639028
 20
126.2643282059
 11
73.1204216416
 21
126.2643282059
  0
ARC
  8
1
  6
CONTINUOUS
 62
     7
 10
78.8701639028
 20
111.3901012785
 40
1.0
 50
270.0
 51
0.0
  0
LINE
  8
1
  6
CONTINUOUS
 62
     7
 10
68.8701638512
 20
145.2643282059
 11
68.8701638512
 21
101.2643282059
  0
LINE
  8
1
  6
CONTINUOUS
 62
     7
 10
45.07016385119999
 20
101.2643282059
 11
59.07016385120001
 21
101.2643282059
  0
LINE
  8
1
  6
CONTINUOUS
 62
     7
 10
59.07016385120001
 20
145.2643282059
 11
45.07016385119999
 21
145.2643282059
  0
LINE
  8
1
  6
CONTINUOUS
 62
     7
 10
56.07016385120001
 20
145.2643282059
 11
56.07016385120001
 21
101.2643282059
  0
LINE
  8
1
  6
CENTER
 62
     7
 10
88.3536929327
 20
123.2643282059
 11
20.0
 21
123.2643282059
  0
LINE
  8
1
  6
CONTINUOUS
 62
     7
 10
70.87016388289015
 20
145.2643282059
 11
70.87016388890984
 21
101.2643282059
  0
LINE
  8
1
  6
CONTINUOUS
 62
     7
 10
45.07016385119999
 20
139.3749342665
 11
56.07016385120001
 21
139.3749342665
  0
LINE
  8
1
  6
CONTINUOUS
 62
     7
 10
70.8701638512
 20
145.2643282059
 11
59.0701638512
 21
145.2643282059
  0
LINE
  8
1
  6
CONTINUOUS
 62
     7
 10
45.07016385119999
 20
140.0855403271
 11
56.07016385120001
 21
140.0855403271
  0
LINE
  8
1
  6
CONTINUOUS
 62
     7
 10
82.4701638512
 20
110.6750424916
 11
80.870163886
 21
110.6750424916
  0
LINE
  8
1
  6
CONTINUOUS
 62
     7
 10
45.07016385119999
 20
136.9385706301
 11
56.07016385120001
 21
136.9385706301
  0
LINE
  8
1
  6
CONTINUOUS
 62
     7
 10
45.07016385119999
 20
141.3037221453
 11
56.07016385120001
 21
141.3037221453
  0
LINE
  8
1
  6
CONTINUOUS
 62
     7
 10
56.07016385120001
 20
126.623419115
 11
45.07016385119999
 21
126.623419115
  0
LINE
  8
1
  6
CONTINUOUS
 62
     7
 10
70.8701638512
 20
101.2643282059
 11
59.0701638512
 21
101.2643282059
  0
LINE
  8
1
  6
CONTINUOUS
 62
     7
 10
81.1308781369
 20
137.1928996345
 11
81.1308781369
 21
109.3357567773
  0
LINE
  8
1
  6
CONTINUOUS
 62
     7
 10
82.4701638512
 20
136.5232567773
 11
81.8005209941
 21
137.1928996345
  0
LINE
  8
1
  6
CONTINUOUS
 62
     7
 10
45.07016385119999
 20
144.9582675998
 11
56.07016385120001
 21
144.9582675998
  0
LINE
  8
1
  6
CONTINUOUS
 62
     7
 10
45.07016385119999
 20
131.6597827514
 11
56.07016385120001
 21
131.6597827514
  0
LINE
  8
1
  6
CONTINUOUS
 62
     7
 10
67.0701638512
 20
113.25665206
 11
67.0701638512
 21
133.2720043518
  0
LINE
  8
1
  6
CONTINUOUS
 62
     7
 10
45.07016385119999
 20
135.3143282059
 11
56.07016385120001
 21
135.3143282059
  0
LINE
  8
1
  6
CONTINUOUS
 62
     7
 10
56.07016385120001
 20
112.8385706301
 11
45.07016385119999
 21
112.8385706301
  0
LINE
  8
1
  6
CONTINUOUS
 62
     7
 10
45.07016385119999
 20
110.4022069938
 11
56.07016385120001
 21
110.4022069938
  0
LINE
  8
1
  6
CONTINUOUS
 62
     7
 10
45.07016385119999
 20
109.5900857817
 11
56.07016385120001
 21
109.5900857817
  0
LINE
  8
1
  6
CONTINUOUS
 62
     7
 10
45.07016385119999
 20
108.7779645695
 11
56.07016385120001
 21
108.7779645695
  0
LINE
  8
1
  6
CONTINUOUS
 62
     7
 10
45.07016385119999
 20
107.9658433574
 11
56.07016385120001
 21
107.9658433574
  0
LINE
  8
1
  6
CONTINUOUS
 62
     7
 10
45.07016385119999
 20
107.1537221453
 11
56.07016385120001
 21
107.1537221453
  0
LINE
  8
1
  6
CONTINUOUS
 62
     7
 10
80.870163886
 20
137.1928996345
 11
81.8005209941
 21
137.1928996345
  0
LINE
  8
1
  6
CONTINUOUS
 62
     7
 10
45.07016385119999
 20
111.2143282059
 11
56.07016385120001
 21
111.2143282059
  0
LINE
  8
1
  6
CONTINUOUS
 62
     7
 10
45.07016385119999
 20
106.4431160847
 11
56.07016385120001
 21
106.4431160847
  0
LINE
  8
1
  6
CONTINUOUS
 62
     7
 10
45.07016385119999
 20
138.5628130544
 11
56.07016385120001
 21
138.5628130544
  0
LINE
  8
1
  6
CONTINUOUS
 62
     7
 10
45.07016385119999
 20
103.3976615392
 11
56.07016385120001
 21
103.3976615392
  0
LINE
  8
1
  6
CONTINUOUS
 62
     7
 10
59.0701638512
 20
113.25665206
 11
67.0701638512
 21
113.25665206
  0
LINE
  8
1
  6
CONTINUOUS
 62
     7
 10
82.4701638512
 20
110.0053996345
 11
81.8005209941
 21
109.3357567773
  0
LINE
  8
1
  6
CONTINUOUS
 62
     7
 10
80.870163886
 20
109.3357567773
 11
81.8005209941
 21
109.3357567773
  0
LINE
  8
1
  6
CONTINUOUS
 62
     7
 10
82.4701638512
 20
136.5232567773
 11
82.4701638512
 21
110.0053996345
  0
LINE
  8
1
  6
CONTINUOUS
 62
     7
 10
59.0701638512
 20
133.2720043518
 11
67.0701638512
 21
133.2720043518
  0
LINE
  8
1
  6
CONTINUOUS
 62
     7
 10
82.4701638512
 20
135.8536139202
 11
80.870163886
 21
135.8536139202
  0
LINE
  8
1
  6
CONTINUOUS
 62
     7
 10
45.07016385119999
 20
114.8688736604
 11
56.07016385120001
 21
114.8688736604
  0
LINE
  8
1
  6
CONTINUOUS
 62
     7
 10
59.07016385120001
 20
145.2643282059
 11
59.07016385120001
 21
101.2643282059
  0
LINE
  8
1
  6
CONTINUOUS
 62
     7
 10
45.07016385119999
 20
101.570388812
 11
56.07016385120001
 21
101.570388812
  0
LINE
  8
1
  6
CONTINUOUS
 62
     7
 10
45.07016385119999
 20
112.026449418
 11
56.07016385120001
 21
112.026449418
  0
LINE
  8
1
  6
CONTINUOUS
 62
     7
 10
45.07016385119999
 20
105.2249342665
 11
56.07016385120001
 21
105.2249342665
  0
LINE
  8
1
  6
CONTINUOUS
 62
     7
 10
56.07016385120001
 20
133.6900857817
 11
45.07016385119999
 21
133.6900857817
  0
LINE
  8
1
  6
CONTINUOUS
 62
     7
 10
45.07016385119999
 20
122.8052372968
 11
56.07016385120001
 21
122.8052372968
  0
LINE
  8
1
  6
CONTINUOUS
 62
     7
 10
56.07016385120001
 20
119.9052372968
 11
45.07016385119999
 21
119.9052372968
  0
LINE
  8
1
  6
CONTINUOUS
 62
     7
 10
45.07016385119999
 20
117.3052372968
 11
56.07016385120001
 21
117.3052372968
  0
LINE
  8
1
  6
CONTINUOUS
 62
     7
 10
56.07016385120001
 20
118.5052372968
 11
45.07016385119999
 21
118.5052372968
  0
LINE
  8
1
  6
CONTINUOUS
 62
     7
 10
45.07016385119999
 20
143.7400857817
 11
56.07016385120001
 21
143.7400857817
  0
LINE
  8
1
  6
CONTINUOUS
 62
     7
 10
45.07016385119999
 20
141.9128130544
 11
56.07016385120001
 21
141.9128130544
  0
LINE
  8
1
  6
CONTINUOUS
 62
     7
 10
45.07016385119999
 20
144.3491766908
 11
56.07016385120001
 21
144.3491766908
  0
LINE
  8
1
  6
CONTINUOUS
 62
     7
 10
45.07016385119999
 20
102.7885706301
 11
56.07016385120001
 21
102.7885706301
  0
LINE
  8
1
  6
CONTINUOUS
 62
     7
 10
45.07016385119999
 20
145.2643282059
 11
26.90988624447425
 21
142.3155201163131
  0
ARC
  8
1
  6
CONTINUOUS
 62
     7
 10
27.07016385120001
 20
141.3284481388047
 40
1.000000000000001
 50
99.2230098697463
 51
180.0
  0
LINE
  8
1
  6
CONTINUOUS
 62
     7
 10
26.07016385120001
 20
141.3284481388047
 11
26.07016385120001
 21
105.2002082729954
  0
ARC
  8
1
  6
CONTINUOUS
 62
     7
 10
27.07016385120001
 20
105.2002082729954
 40
1.000000000000001
 50
180.0
 51
260.7769901302538
  0
LINE
  8
1
  6
CONTINUOUS
 62
     7
 10
26.90988624447425
 20
104.213136295487
 11
45.07016385119999
 21
101.2643282059
  0
LINE
  8
1
  6
CONTINUOUS
 62
     7
 10
45.07016385119999
 20
136.126449418
 11
56.07016385120001
 21
136.126449418
  0
LINE
  8
1
  6
CONTINUOUS
 62
     7
 10
45.07016385119999
 20
102.179479721
 11
56.07016385120001
 21
102.179479721
  0
LINE
  8
1
  6
CONTINUOUS
 62
     7
 10
45.07016385119999
 20
104.6158433574
 11
56.07016385120001
 21
104.6158433574
  0
LINE
  8
1
  6
CONTINUOUS
 62
     7
 10
45.07016385119999
 20
130.4416009332
 11
56.07016385120001
 21
130.4416009332
  0
LINE
  8
1
  6
CONTINUOUS
 62
     7
 10
45.07016385119999
 20
142.5219039635
 11
56.07016385120001
 21
142.5219039635
  0
LINE
  8
1
  6
CONTINUOUS
 62
     7
 10
56.07016385120001
 20
121.3052372968
 11
45.07016385119999
 21
121.3052372968
  0
LINE
  8
1
  6
CONTINUOUS
 62
     7
 10
56.07016385120001
 20
105.8340251756
 11
45.07016385119999
 21
105.8340251756
  0
LINE
  8
1
  6
CONTINUOUS
 62
     7
 10
56.07016385120001
 20
113.8537221453
 11
45.07016385119999
 21
113.8537221453
  0
LINE
  8
1
  6
CONTINUOUS
 62
     7
 10
45.07016385119999
 20
137.7506918423
 11
56.07016385120001
 21
137.7506918423
  0
LINE
  8
1
  6
CONTINUOUS
 62
     7
 10
45.07016385119999
 20
134.5022069938
 11
56.07016385120001
 21
134.5022069938
  0
LINE
  8
1
  6
CONTINUOUS
 62
     7
 10
45.07016385119999
 20
129.223419115
 11
56.07016385120001
 21
129.223419115
  0
LINE
  8
1
  6
CONTINUOUS
 62
     7
 10
56.07016385120001
 20
125.223419115
 11
45.07016385119999
 21
125.223419115
  0
LINE
  8
1
  6
CONTINUOUS
 62
     7
 10
45.07016385119999
 20
145.2643282059
 11
45.07016385119999
 21
101.2643282059
  0
LINE
  8
1
  6
CONTINUOUS
 62
     7
 10
56.07016385120001
 20
132.6749342665
 11
45.07016385119999
 21
132.6749342665
  0
LINE
  8
1
  6
CONTINUOUS
 62
     7
 10
45.07016385119999
 20
116.0870554786
 11
56.07016385120001
 21
116.0870554786
  0
LINE
  8
1
  6
CONTINUOUS
 62
     7
 10
56.07016385120001
 20
128.023419115
 11
45.07016385119999
 21
128.023419115
  0
LINE
  8
1
  6
CONTINUOUS
 62
     7
 10
45.07016385119999
 20
143.1309948726
 11
56.07016385120001
 21
143.1309948726
  0
LINE
  8
1
  6
CONTINUOUS
 62
     7
 10
45.07016385119999
 20
104.0067524483
 11
56.07016385120001
 21
104.0067524483
  0
LINE
  8
1
  6
CONTINUOUS
 62
     7
 10
45.07016385119999
 20
123.723419115
 11
56.07016385120001
 21
123.723419115
  0
LINE
  8
1
  6
CONTINUOUS
 62
     7
 10
56.07016385120001
 20
140.6946312361999
 11
45.07016385119999
 21
140.6946312361999
  0
ENDSEC
  0
EOF
