  0
SECTION
  2
HEADER
  9
$ACADVER
  1
AC1004
  9
$INSBASE
 10
0.0
 20
0.0
  9
$EXTMIN
 10
-205.3333333333334
 20
125.2704545454545
  9
$EXTMAX
 10
-148.8356060606061
 20
229.0
  9
$LIMMIN
 10
0.0
 20
0.0
  9
$LIMMAX
 10
12.0
 20
9.0
  9
$ORTHOMODE
 70
     0
  9
$REGENMODE
 70
     1
  9
$FILLMODE
 70
     1
  9
$QTEXTMODE
 70
     0
  9
$DRAGMODE
 70
     2
  9
$LTSCALE
 40
1.0
  9
$OSMODE
 70
    37
  9
$ATTMODE
 70
     1
  9
$TEXTSIZE
 40
0.2
  9
$TRACEWID
 40
0.05
  9
$TEXTSTYLE
  7
STANDARD
  9
$CLAYER
  8
0
  9
$CELTYPE
  6
BYLAYER
  9
$CECOLOR
 62
   256
  9
$DIMSCALE
 40
1.0
  9
$DIMASZ
 40
3.0
  9
$DIMEXO
 40
0.0625
  9
$DIMDLI
 40
0.38
  9
$DIMRND
 40
0.0
  9
$DIMDLE
 40
0.0
  9
$DIMEXE
 40
1.5
  9
$DIMTP
 40
0.0
  9
$DIMTM
 40
0.0
  9
$DIMTXT
 40
3.0
  9
$DIMCEN
 40
0.09
  9
$DIMTSZ
 40
0.0
  9
$DIMTOL
 70
     0
  9
$DIMLIM
 70
     0
  9
$DIMTIH
 70
     1
  9
$DIMTOH
 70
     1
  9
$DIMSE1
 70
     0
  9
$DIMSE2
 70
     0
  9
$DIMTAD
 70
     1
  9
$DIMZIN
 70
     0
  9
$DIMBLK
  1

  9
$DIMASO
 70
     1
  9
$DIMSHO
 70
     1
  9
$DIMPOST
  1

  9
$DIMAPOST
  1

  9
$DIMALT
 70
     0
  9
$DIMALTD
 70
     2
  9
$DIMALTF
 40
25.4
  9
$DIMLFAC
 40
1.0
  9
$DIMTOFL
 70
     0
  9
$DIMTVP
 40
0.0
  9
$DIMTIX
 70
     0
  9
$DIMSOXD
 70
     0
  9
$DIMSAH
 70
     0
  9
$DIMBLK1
  1

  9
$DIMBLK2
  1

  9
$LUNITS
 70
     2
  9
$LUPREC
 70
     4
  9
$SKETCHINC
 40
0.1
  9
$FILLETRAD
 40
0.5
  9
$AUNITS
 70
     0
  9
$AUPREC
 70
     0
  9
$MENU
  1
.
  9
$ELEVATION
 40
0.0
  9
$THICKNESS
 40
0.0
  9
$LIMCHECK
 70
     0
  9
$CHAMFERA
 40
0.0
  9
$CHAMFERB
 40
0.0
  9
$SKPOLY
 70
     0
  9
$TDCREATE
 40
2459460.398300174
  9
$TDUPDATE
 40
2459460.398307269
  9
$TDINDWG
 40
0.0000000116
  9
$TDUSRTIMER
 40
0.0000000116
  9
$USRTIMER
 70
     1
  9
$ANGBASE
 50
0.0
  9
$ANGDIR
 70
     0
  9
$PDMODE
 70
     0
  9
$PDSIZE
 40
0.0
  9
$PLINEWID
 40
0.0
  9
$COORDS
 70
     1
  9
$SPLFRAME
 70
     0
  9
$SPLINETYPE
 70
     6
  9
$SPLINESEGS
 70
     8
  9
$ATTDIA
 70
     0
  9
$ATTREQ
 70
     1
  9
$SURFTAB1
 70
     6
  9
$SURFTAB2
 70
     6
  9
$SURFTYPE
 70
     6
  9
$SURFU
 70
     6
  9
$SURFV
 70
     6
  9
$UCSNAME
  2

  9
$UCSORG
 10
0.0
 20
0.0
 30
0.0
  9
$UCSXDIR
 10
1.0
 20
0.0
 30
0.0
  9
$UCSYDIR
 10
0.0
 20
1.0
 30
0.0
  9
$USERI1
 70
     0
  9
$USERI2
 70
     0
  9
$USERI3
 70
     0
  9
$USERI4
 70
     0
  9
$USERI5
 70
     0
  9
$USERR1
 40
0.0
  9
$USERR2
 40
0.0
  9
$USERR3
 40
0.0
  9
$USERR4
 40
0.0
  9
$USERR5
 40
0.0
  9
$WORLDVIEW
 70
     1
  0
ENDSEC
  0
SECTION
  2
TABLES
  0
TABLE
  2
LTYPE
 70
     2
  0
LTYPE
  2
CONTINUOUS
 70
     0
  3
Solid line
 72
    65
 73
     0
 40
0.0
  0
LTYPE
  2
CENTER
 70
     0
  3

 72
    65
 73
     0
 40
0.0
  0
ENDTAB
  0
TABLE
  2
LAYER
 70
     2
  0
LAYER
  2
0
 70
     0
 62
     7
  6
CONTINUOUS
  0
LAYER
  2
1
 70
     0
 62
     7
  6
CONTINUOUS
  0
ENDTAB
  0
TABLE
  2
STYLE
 70
     2
  0
STYLE
  2
STANDARD
 70
     0
 40
0.0
 41
1.0
 50
0.0
 71
     0
 42
0.2
  3
txt
  4

  0
STYLE
  2
ＭＳ_ゴシック
 70
     0
 40
0.0
 41
1.0
 50
0.0
 71
     0
 42
0.2
  3
ＭＳ ゴシック.shx
  4

  0
ENDTAB
  0
TABLE
  2
VIEW
 70
     0
  0
ENDTAB
  0
ENDSEC
  0
SECTION
  2
BLOCKS
  0
BLOCK
  8
0
  2
D_FRAME_VIEW_1491
 70
     0
 10
0.0
 20
0.0
  0
LINE
  8
1
  6
CONTINUOUS
 62
     7
 10
-188.8845633533917
 20
209.5
 11
-187.782103313275
 21
209.5
  0
LINE
  8
1
  6
CONTINUOUS
 62
     7
 10
-188.8845633533917
 20
212.5
 11
-187.782103313275
 21
212.5
  0
LINE
  8
1
  6
CONTINUOUS
 62
     7
 10
-187.4447625703305
 20
209.5
 11
-187.7821033132751
 21
209.5
  0
LINE
  8
1
  6
CONTINUOUS
 62
     7
 10
-187.7821033132751
 20
212.5
 11
-187.4447625703305
 21
212.5
  0
LINE
  8
1
  6
CONTINUOUS
 62
     7
 10
-188.8845633533917
 20
209.5
 11
-189.2219040963361
 21
209.5
  0
LINE
  8
1
  6
CONTINUOUS
 62
     7
 10
-189.2219040963361
 20
212.5
 11
-188.8845633533917
 21
212.5
  0
LINE
  8
1
  6
CONTINUOUS
 62
     7
 10
-191.3793006738667
 20
209.5
 11
-191.3793006738667
 21
212.5
  0
LINE
  8
1
  6
CONTINUOUS
 62
     7
 10
-191.3793006738667
 20
209.5
 11
-189.2219040963361
 21
209.5
  0
LINE
  8
1
  6
CONTINUOUS
 62
     7
 10
-191.3793006738667
 20
212.5
 11
-189.2219040963361
 21
212.5
  0
LINE
  8
1
  6
CONTINUOUS
 62
     7
 10
-185.2873659928
 20
209.5
 11
-185.2873659928
 21
212.5
  0
LINE
  8
1
  6
CONTINUOUS
 62
     7
 10
-187.4447625703305
 20
209.5
 11
-185.2873659928
 21
209.5
  0
LINE
  8
1
  6
CONTINUOUS
 62
     7
 10
-187.4447625703305
 20
212.5
 11
-185.2873659928
 21
212.5
  0
LINE
  8
1
  6
CONTINUOUS
 62
     7
 10
-196.565126220171
 20
209.5
 11
-196.565126220171
 21
212.5
  0
LINE
  8
1
  6
CONTINUOUS
 62
     7
 10
-191.3793006738667
 20
209.5
 11
-196.565126220171
 21
209.5
  0
LINE
  8
1
  6
CONTINUOUS
 62
     7
 10
-191.3793006738667
 20
212.5
 11
-196.565126220171
 21
212.5
  0
LINE
  8
1
  6
CONTINUOUS
 62
     7
 10
-180.1015404464957
 20
209.5
 11
-180.1015404464957
 21
212.5
  0
LINE
  8
1
  6
CONTINUOUS
 62
     7
 10
-180.1015404464957
 20
209.5
 11
-185.2873659928
 21
209.5
  0
LINE
  8
1
  6
CONTINUOUS
 62
     7
 10
-180.1015404464957
 20
212.5
 11
-185.2873659928
 21
212.5
  0
LINE
  8
1
  6
CONTINUOUS
 62
     7
 10
-199.6161457195319
 20
209.5
 11
-196.565126220171
 21
209.5
  0
LINE
  8
1
  6
CONTINUOUS
 62
     7
 10
-199.6161457195319
 20
212.5
 11
-196.565126220171
 21
212.5
  0
LINE
  8
1
  6
CONTINUOUS
 62
     7
 10
-176.7086175414924
 20
209.5
 11
-177.0505209471347
 21
209.5
  0
LINE
  8
1
  6
CONTINUOUS
 62
     7
 10
-177.0505209471347
 20
212.5
 11
-176.7086175414924
 21
212.5
  0
LINE
  8
1
  6
CONTINUOUS
 62
     7
 10
-180.1015404464957
 20
209.5
 11
-177.0505209471347
 21
209.5
  0
LINE
  8
1
  6
CONTINUOUS
 62
     7
 10
-180.1015404464957
 20
212.5
 11
-177.0505209471348
 21
212.5
  0
LINE
  8
1
  6
CONTINUOUS
 62
     7
 10
-199.6161457195319
 20
209.5
 11
-199.9580491251743
 21
209.5
  0
LINE
  8
1
  6
CONTINUOUS
 62
     7
 10
-199.9580491251743
 20
212.5
 11
-199.6161457195319
 21
212.5
  0
LINE
  8
1
  6
CONTINUOUS
 62
     7
 10
-176.7086175414924
 20
209.5
 11
-175.9290605711387
 21
209.5
  0
LINE
  8
1
  6
CONTINUOUS
 62
     7
 10
-176.7086175414924
 20
212.5
 11
-175.9290605711387
 21
212.5
  0
LINE
  8
1
  6
CONTINUOUS
 62
     7
 10
-200.737606095528
 20
209.5
 11
-199.9580491251743
 21
209.5
  0
LINE
  8
1
  6
CONTINUOUS
 62
     7
 10
-200.737606095528
 20
212.5
 11
-199.9580491251743
 21
212.5
  0
LINE
  8
1
  6
CONTINUOUS
 62
     7
 10
-175.793892122968
 20
212.5
 11
-175.793892122968
 21
209.5
  0
LINE
  8
1
  6
CONTINUOUS
 62
     7
 10
-175.793892122968
 20
209.5
 11
-175.9290605711387
 21
209.5
  0
LINE
  8
1
  6
CONTINUOUS
 62
     7
 10
-175.9290605711387
 20
212.5
 11
-175.793892122968
 21
212.5
  0
LINE
  8
1
  6
CONTINUOUS
 62
     7
 10
-200.8727745436987
 20
209.5
 11
-200.8727745436987
 21
212.5
  0
LINE
  8
1
  6
CONTINUOUS
 62
     7
 10
-200.737606095528
 20
209.5
 11
-200.8727745436987
 21
209.5
  0
LINE
  8
1
  6
CONTINUOUS
 62
     7
 10
-200.8727745436987
 20
212.5
 11
-200.737606095528
 21
212.5
  0
POLYLINE
  8
1
  6
CONTINUOUS
 62
     7
 66
     1
  0
VERTEX
  8
1
  6
CONTINUOUS
 62
     7
 10
-177.9569508107024
 20
214.6142857142857
  0
VERTEX
  8
1
  6
CONTINUOUS
 62
     7
 10
-177.956950954798
 20
214.614020716895
  0
VERTEX
  8
1
  6
CONTINUOUS
 62
     7
 10
-177.9569513870305
 20
214.613755719795
  0
VERTEX
  8
1
  6
CONTINUOUS
 62
     7
 10
-177.9569521073188
 20
214.6134907232765
  0
VERTEX
  8
1
  6
CONTINUOUS
 62
     7
 10
-177.9569531155813
 20
214.6132257276301
  0
VERTEX
  8
1
  6
CONTINUOUS
 62
     7
 10
-177.9569544117369
 20
214.6129607331467
  0
VERTEX
  8
1
  6
CONTINUOUS
 62
     7
 10
-177.9569559957041
 20
214.612695740117
  0
VERTEX
  8
1
  6
CONTINUOUS
 62
     7
 10
-177.9569578674019
 20
214.6124307488317
  0
VERTEX
  8
1
  6
CONTINUOUS
 62
     7
 10
-177.9569600267486
 20
214.6121657595815
  0
VERTEX
  8
1
  6
CONTINUOUS
 62
     7
 10
-177.9569624736632
 20
214.6119007726572
  0
VERTEX
  8
1
  6
CONTINUOUS
 62
     7
 10
-177.9569652080642
 20
214.6116357883494
  0
VERTEX
  8
1
  6
CONTINUOUS
 62
     7
 10
-177.9569682298705
 20
214.611370806949
  0
VERTEX
  8
1
  6
CONTINUOUS
 62
     7
 10
-177.9569715390006
 20
214.6111058287467
  0
VERTEX
  8
1
  6
CONTINUOUS
 62
     7
 10
-177.9569751353731
 20
214.6108408540331
  0
VERTEX
  8
1
  6
CONTINUOUS
 62
     7
 10
-177.956979018907
 20
214.6105758830992
  0
VERTEX
  8
1
  6
CONTINUOUS
 62
     7
 10
-177.9569831895208
 20
214.6103109162354
  0
VERTEX
  8
1
  6
CONTINUOUS
 62
     7
 10
-177.9569876471332
 20
214.6100459537327
  0
VERTEX
  8
1
  6
CONTINUOUS
 62
     7
 10
-177.9569923916629
 20
214.6097809958817
  0
VERTEX
  8
1
  6
CONTINUOUS
 62
     7
 10
-177.9569974230285
 20
214.6095160429732
  0
VERTEX
  8
1
  6
CONTINUOUS
 62
     7
 10
-177.9570027411488
 20
214.6092510952977
  0
VERTEX
  8
1
  6
CONTINUOUS
 62
     7
 10
-177.9570083459425
 20
214.6089861531464
  0
VERTEX
  8
1
  6
CONTINUOUS
 62
     7
 10
-177.9570142373283
 20
214.6087212168096
  0
VERTEX
  8
1
  6
CONTINUOUS
 62
     7
 10
-177.9570204152248
 20
214.6084562865783
  0
VERTEX
  8
1
  6
CONTINUOUS
 62
     7
 10
-177.9570268795508
 20
214.6081913627431
  0
VERTEX
  8
1
  6
CONTINUOUS
 62
     7
 10
-177.9570336302248
 20
214.6079264455947
  0
SEQEND
  8
1
  6
CONTINUOUS
 62
     7
  0
POLYLINE
  8
1
  6
CONTINUOUS
 62
     7
 66
     1
  0
VERTEX
  8
1
  6
CONTINUOUS
 62
     7
 10
-177.9570336302248
 20
214.6079264455947
  0
VERTEX
  8
1
  6
CONTINUOUS
 62
     7
 10
-177.9573128923569
 20
214.6009772762036
  0
VERTEX
  8
1
  6
CONTINUOUS
 62
     7
 10
-177.9577878532791
 20
214.5940381679533
  0
VERTEX
  8
1
  6
CONTINUOUS
 62
     7
 10
-177.958457043223
 20
214.5871143761088
  0
VERTEX
  8
1
  6
CONTINUOUS
 62
     7
 10
-177.9593189924202
 20
214.5802111559352
  0
VERTEX
  8
1
  6
CONTINUOUS
 62
     7
 10
-177.9603722311022
 20
214.5733337626975
  0
VERTEX
  8
1
  6
CONTINUOUS
 62
     7
 10
-177.9616152895004
 20
214.5664874516607
  0
VERTEX
  8
1
  6
CONTINUOUS
 62
     7
 10
-177.9630466978466
 20
214.55967747809
  0
VERTEX
  8
1
  6
CONTINUOUS
 62
     7
 10
-177.9646649863721
 20
214.5529090972503
  0
VERTEX
  8
1
  6
CONTINUOUS
 62
     7
 10
-177.9664686853085
 20
214.5461875644067
  0
VERTEX
  8
1
  6
CONTINUOUS
 62
     7
 10
-177.9684563248874
 20
214.5395181348243
  0
VERTEX
  8
1
  6
CONTINUOUS
 62
     7
 10
-177.9706264353402
 20
214.532906063768
  0
VERTEX
  8
1
  6
CONTINUOUS
 62
     7
 10
-177.9729775468986
 20
214.526356606503
  0
VERTEX
  8
1
  6
CONTINUOUS
 62
     7
 10
-177.9755081897941
 20
214.5198750182943
  0
VERTEX
  8
1
  6
CONTINUOUS
 62
     7
 10
-177.9782168942581
 20
214.5134665544069
  0
VERTEX
  8
1
  6
CONTINUOUS
 62
     7
 10
-177.9811021905223
 20
214.5071364701059
  0
VERTEX
  8
1
  6
CONTINUOUS
 62
     7
 10
-177.9841626088182
 20
214.5008900206564
  0
VERTEX
  8
1
  6
CONTINUOUS
 62
     7
 10
-177.9873966793772
 20
214.4947324613233
  0
VERTEX
  8
1
  6
CONTINUOUS
 62
     7
 10
-177.9908029324311
 20
214.4886690473718
  0
VERTEX
  8
1
  6
CONTINUOUS
 62
     7
 10
-177.9943798847015
 20
214.482705025869
  0
VERTEX
  8
1
  6
CONTINUOUS
 62
     7
 10
-177.9981251473
 20
214.4768450943442
  0
VERTEX
  8
1
  6
CONTINUOUS
 62
     7
 10
-178.0020348700883
 20
214.4710930636186
  0
VERTEX
  8
1
  6
CONTINUOUS
 62
     7
 10
-178.0061050702527
 20
214.465452664004
  0
VERTEX
  8
1
  6
CONTINUOUS
 62
     7
 10
-178.0103317649798
 20
214.4599276258123
  0
VERTEX
  8
1
  6
CONTINUOUS
 62
     7
 10
-178.0147109714562
 20
214.4545216793555
  0
VERTEX
  8
1
  6
CONTINUOUS
 62
     7
 10
-178.0192387068683
 20
214.4492385549452
  0
VERTEX
  8
1
  6
CONTINUOUS
 62
     7
 10
-178.0239109884026
 20
214.4440819828936
  0
VERTEX
  8
1
  6
CONTINUOUS
 62
     7
 10
-178.0287238332458
 20
214.4390556935125
  0
VERTEX
  8
1
  6
CONTINUOUS
 62
     7
 10
-178.0336732585842
 20
214.4341634171138
  0
VERTEX
  8
1
  6
CONTINUOUS
 62
     7
 10
-178.0387552816045
 20
214.4294088840094
  0
VERTEX
  8
1
  6
CONTINUOUS
 62
     7
 10
-178.0439659194932
 20
214.4247958245112
  0
VERTEX
  8
1
  6
CONTINUOUS
 62
     7
 10
-178.0493011894366
 20
214.4203279689311
  0
VERTEX
  8
1
  6
CONTINUOUS
 62
     7
 10
-178.0547571086215
 20
214.416009047581
  0
VERTEX
  8
1
  6
CONTINUOUS
 62
     7
 10
-178.0603296942344
 20
214.4118427907729
  0
VERTEX
  8
1
  6
CONTINUOUS
 62
     7
 10
-178.0660149634616
 20
214.4078329288184
  0
VERTEX
  8
1
  6
CONTINUOUS
 62
     7
 10
-178.0718089334898
 20
214.4039831920296
  0
VERTEX
  8
1
  6
CONTINUOUS
 62
     7
 10
-178.0777076215055
 20
214.4002973107185
  0
VERTEX
  8
1
  6
CONTINUOUS
 62
     7
 10
-178.0837070446952
 20
214.3967790151968
  0
VERTEX
  8
1
  6
CONTINUOUS
 62
     7
 10
-178.0898032202454
 20
214.3934320357765
  0
VERTEX
  8
1
  6
CONTINUOUS
 62
     7
 10
-178.1292599389825
 20
214.3728835355152
  0
VERTEX
  8
1
  6
CONTINUOUS
 62
     7
 10
-178.1815289621796
 20
214.3456740042742
  0
VERTEX
  8
1
  6
CONTINUOUS
 62
     7
 10
-178.2337979853767
 20
214.3184644730333
  0
VERTEX
  8
1
  6
CONTINUOUS
 62
     7
 10
-178.2860670085738
 20
214.2912549417923
  0
VERTEX
  8
1
  6
CONTINUOUS
 62
     7
 10
-178.3383360317709
 20
214.2640454105514
  0
VERTEX
  8
1
  6
CONTINUOUS
 62
     7
 10
-178.3906050549681
 20
214.2368358793104
  0
VERTEX
  8
1
  6
CONTINUOUS
 62
     7
 10
-178.4428740781651
 20
214.2096263480695
  0
VERTEX
  8
1
  6
CONTINUOUS
 62
     7
 10
-178.4951431013623
 20
214.1824168168286
  0
VERTEX
  8
1
  6
CONTINUOUS
 62
     7
 10
-178.5474121245593
 20
214.1552072855876
  0
VERTEX
  8
1
  6
CONTINUOUS
 62
     7
 10
-178.5996811477565
 20
214.1279977543467
  0
VERTEX
  8
1
  6
CONTINUOUS
 62
     7
 10
-178.6519501709536
 20
214.1007882231058
  0
VERTEX
  8
1
  6
CONTINUOUS
 62
     7
 10
-178.7042191941507
 20
214.0735786918648
  0
VERTEX
  8
1
  6
CONTINUOUS
 62
     7
 10
-178.7564882173478
 20
214.0463691606238
  0
VERTEX
  8
1
  6
CONTINUOUS
 62
     7
 10
-178.8087572405449
 20
214.019159629383
  0
VERTEX
  8
1
  6
CONTINUOUS
 62
     7
 10
-178.861026263742
 20
213.991950098142
  0
VERTEX
  8
1
  6
CONTINUOUS
 62
     7
 10
-178.9132952869391
 20
213.964740566901
  0
VERTEX
  8
1
  6
CONTINUOUS
 62
     7
 10
-178.9655643101362
 20
213.9375310356601
  0
VERTEX
  8
1
  6
CONTINUOUS
 62
     7
 10
-179.0178333333334
 20
213.9103215044192
  0
SEQEND
  8
1
  6
CONTINUOUS
 62
     7
  0
POLYLINE
  8
1
  6
CONTINUOUS
 62
     7
 66
     1
  0
VERTEX
  8
1
  6
CONTINUOUS
 62
     7
 10
-177.9569508107024
 20
225.5
  0
VERTEX
  8
1
  6
CONTINUOUS
 62
     7
 10
-177.9570530780733
 20
225.5070672965032
  0
VERTEX
  8
1
  6
CONTINUOUS
 62
     7
 10
-177.957358851549
 20
225.5141290760565
  0
VERTEX
  8
1
  6
CONTINUOUS
 62
     7
 10
-177.9578665881744
 20
225.52117982171
  0
VERTEX
  8
1
  6
CONTINUOUS
 62
     7
 10
-177.9585747449942
 20
225.528214016514
  0
VERTEX
  8
1
  6
CONTINUOUS
 62
     7
 10
-177.9594817790529
 20
225.5352261435184
  0
VERTEX
  8
1
  6
CONTINUOUS
 62
     7
 10
-177.9605861473955
 20
225.5422106857734
  0
VERTEX
  8
1
  6
CONTINUOUS
 62
     7
 10
-177.9618863070665
 20
225.5491621263291
  0
VERTEX
  8
1
  6
CONTINUOUS
 62
     7
 10
-177.9633807151108
 20
225.5560749482356
  0
VERTEX
  8
1
  6
CONTINUOUS
 62
     7
 10
-177.965067828573
 20
225.5629436345431
  0
VERTEX
  8
1
  6
CONTINUOUS
 62
     7
 10
-177.9669461044978
 20
225.5697626683016
  0
VERTEX
  8
1
  6
CONTINUOUS
 62
     7
 10
-177.96901399993
 20
225.5765265325614
  0
VERTEX
  8
1
  6
CONTINUOUS
 62
     7
 10
-177.9712699719144
 20
225.5832297103726
  0
VERTEX
  8
1
  6
CONTINUOUS
 62
     7
 10
-177.9737124774955
 20
225.5898666847851
  0
VERTEX
  8
1
  6
CONTINUOUS
 62
     7
 10
-177.9763399737182
 20
225.5964319388492
  0
VERTEX
  8
1
  6
CONTINUOUS
 62
     7
 10
-177.9791509176271
 20
225.6029199556149
  0
VERTEX
  8
1
  6
CONTINUOUS
 62
     7
 10
-177.9821437662671
 20
225.6093252181325
  0
VERTEX
  8
1
  6
CONTINUOUS
 62
     7
 10
-177.9853169766827
 20
225.6156422094519
  0
VERTEX
  8
1
  6
CONTINUOUS
 62
     7
 10
-177.9886690059187
 20
225.6218654126235
  0
VERTEX
  8
1
  6
CONTINUOUS
 62
     7
 10
-177.9921983110199
 20
225.6279893106972
  0
VERTEX
  8
1
  6
CONTINUOUS
 62
     7
 10
-177.9959031858026
 20
225.6340084857724
  0
VERTEX
  8
1
  6
CONTINUOUS
 62
     7
 10
-177.9997803446931
 20
225.6399184783463
  0
VERTEX
  8
1
  6
CONTINUOUS
 62
     7
 10
-178.0038256163419
 20
225.6457153664178
  0
VERTEX
  8
1
  6
CONTINUOUS
 62
     7
 10
-178.0080348196119
 20
225.6513952339248
  0
VERTEX
  8
1
  6
CONTINUOUS
 62
     7
 10
-178.0124037733665
 20
225.6569541648054
  0
VERTEX
  8
1
  6
CONTINUOUS
 62
     7
 10
-178.0169282964687
 20
225.6623882429975
  0
VERTEX
  8
1
  6
CONTINUOUS
 62
     7
 10
-178.0216042077818
 20
225.6676935524391
  0
VERTEX
  8
1
  6
CONTINUOUS
 62
     7
 10
-178.0264273261688
 20
225.6728661770682
  0
VERTEX
  8
1
  6
CONTINUOUS
 62
     7
 10
-178.031393470493
 20
225.6779022008229
  0
VERTEX
  8
1
  6
CONTINUOUS
 62
     7
 10
-178.0364984596175
 20
225.6827977076411
  0
VERTEX
  8
1
  6
CONTINUOUS
 62
     7
 10
-178.0417381124054
 20
225.6875487814608
  0
VERTEX
  8
1
  6
CONTINUOUS
 62
     7
 10
-178.0471082477198
 20
225.69215150622
  0
VERTEX
  8
1
  6
CONTINUOUS
 62
     7
 10
-178.052604684424
 20
225.6966019658567
  0
VERTEX
  8
1
  6
CONTINUOUS
 62
     7
 10
-178.0582232413809
 20
225.7008962443088
  0
VERTEX
  8
1
  6
CONTINUOUS
 62
     7
 10
-178.063959737454
 20
225.7050304255145
  0
VERTEX
  8
1
  6
CONTINUOUS
 62
     7
 10
-178.0698099915063
 20
225.7090005934117
  0
VERTEX
  8
1
  6
CONTINUOUS
 62
     7
 10
-178.0757698224008
 20
225.7128028319383
  0
VERTEX
  8
1
  6
CONTINUOUS
 62
     7
 10
-178.0818350490008
 20
225.7164332250324
  0
VERTEX
  8
1
  6
CONTINUOUS
 62
     7
 10
-178.0880014901694
 20
225.719887856632
  0
VERTEX
  8
1
  6
CONTINUOUS
 62
     7
 10
-178.1147494118526
 20
225.7338484764606
  0
VERTEX
  8
1
  6
CONTINUOUS
 62
     7
 10
-178.1678719954691
 20
225.7615023431315
  0
VERTEX
  8
1
  6
CONTINUOUS
 62
     7
 10
-178.2209945790856
 20
225.7891562098024
  0
VERTEX
  8
1
  6
CONTINUOUS
 62
     7
 10
-178.2741171627021
 20
225.8168100764734
  0
VERTEX
  8
1
  6
CONTINUOUS
 62
     7
 10
-178.3272397463186
 20
225.8444639431443
  0
VERTEX
  8
1
  6
CONTINUOUS
 62
     7
 10
-178.3803623299352
 20
225.8721178098153
  0
VERTEX
  8
1
  6
CONTINUOUS
 62
     7
 10
-178.4334849135517
 20
225.8997716764862
  0
VERTEX
  8
1
  6
CONTINUOUS
 62
     7
 10
-178.4866074971682
 20
225.9274255431572
  0
VERTEX
  8
1
  6
CONTINUOUS
 62
     7
 10
-178.5397300807847
 20
225.9550794098281
  0
VERTEX
  8
1
  6
CONTINUOUS
 62
     7
 10
-178.5928526644012
 20
225.9827332764991
  0
VERTEX
  8
1
  6
CONTINUOUS
 62
     7
 10
-178.6459752480177
 20
226.01038714317
  0
VERTEX
  8
1
  6
CONTINUOUS
 62
     7
 10
-178.6990978316343
 20
226.038041009841
  0
VERTEX
  8
1
  6
CONTINUOUS
 62
     7
 10
-178.7522204152507
 20
226.0656948765119
  0
VERTEX
  8
1
  6
CONTINUOUS
 62
     7
 10
-178.8053429988673
 20
226.0933487431828
  0
VERTEX
  8
1
  6
CONTINUOUS
 62
     7
 10
-178.8584655824837
 20
226.1210026098537
  0
VERTEX
  8
1
  6
CONTINUOUS
 62
     7
 10
-178.9115881661003
 20
226.1486564765247
  0
VERTEX
  8
1
  6
CONTINUOUS
 62
     7
 10
-178.9647107497169
 20
226.1763103431956
  0
VERTEX
  8
1
  6
CONTINUOUS
 62
     7
 10
-179.0178333333334
 20
226.2039642098665
  0
SEQEND
  8
1
  6
CONTINUOUS
 62
     7
  0
POLYLINE
  8
1
  6
CONTINUOUS
 62
     7
 66
     1
  0
VERTEX
  8
1
  6
CONTINUOUS
 62
     7
 10
-179.0178333333334
 20
215.3182499241522
  0
VERTEX
  8
1
  6
CONTINUOUS
 62
     7
 10
-178.9647107497168
 20
215.2905960574813
  0
VERTEX
  8
1
  6
CONTINUOUS
 62
     7
 10
-178.9115881661003
 20
215.2629421908103
  0
VERTEX
  8
1
  6
CONTINUOUS
 62
     7
 10
-178.8584655824838
 20
215.2352883241395
  0
VERTEX
  8
1
  6
CONTINUOUS
 62
     7
 10
-178.8053429988672
 20
215.2076344574685
  0
VERTEX
  8
1
  6
CONTINUOUS
 62
     7
 10
-178.7522204152508
 20
215.1799805907976
  0
VERTEX
  8
1
  6
CONTINUOUS
 62
     7
 10
-178.6990978316342
 20
215.1523267241267
  0
VERTEX
  8
1
  6
CONTINUOUS
 62
     7
 10
-178.6459752480177
 20
215.1246728574557
  0
VERTEX
  8
1
  6
CONTINUOUS
 62
     7
 10
-178.5928526644012
 20
215.0970189907847
  0
VERTEX
  8
1
  6
CONTINUOUS
 62
     7
 10
-178.5397300807846
 20
215.0693651241137
  0
VERTEX
  8
1
  6
CONTINUOUS
 62
     7
 10
-178.4866074971682
 20
215.0417112574429
  0
VERTEX
  8
1
  6
CONTINUOUS
 62
     7
 10
-178.4334849135516
 20
215.0140573907719
  0
VERTEX
  8
1
  6
CONTINUOUS
 62
     7
 10
-178.3803623299351
 20
214.986403524101
  0
VERTEX
  8
1
  6
CONTINUOUS
 62
     7
 10
-178.3272397463186
 20
214.95874965743
  0
VERTEX
  8
1
  6
CONTINUOUS
 62
     7
 10
-178.2741171627021
 20
214.9310957907591
  0
VERTEX
  8
1
  6
CONTINUOUS
 62
     7
 10
-178.2209945790855
 20
214.9034419240882
  0
VERTEX
  8
1
  6
CONTINUOUS
 62
     7
 10
-178.167871995469
 20
214.8757880574172
  0
VERTEX
  8
1
  6
CONTINUOUS
 62
     7
 10
-178.1147494118525
 20
214.8481341907463
  0
VERTEX
  8
1
  6
CONTINUOUS
 62
     7
 10
-178.0880014901694
 20
214.8341735709177
  0
VERTEX
  8
1
  6
CONTINUOUS
 62
     7
 10
-178.0818350490008
 20
214.8307189393181
  0
VERTEX
  8
1
  6
CONTINUOUS
 62
     7
 10
-178.0757698224007
 20
214.827088546224
  0
VERTEX
  8
1
  6
CONTINUOUS
 62
     7
 10
-178.0698099915062
 20
214.8232863076973
  0
VERTEX
  8
1
  6
CONTINUOUS
 62
     7
 10
-178.063959737454
 20
214.8193161398002
  0
VERTEX
  8
1
  6
CONTINUOUS
 62
     7
 10
-178.0582232413809
 20
214.8151819585945
  0
VERTEX
  8
1
  6
CONTINUOUS
 62
     7
 10
-178.0526046844239
 20
214.8108876801424
  0
VERTEX
  8
1
  6
CONTINUOUS
 62
     7
 10
-178.0471082477198
 20
214.8064372205057
  0
VERTEX
  8
1
  6
CONTINUOUS
 62
     7
 10
-178.0417381124054
 20
214.8018344957465
  0
VERTEX
  8
1
  6
CONTINUOUS
 62
     7
 10
-178.0364984596175
 20
214.7970834219268
  0
VERTEX
  8
1
  6
CONTINUOUS
 62
     7
 10
-178.031393470493
 20
214.7921879151086
  0
VERTEX
  8
1
  6
CONTINUOUS
 62
     7
 10
-178.0264273261689
 20
214.7871518913539
  0
VERTEX
  8
1
  6
CONTINUOUS
 62
     7
 10
-178.0216042077818
 20
214.7819792667248
  0
VERTEX
  8
1
  6
CONTINUOUS
 62
     7
 10
-178.0169282964688
 20
214.7766739572832
  0
VERTEX
  8
1
  6
CONTINUOUS
 62
     7
 10
-178.0124037733665
 20
214.7712398790911
  0
VERTEX
  8
1
  6
CONTINUOUS
 62
     7
 10
-178.0080348196119
 20
214.7656809482105
  0
VERTEX
  8
1
  6
CONTINUOUS
 62
     7
 10
-178.0038256163419
 20
214.7600010807035
  0
VERTEX
  8
1
  6
CONTINUOUS
 62
     7
 10
-177.9997803446931
 20
214.754204192632
  0
VERTEX
  8
1
  6
CONTINUOUS
 62
     7
 10
-177.9959031858026
 20
214.7482942000581
  0
VERTEX
  8
1
  6
CONTINUOUS
 62
     7
 10
-177.9921983110198
 20
214.7422750249829
  0
VERTEX
  8
1
  6
CONTINUOUS
 62
     7
 10
-177.9886690059187
 20
214.7361511269092
  0
VERTEX
  8
1
  6
CONTINUOUS
 62
     7
 10
-177.9853169766827
 20
214.7299279237377
  0
VERTEX
  8
1
  6
CONTINUOUS
 62
     7
 10
-177.982143766267
 20
214.7236109324182
  0
VERTEX
  8
1
  6
CONTINUOUS
 62
     7
 10
-177.9791509176271
 20
214.7172056699006
  0
VERTEX
  8
1
  6
CONTINUOUS
 62
     7
 10
-177.9763399737182
 20
214.7107176531349
  0
VERTEX
  8
1
  6
CONTINUOUS
 62
     7
 10
-177.9737124774955
 20
214.7041523990708
  0
VERTEX
  8
1
  6
CONTINUOUS
 62
     7
 10
-177.9712699719144
 20
214.6975154246583
  0
VERTEX
  8
1
  6
CONTINUOUS
 62
     7
 10
-177.9690139999301
 20
214.6908122468472
  0
VERTEX
  8
1
  6
CONTINUOUS
 62
     7
 10
-177.9669461044978
 20
214.6840483825874
  0
VERTEX
  8
1
  6
CONTINUOUS
 62
     7
 10
-177.965067828573
 20
214.6772293488288
  0
VERTEX
  8
1
  6
CONTINUOUS
 62
     7
 10
-177.9633807151108
 20
214.6703606625213
  0
VERTEX
  8
1
  6
CONTINUOUS
 62
     7
 10
-177.9618863070665
 20
214.6634478406147
  0
VERTEX
  8
1
  6
CONTINUOUS
 62
     7
 10
-177.9605861473954
 20
214.656496400059
  0
VERTEX
  8
1
  6
CONTINUOUS
 62
     7
 10
-177.9594817790529
 20
214.6495118578041
  0
VERTEX
  8
1
  6
CONTINUOUS
 62
     7
 10
-177.9585747449942
 20
214.6424997307997
  0
VERTEX
  8
1
  6
CONTINUOUS
 62
     7
 10
-177.9578665881744
 20
214.6354655359958
  0
VERTEX
  8
1
  6
CONTINUOUS
 62
     7
 10
-177.9573588515491
 20
214.6284147903423
  0
VERTEX
  8
1
  6
CONTINUOUS
 62
     7
 10
-177.9570530780732
 20
214.6213530107889
  0
VERTEX
  8
1
  6
CONTINUOUS
 62
     7
 10
-177.9569508107024
 20
214.6142857142857
  0
SEQEND
  8
1
  6
CONTINUOUS
 62
     7
  0
LINE
  8
1
  6
CONTINUOUS
 62
     7
 10
-179.0178333333334
 20
226.2039642098665
 11
-179.1188844589058
 21
226.1611808309307
  0
ARC
  8
1
  6
CONTINUOUS
 62
     7
 10
-75.16955304760933
 20
-2243.616331908419
 40
2471.964082654484
 50
92.41007331636479
 51
92.83970258102072
  0
LINE
  8
1
  6
CONTINUOUS
 62
     7
 10
-179.1559256821492
 20
200.4837872953227
 11
-179.2743015483302
 21
200.4552355215735
  0
ARC
  8
1
  6
CONTINUOUS
 62
     7
 10
112.9977497312837
 20
-7800.668833893452
 40
8006.460474275236
 50
92.09202012748835
 51
92.22234455548504
  0
LINE
  8
1
  6
CONTINUOUS
 62
     7
 10
-197.4728094946471
 20
199.7697389590131
 11
-197.5213333333329
 21
199.7451161969442
  0
LINE
  8
1
  6
CONTINUOUS
 62
     7
 10
-179.1525066398462
 20
201.9858761622855
 11
-179.2650949382073
 21
201.9566047470842
  0
ARC
  8
1
  6
CONTINUOUS
 62
     7
 10
943.7686247249147
 20
-30327.67429669882
 40
30550.27933937791
 50
92.106677722784
 51
92.14071092544815
  0
POLYLINE
  8
1
  6
CONTINUOUS
 62
     7
 66
     1
  0
VERTEX
  8
1
  6
CONTINUOUS
 62
     7
 10
-197.3992352214251
 20
201.2841465472668
  0
VERTEX
  8
1
  6
CONTINUOUS
 62
     7
 10
-197.5149037903664
 20
201.2540472037812
  0
VERTEX
  8
1
  6
CONTINUOUS
 62
     7
 10
-197.5213333333244
 20
201.2452181259119
  0
SEQEND
  8
1
  6
CONTINUOUS
 62
     7
  0
LINE
  8
1
  6
CONTINUOUS
 62
     7
 10
-179.1547826764857
 20
203.4844602265377
 11
-179.3171486454603
 21
203.4488870510829
  0
ARC
  8
1
  6
CONTINUOUS
 62
     7
 10
170.405450060704
 20
-9556.324523214913
 40
9766.037216587953
 50
92.05220536408822
 51
92.15835707419214
  0
POLYLINE
  8
1
  6
CONTINUOUS
 62
     7
 66
     1
  0
VERTEX
  8
1
  6
CONTINUOUS
 62
     7
 10
-197.3984395261956
 20
202.7842073293722
  0
VERTEX
  8
1
  6
CONTINUOUS
 62
     7
 10
-197.5143618769879
 20
202.7545540666382
  0
VERTEX
  8
1
  6
CONTINUOUS
 62
     7
 10
-197.5213333333246
 20
202.7453029644447
  0
SEQEND
  8
1
  6
CONTINUOUS
 62
     7
  0
LINE
  8
1
  6
CONTINUOUS
 62
     7
 10
-179.1559218696705
 20
204.9837225935446
 11
-179.3117780427842
 21
204.9496787564428
  0
ARC
  8
1
  6
CONTINUOUS
 62
     7
 10
287.7606502976977
 20
-12750.72184150384
 40
12964.08813585434
 50
92.06470917678445
 51
92.14467025655931
  0
POLYLINE
  8
1
  6
CONTINUOUS
 62
     7
 66
     1
  0
VERTEX
  8
1
  6
CONTINUOUS
 62
     7
 10
-197.3920467052908
 20
204.285223518934
  0
VERTEX
  8
1
  6
CONTINUOUS
 62
     7
 10
-197.5141084066887
 20
204.254752709447
  0
VERTEX
  8
1
  6
CONTINUOUS
 62
     7
 10
-197.5213333333271
 20
204.2453040379601
  0
SEQEND
  8
1
  6
CONTINUOUS
 62
     7
  0
LINE
  8
1
  6
CONTINUOUS
 62
     7
 10
-179.1523993149216
 20
206.4857429327469
 11
-179.2535747491885
 21
206.4585502029011
  0
ARC
  8
1
  6
CONTINUOUS
 62
     7
 10
-58.94004559302552
 20
-3155.527017836966
 40
3364.13767628591
 50
92.04953793244476
 51
92.36075010889829
  0
LINE
  8
1
  6
CONTINUOUS
 62
     7
 10
-197.5129303411193
 20
205.7554547646674
 11
-197.5213333333324
 21
205.7452207092556
  0
ARC
  8
1
  6
CONTINUOUS
 62
     7
 10
48.69940156446312
 20
-6067.100593452132
 40
6279.196384707171
 50
92.080594099993
 51
92.24688049036175
  0
LINE
  8
1
  6
CONTINUOUS
 62
     7
 10
-197.4790794904388
 20
207.2681710679381
 11
-197.5213333333164
 21
207.2451177241313
  0
POLYLINE
  8
1
  6
CONTINUOUS
 62
     7
 66
     1
  0
VERTEX
  8
1
  6
CONTINUOUS
 62
     7
 10
-178.5208145833334
 20
199.5
  0
VERTEX
  8
1
  6
CONTINUOUS
 62
     7
 10
-178.520902064836
 20
199.5065425114885
  0
VERTEX
  8
1
  6
CONTINUOUS
 62
     7
 10
-178.5211637261125
 20
199.5130806383871
  0
VERTEX
  8
1
  6
CONTINUOUS
 62
     7
 10
-178.5215983923154
 20
199.5196099961057
  0
VERTEX
  8
1
  6
CONTINUOUS
 62
     7
 10
-178.5222048885973
 20
199.5261262000543
  0
VERTEX
  8
1
  6
CONTINUOUS
 62
     7
 10
-178.522982040111
 20
199.532624865643
  0
VERTEX
  8
1
  6
CONTINUOUS
 62
     7
 10
-178.5239286720092
 20
199.5391016082819
  0
VERTEX
  8
1
  6
CONTINUOUS
 62
     7
 10
-178.5250436094443
 20
199.5455520433808
  0
VERTEX
  8
1
  6
CONTINUOUS
 62
     7
 10
-178.5263256775692
 20
199.5519717863498
  0
VERTEX
  8
1
  6
CONTINUOUS
 62
     7
 10
-178.5277737015364
 20
199.558356452599
  0
VERTEX
  8
1
  6
CONTINUOUS
 62
     7
 10
-178.5293865064987
 20
199.5647016575383
  0
VERTEX
  8
1
  6
CONTINUOUS
 62
     7
 10
-178.5311629176086
 20
199.5710030165779
  0
VERTEX
  8
1
  6
CONTINUOUS
 62
     7
 10
-178.5331017600189
 20
199.5772561451277
  0
VERTEX
  8
1
  6
CONTINUOUS
 62
     7
 10
-178.5352018588822
 20
199.5834566585976
  0
VERTEX
  8
1
  6
CONTINUOUS
 62
     7
 10
-178.537462039351
 20
199.5896001723978
  0
VERTEX
  8
1
  6
CONTINUOUS
 62
     7
 10
-178.5398811265782
 20
199.5956823019383
  0
VERTEX
  8
1
  6
CONTINUOUS
 62
     7
 10
-178.5424579457164
 20
199.601698662629
  0
VERTEX
  8
1
  6
CONTINUOUS
 62
     7
 10
-178.5451913219181
 20
199.6076448698801
  0
VERTEX
  8
1
  6
CONTINUOUS
 62
     7
 10
-178.5480800803361
 20
199.6135165391014
  0
VERTEX
  8
1
  6
CONTINUOUS
 62
     7
 10
-178.551123046123
 20
199.6193092857031
  0
VERTEX
  8
1
  6
CONTINUOUS
 62
     7
 10
-178.5543190444315
 20
199.6250187250952
  0
VERTEX
  8
1
  6
CONTINUOUS
 62
     7
 10
-178.5576665578918
 20
199.6306406704431
  0
VERTEX
  8
1
  6
CONTINUOUS
 62
     7
 10
-178.5611627125591
 20
199.636171718131
  0
VERTEX
  8
1
  6
CONTINUOUS
 62
     7
 10
-178.5648042986911
 20
199.6416086584164
  0
VERTEX
  8
1
  6
CONTINUOUS
 62
     7
 10
-178.568588106545
 20
199.6469482815566
  0
VERTEX
  8
1
  6
CONTINUOUS
 62
     7
 10
-178.5725109263781
 20
199.6521873778089
  0
VERTEX
  8
1
  6
CONTINUOUS
 62
     7
 10
-178.5765695484479
 20
199.6573227374308
  0
VERTEX
  8
1
  6
CONTINUOUS
 62
     7
 10
-178.5807607630117
 20
199.6623511506795
  0
VERTEX
  8
1
  6
CONTINUOUS
 62
     7
 10
-178.5850813603269
 20
199.6672694078125
  0
VERTEX
  8
1
  6
CONTINUOUS
 62
     7
 10
-178.5895281306507
 20
199.672074299087
  0
VERTEX
  8
1
  6
CONTINUOUS
 62
     7
 10
-178.5940978642408
 20
199.6767626147606
  0
VERTEX
  8
1
  6
CONTINUOUS
 62
     7
 10
-178.5987873513542
 20
199.6813311450905
  0
VERTEX
  8
1
  6
CONTINUOUS
 62
     7
 10
-178.6035933822485
 20
199.6857766803341
  0
VERTEX
  8
1
  6
CONTINUOUS
 62
     7
 10
-178.608512747181
 20
199.6900960107488
  0
VERTEX
  8
1
  6
CONTINUOUS
 62
     7
 10
-178.6135422364089
 20
199.6942859265918
  0
VERTEX
  8
1
  6
CONTINUOUS
 62
     7
 10
-178.6186786401899
 20
199.6983432181207
  0
VERTEX
  8
1
  6
CONTINUOUS
 62
     7
 10
-178.6239187487811
 20
199.7022646755927
  0
VERTEX
  8
1
  6
CONTINUOUS
 62
     7
 10
-178.6292593524399
 20
199.7060470892652
  0
VERTEX
  8
1
  6
CONTINUOUS
 62
     7
 10
-178.6346972414237
 20
199.7096872493956
  0
VERTEX
  8
1
  6
CONTINUOUS
 62
     7
 10
-178.6402292059899
 20
199.7131819462413
  0
VERTEX
  8
1
  6
CONTINUOUS
 62
     7
 10
-178.6460208333333
 20
199.7166254294391
  0
VERTEX
  8
1
  6
CONTINUOUS
 62
     7
 10
-178.6772278645834
 20
199.7346428173319
  0
VERTEX
  8
1
  6
CONTINUOUS
 62
     7
 10
-178.7084348958333
 20
199.7526602052247
  0
VERTEX
  8
1
  6
CONTINUOUS
 62
     7
 10
-178.7396419270833
 20
199.7706775931175
  0
VERTEX
  8
1
  6
CONTINUOUS
 62
     7
 10
-178.7708489583333
 20
199.7886949810103
  0
VERTEX
  8
1
  6
CONTINUOUS
 62
     7
 10
-178.8020559895834
 20
199.8067123689031
  0
VERTEX
  8
1
  6
CONTINUOUS
 62
     7
 10
-178.8332630208333
 20
199.8247297567959
  0
VERTEX
  8
1
  6
CONTINUOUS
 62
     7
 10
-178.8644700520833
 20
199.8427471446887
  0
VERTEX
  8
1
  6
CONTINUOUS
 62
     7
 10
-178.8956770833333
 20
199.8607645325815
  0
VERTEX
  8
1
  6
CONTINUOUS
 62
     7
 10
-178.9268841145833
 20
199.8787819204743
  0
VERTEX
  8
1
  6
CONTINUOUS
 62
     7
 10
-178.9580911458334
 20
199.8967993083671
  0
VERTEX
  8
1
  6
CONTINUOUS
 62
     7
 10
-178.9892981770833
 20
199.9148166962599
  0
VERTEX
  8
1
  6
CONTINUOUS
 62
     7
 10
-179.0205052083333
 20
199.9328340841527
  0
VERTEX
  8
1
  6
CONTINUOUS
 62
     7
 10
-179.0517122395833
 20
199.9508514720455
  0
VERTEX
  8
1
  6
CONTINUOUS
 62
     7
 10
-179.0829192708334
 20
199.9688688599383
  0
VERTEX
  8
1
  6
CONTINUOUS
 62
     7
 10
-179.1141263020834
 20
199.9868862478311
  0
VERTEX
  8
1
  6
CONTINUOUS
 62
     7
 10
-179.1453333333334
 20
200.0049036357239
  0
SEQEND
  8
1
  6
CONTINUOUS
 62
     7
  0
LINE
  8
1
  6
CONTINUOUS
 62
     7
 10
-197.5141404169091
 20
208.2642650811404
 11
-197.3526375200564
 21
208.3005315769349
  0
ARC
  8
1
  6
CONTINUOUS
 62
     7
 10
-292.5463655811946
 20
2953.118049667813
 40
2746.467741205191
 50
271.9862936764893
 51
272.3661205604852
  0
LINE
  8
1
  6
CONTINUOUS
 62
     7
 10
-179.1588366638429
 20
208.9919006420867
 11
-179.1453333333334
 21
209.0049036357239
  0
LINE
  8
1
  6
CONTINUOUS
 62
     7
 10
-197.512017599304
 20
206.7654616818318
 11
-197.3666518903798
 21
206.7986616033306
  0
ARC
  8
1
  6
CONTINUOUS
 62
     7
 10
-344.8977739262923
 20
4361.25175824464
 40
4157.071801660602
 50
272.0338080340862
 51
272.2846600073937
  0
LINE
  8
1
  6
CONTINUOUS
 62
     7
 10
-179.1791270543766
 20
207.4843966509889
 11
-179.1453333333351
 21
207.5048373054153
  0
LINE
  8
1
  6
CONTINUOUS
 62
     7
 10
-197.5106366154218
 20
205.2662096375718
 11
-197.3736513137128
 21
205.2977451055959
  0
ARC
  8
1
  6
CONTINUOUS
 62
     7
 10
-373.7136072899524
 20
5128.885048551962
 40
4926.744129212715
 50
272.0511911075109
 51
272.262873401781
  0
LINE
  8
1
  6
CONTINUOUS
 62
     7
 10
-179.1844419320279
 20
205.9828436978872
 11
-179.1453333333474
 21
206.0047308691714
  0
LINE
  8
1
  6
CONTINUOUS
 62
     7
 10
-197.5143354761681
 20
203.764062626576
 11
-197.3766532934494
 21
203.7972717795577
  0
ARC
  8
1
  6
CONTINUOUS
 62
     7
 10
-388.1658225442829
 20
5513.616923922749
 40
5313.246205982691
 50
272.0578313662485
 51
272.2541187185125
  0
LINE
  8
1
  6
CONTINUOUS
 62
     7
 10
-179.1871066580328
 20
204.4820469681242
 11
-179.1453333333469
 21
204.5046836980847
  0
LINE
  8
1
  6
CONTINUOUS
 62
     7
 10
-197.5117358117833
 20
202.2657765235784
 11
-197.3796934899537
 21
202.2967566512814
  0
ARC
  8
1
  6
CONTINUOUS
 62
     7
 10
-411.9533505118624
 20
6146.691666831201
 40
5948.266361088807
 50
272.0672969440536
 51
272.2426323244808
  0
LINE
  8
1
  6
CONTINUOUS
 62
     7
 10
-179.1898100542032
 20
202.9812232871764
 11
-179.1453333333455
 21
203.0047290855149
  0
LINE
  8
1
  6
CONTINUOUS
 62
     7
 10
-197.5108291809722
 20
200.766312073058
 11
-197.3864582873407
 21
200.7956564978312
  0
ARC
  8
1
  6
CONTINUOUS
 62
     7
 10
-438.6872599243972
 20
6848.807666533353
 40
6652.38977830127
 50
272.0787343385792
 51
272.2355653894498
  0
LINE
  8
1
  6
CONTINUOUS
 62
     7
 10
-179.1903254520042
 20
201.4810532664334
 11
-179.145333333338
 21
201.5048349997044
  0
POLYLINE
  8
1
  6
CONTINUOUS
 62
     7
 66
     1
  0
VERTEX
  8
1
  6
CONTINUOUS
 62
     7
 10
-179.1453333333334
 20
209.0049036357239
  0
VERTEX
  8
1
  6
CONTINUOUS
 62
     7
 10
-179.1141263020833
 20
208.9868862478311
  0
VERTEX
  8
1
  6
CONTINUOUS
 62
     7
 10
-179.0829192708334
 20
208.9688688599383
  0
VERTEX
  8
1
  6
CONTINUOUS
 62
     7
 10
-179.0517122395834
 20
208.9508514720455
  0
VERTEX
  8
1
  6
CONTINUOUS
 62
     7
 10
-179.0205052083334
 20
208.9328340841527
  0
VERTEX
  8
1
  6
CONTINUOUS
 62
     7
 10
-178.9892981770834
 20
208.9148166962599
  0
VERTEX
  8
1
  6
CONTINUOUS
 62
     7
 10
-178.9580911458334
 20
208.8967993083671
  0
VERTEX
  8
1
  6
CONTINUOUS
 62
     7
 10
-178.9268841145833
 20
208.8787819204743
  0
VERTEX
  8
1
  6
CONTINUOUS
 62
     7
 10
-178.8956770833333
 20
208.8607645325815
  0
VERTEX
  8
1
  6
CONTINUOUS
 62
     7
 10
-178.8644700520833
 20
208.8427471446887
  0
VERTEX
  8
1
  6
CONTINUOUS
 62
     7
 10
-178.8332630208334
 20
208.8247297567959
  0
VERTEX
  8
1
  6
CONTINUOUS
 62
     7
 10
-178.8020559895833
 20
208.8067123689031
  0
VERTEX
  8
1
  6
CONTINUOUS
 62
     7
 10
-178.7708489583333
 20
208.7886949810103
  0
VERTEX
  8
1
  6
CONTINUOUS
 62
     7
 10
-178.7396419270833
 20
208.7706775931175
  0
VERTEX
  8
1
  6
CONTINUOUS
 62
     7
 10
-178.7084348958334
 20
208.7526602052248
  0
VERTEX
  8
1
  6
CONTINUOUS
 62
     7
 10
-178.6772278645833
 20
208.7346428173319
  0
VERTEX
  8
1
  6
CONTINUOUS
 62
     7
 10
-178.6460208333333
 20
208.7166254294391
  0
VERTEX
  8
1
  6
CONTINUOUS
 62
     7
 10
-178.6402292059899
 20
208.7131819462413
  0
VERTEX
  8
1
  6
CONTINUOUS
 62
     7
 10
-178.6346972414237
 20
208.7096872493956
  0
VERTEX
  8
1
  6
CONTINUOUS
 62
     7
 10
-178.6292593524399
 20
208.7060470892653
  0
VERTEX
  8
1
  6
CONTINUOUS
 62
     7
 10
-178.6239187487811
 20
208.7022646755927
  0
VERTEX
  8
1
  6
CONTINUOUS
 62
     7
 10
-178.6186786401899
 20
208.6983432181207
  0
VERTEX
  8
1
  6
CONTINUOUS
 62
     7
 10
-178.613542236409
 20
208.6942859265919
  0
VERTEX
  8
1
  6
CONTINUOUS
 62
     7
 10
-178.608512747181
 20
208.6900960107487
  0
VERTEX
  8
1
  6
CONTINUOUS
 62
     7
 10
-178.6035933822485
 20
208.6857766803341
  0
VERTEX
  8
1
  6
CONTINUOUS
 62
     7
 10
-178.5987873513542
 20
208.6813311450905
  0
VERTEX
  8
1
  6
CONTINUOUS
 62
     7
 10
-178.5940978642408
 20
208.6767626147606
  0
VERTEX
  8
1
  6
CONTINUOUS
 62
     7
 10
-178.5895281306508
 20
208.6720742990871
  0
VERTEX
  8
1
  6
CONTINUOUS
 62
     7
 10
-178.5850813603269
 20
208.6672694078125
  0
VERTEX
  8
1
  6
CONTINUOUS
 62
     7
 10
-178.5807607630117
 20
208.6623511506795
  0
VERTEX
  8
1
  6
CONTINUOUS
 62
     7
 10
-178.5765695484479
 20
208.6573227374307
  0
VERTEX
  8
1
  6
CONTINUOUS
 62
     7
 10
-178.5725109263781
 20
208.6521873778089
  0
VERTEX
  8
1
  6
CONTINUOUS
 62
     7
 10
-178.568588106545
 20
208.6469482815565
  0
VERTEX
  8
1
  6
CONTINUOUS
 62
     7
 10
-178.5648042986911
 20
208.6416086584164
  0
VERTEX
  8
1
  6
CONTINUOUS
 62
     7
 10
-178.5611627125591
 20
208.636171718131
  0
VERTEX
  8
1
  6
CONTINUOUS
 62
     7
 10
-178.5576665578917
 20
208.6306406704431
  0
VERTEX
  8
1
  6
CONTINUOUS
 62
     7
 10
-178.5543190444315
 20
208.6250187250952
  0
VERTEX
  8
1
  6
CONTINUOUS
 62
     7
 10
-178.5511230461231
 20
208.6193092857031
  0
VERTEX
  8
1
  6
CONTINUOUS
 62
     7
 10
-178.5480800803361
 20
208.6135165391015
  0
VERTEX
  8
1
  6
CONTINUOUS
 62
     7
 10
-178.5451913219181
 20
208.6076448698801
  0
VERTEX
  8
1
  6
CONTINUOUS
 62
     7
 10
-178.5424579457164
 20
208.6016986626291
  0
VERTEX
  8
1
  6
CONTINUOUS
 62
     7
 10
-178.5398811265782
 20
208.5956823019383
  0
VERTEX
  8
1
  6
CONTINUOUS
 62
     7
 10
-178.537462039351
 20
208.5896001723979
  0
VERTEX
  8
1
  6
CONTINUOUS
 62
     7
 10
-178.5352018588821
 20
208.5834566585976
  0
VERTEX
  8
1
  6
CONTINUOUS
 62
     7
 10
-178.5331017600189
 20
208.5772561451277
  0
VERTEX
  8
1
  6
CONTINUOUS
 62
     7
 10
-178.5311629176086
 20
208.5710030165779
  0
VERTEX
  8
1
  6
CONTINUOUS
 62
     7
 10
-178.5293865064987
 20
208.5647016575384
  0
VERTEX
  8
1
  6
CONTINUOUS
 62
     7
 10
-178.5277737015365
 20
208.5583564525991
  0
VERTEX
  8
1
  6
CONTINUOUS
 62
     7
 10
-178.5263256775692
 20
208.5519717863499
  0
VERTEX
  8
1
  6
CONTINUOUS
 62
     7
 10
-178.5250436094443
 20
208.5455520433808
  0
VERTEX
  8
1
  6
CONTINUOUS
 62
     7
 10
-178.5239286720092
 20
208.5391016082818
  0
VERTEX
  8
1
  6
CONTINUOUS
 62
     7
 10
-178.5229820401111
 20
208.532624865643
  0
VERTEX
  8
1
  6
CONTINUOUS
 62
     7
 10
-178.5222048885973
 20
208.5261262000543
  0
VERTEX
  8
1
  6
CONTINUOUS
 62
     7
 10
-178.5215983923154
 20
208.5196099961057
  0
VERTEX
  8
1
  6
CONTINUOUS
 62
     7
 10
-178.5211637261125
 20
208.5130806383871
  0
VERTEX
  8
1
  6
CONTINUOUS
 62
     7
 10
-178.520902064836
 20
208.5065425114885
  0
VERTEX
  8
1
  6
CONTINUOUS
 62
     7
 10
-178.5208145833334
 20
208.5
  0
SEQEND
  8
1
  6
CONTINUOUS
 62
     7
  0
POLYLINE
  8
1
  6
CONTINUOUS
 62
     7
 66
     1
  0
VERTEX
  8
1
  6
CONTINUOUS
 62
     7
 10
-179.1453333333334
 20
198.9950963642762
  0
VERTEX
  8
1
  6
CONTINUOUS
 62
     7
 10
-179.1141263020834
 20
199.013113752169
  0
VERTEX
  8
1
  6
CONTINUOUS
 62
     7
 10
-179.0829192708334
 20
199.0311311400617
  0
VERTEX
  8
1
  6
CONTINUOUS
 62
     7
 10
-179.0517122395833
 20
199.0491485279545
  0
VERTEX
  8
1
  6
CONTINUOUS
 62
     7
 10
-179.0205052083334
 20
199.0671659158473
  0
VERTEX
  8
1
  6
CONTINUOUS
 62
     7
 10
-178.9892981770834
 20
199.0851833037401
  0
VERTEX
  8
1
  6
CONTINUOUS
 62
     7
 10
-178.9580911458334
 20
199.1032006916329
  0
VERTEX
  8
1
  6
CONTINUOUS
 62
     7
 10
-178.9268841145833
 20
199.1212180795257
  0
VERTEX
  8
1
  6
CONTINUOUS
 62
     7
 10
-178.8956770833333
 20
199.1392354674185
  0
VERTEX
  8
1
  6
CONTINUOUS
 62
     7
 10
-178.8644700520833
 20
199.1572528553113
  0
VERTEX
  8
1
  6
CONTINUOUS
 62
     7
 10
-178.8332630208334
 20
199.1752702432041
  0
VERTEX
  8
1
  6
CONTINUOUS
 62
     7
 10
-178.8020559895834
 20
199.1932876310969
  0
VERTEX
  8
1
  6
CONTINUOUS
 62
     7
 10
-178.7708489583334
 20
199.2113050189897
  0
VERTEX
  8
1
  6
CONTINUOUS
 62
     7
 10
-178.7396419270834
 20
199.2293224068825
  0
VERTEX
  8
1
  6
CONTINUOUS
 62
     7
 10
-178.7084348958334
 20
199.2473397947753
  0
VERTEX
  8
1
  6
CONTINUOUS
 62
     7
 10
-178.6772278645833
 20
199.2653571826681
  0
VERTEX
  8
1
  6
CONTINUOUS
 62
     7
 10
-178.6460208333333
 20
199.2833745705609
  0
VERTEX
  8
1
  6
CONTINUOUS
 62
     7
 10
-178.6402292059899
 20
199.2868180537587
  0
VERTEX
  8
1
  6
CONTINUOUS
 62
     7
 10
-178.6346972414237
 20
199.2903127506043
  0
VERTEX
  8
1
  6
CONTINUOUS
 62
     7
 10
-178.6292593524399
 20
199.2939529107348
  0
VERTEX
  8
1
  6
CONTINUOUS
 62
     7
 10
-178.6239187487811
 20
199.2977353244073
  0
VERTEX
  8
1
  6
CONTINUOUS
 62
     7
 10
-178.6186786401899
 20
199.3016567818793
  0
VERTEX
  8
1
  6
CONTINUOUS
 62
     7
 10
-178.6135422364089
 20
199.3057140734082
  0
VERTEX
  8
1
  6
CONTINUOUS
 62
     7
 10
-178.6085127471809
 20
199.3099039892513
  0
VERTEX
  8
1
  6
CONTINUOUS
 62
     7
 10
-178.6035933822485
 20
199.3142233196659
  0
VERTEX
  8
1
  6
CONTINUOUS
 62
     7
 10
-178.5987873513542
 20
199.3186688549095
  0
VERTEX
  8
1
  6
CONTINUOUS
 62
     7
 10
-178.5940978642408
 20
199.3232373852394
  0
VERTEX
  8
1
  6
CONTINUOUS
 62
     7
 10
-178.5895281306507
 20
199.3279257009129
  0
VERTEX
  8
1
  6
CONTINUOUS
 62
     7
 10
-178.5850813603268
 20
199.3327305921875
  0
VERTEX
  8
1
  6
CONTINUOUS
 62
     7
 10
-178.5807607630117
 20
199.3376488493205
  0
VERTEX
  8
1
  6
CONTINUOUS
 62
     7
 10
-178.5765695484479
 20
199.3426772625693
  0
VERTEX
  8
1
  6
CONTINUOUS
 62
     7
 10
-178.5725109263781
 20
199.3478126221911
  0
VERTEX
  8
1
  6
CONTINUOUS
 62
     7
 10
-178.568588106545
 20
199.3530517184435
  0
VERTEX
  8
1
  6
CONTINUOUS
 62
     7
 10
-178.5648042986911
 20
199.3583913415837
  0
VERTEX
  8
1
  6
CONTINUOUS
 62
     7
 10
-178.5611627125591
 20
199.363828281869
  0
VERTEX
  8
1
  6
CONTINUOUS
 62
     7
 10
-178.5576665578917
 20
199.3693593295569
  0
VERTEX
  8
1
  6
CONTINUOUS
 62
     7
 10
-178.5543190444315
 20
199.3749812749049
  0
VERTEX
  8
1
  6
CONTINUOUS
 62
     7
 10
-178.5511230461231
 20
199.3806907142969
  0
VERTEX
  8
1
  6
CONTINUOUS
 62
     7
 10
-178.5480800803361
 20
199.3864834608986
  0
VERTEX
  8
1
  6
CONTINUOUS
 62
     7
 10
-178.5451913219181
 20
199.3923551301199
  0
VERTEX
  8
1
  6
CONTINUOUS
 62
     7
 10
-178.5424579457164
 20
199.398301337371
  0
VERTEX
  8
1
  6
CONTINUOUS
 62
     7
 10
-178.5398811265782
 20
199.4043176980617
  0
VERTEX
  8
1
  6
CONTINUOUS
 62
     7
 10
-178.537462039351
 20
199.4103998276022
  0
VERTEX
  8
1
  6
CONTINUOUS
 62
     7
 10
-178.5352018588821
 20
199.4165433414024
  0
VERTEX
  8
1
  6
CONTINUOUS
 62
     7
 10
-178.5331017600189
 20
199.4227438548724
  0
VERTEX
  8
1
  6
CONTINUOUS
 62
     7
 10
-178.5311629176086
 20
199.4289969834222
  0
VERTEX
  8
1
  6
CONTINUOUS
 62
     7
 10
-178.5293865064987
 20
199.4352983424617
  0
VERTEX
  8
1
  6
CONTINUOUS
 62
     7
 10
-178.5277737015364
 20
199.441643547401
  0
VERTEX
  8
1
  6
CONTINUOUS
 62
     7
 10
-178.5263256775692
 20
199.4480282136502
  0
VERTEX
  8
1
  6
CONTINUOUS
 62
     7
 10
-178.5250436094443
 20
199.4544479566192
  0
VERTEX
  8
1
  6
CONTINUOUS
 62
     7
 10
-178.5239286720092
 20
199.4608983917182
  0
VERTEX
  8
1
  6
CONTINUOUS
 62
     7
 10
-178.522982040111
 20
199.467375134357
  0
VERTEX
  8
1
  6
CONTINUOUS
 62
     7
 10
-178.5222048885973
 20
199.4738737999457
  0
VERTEX
  8
1
  6
CONTINUOUS
 62
     7
 10
-178.5215983923154
 20
199.4803900038943
  0
VERTEX
  8
1
  6
CONTINUOUS
 62
     7
 10
-178.5211637261125
 20
199.4869193616129
  0
VERTEX
  8
1
  6
CONTINUOUS
 62
     7
 10
-178.520902064836
 20
199.4934574885115
  0
VERTEX
  8
1
  6
CONTINUOUS
 62
     7
 10
-178.5208145833334
 20
199.5
  0
SEQEND
  8
1
  6
CONTINUOUS
 62
     7
  0
LINE
  8
1
  6
CONTINUOUS
 62
     7
 10
-197.6488333333181
 20
223.8889127024275
 11
-197.497850049081
 21
223.9411258752824
  0
ARC
  8
1
  6
CONTINUOUS
 62
     7
 10
-1638.568679825701
 20
33230.83984678094
 40
33038.34209382421
 50
272.4999281141661
 51
272.5317748806698
  0
LINE
  8
1
  6
CONTINUOUS
 62
     7
 10
-197.648833333319
 20
222.074721586012
 11
-197.5023880413883
 21
222.1259626435616
  0
ARC
  8
1
  6
CONTINUOUS
 62
     7
 10
-282.6449470982484
 20
2297.107578436471
 40
2076.72770512682
 50
272.3496951227925
 51
272.8598334831165
  0
LINE
  8
1
  6
CONTINUOUS
 62
     7
 10
-197.6488333333225
 20
220.260512171717
 11
-197.5069297137711
 21
220.3108170435846
  0
ARC
  8
1
  6
CONTINUOUS
 62
     7
 10
-292.8671873945917
 20
2523.837730437107
 40
2305.499906630499
 50
272.3705485292112
 51
272.8300688729389
  0
LINE
  8
1
  6
CONTINUOUS
 62
     7
 10
-197.648833333327
 20
218.4462251118958
 11
-197.5151781812124
 21
218.4950203352444
  0
ARC
  8
1
  6
CONTINUOUS
 62
     7
 10
-297.12847379906
 20
2610.882242251946
 40
2394.460153824691
 50
272.384282316513
 51
272.8269544075883
  0
LINE
  8
1
  6
CONTINUOUS
 62
     7
 10
-197.6488333333305
 20
216.6318611167758
 11
-197.517515323138
 21
216.6803898109983
  0
ARC
  8
1
  6
CONTINUOUS
 62
     7
 10
-295.859015960733
 20
2575.94759325523
 40
2361.31590177918
 50
272.3868822583796
 51
272.8359038573319
  0
LINE
  8
1
  6
CONTINUOUS
 62
     7
 10
-197.6488333333244
 20
214.8174818253983
 11
-197.5363164796516
 21
214.8625475970823
  0
ARC
  8
1
  6
CONTINUOUS
 62
     7
 10
-329.7802687758677
 20
3315.448548456589
 40
3103.404906170781
 50
272.4422579496241
 51
272.7841787468714
  0
LINE
  8
1
  6
CONTINUOUS
 62
     7
 10
-179.0178333333401
 20
217.1324732109089
 11
-179.1299133959923
 21
217.0875167548708
  0
ARC
  8
1
  6
CONTINUOUS
 62
     7
 10
-46.14302748718141
 20
-2899.982406566642
 40
3119.905514386502
 50
92.44298954067573
 51
92.78311162459377
  0
LINE
  8
1
  6
CONTINUOUS
 62
     7
 10
-179.017833333337
 20
218.9466621624981
 11
-179.1226552404924
 21
218.9033695469862
  0
ARC
  8
1
  6
CONTINUOUS
 62
     7
 10
-35.53291364585282
 20
-3124.38984704433
 40
3346.375284691889
 50
92.4592617884181
 51
92.7765035811424
  0
LINE
  8
1
  6
CONTINUOUS
 62
     7
 10
-179.0178333333334
 20
220.7609063853553
 11
-179.1188798564241
 21
220.7185111633966
  0
ARC
  8
1
  6
CONTINUOUS
 62
     7
 10
-3267.720297279954
 20
69625.34696471786
 40
69473.31796806348
 50
272.5328695994729
 51
272.5480598380049
  0
LINE
  8
1
  6
CONTINUOUS
 62
     7
 10
-197.5195208338786
 20
219.9021013358345
 11
-197.6355395611439
 21
219.8692695484881
  0
LINE
  8
1
  6
CONTINUOUS
 62
     7
 10
-179.0178333333366
 20
222.5752352794017
 11
-179.115112118538
 21
222.5336184184999
  0
ARC
  8
1
  6
CONTINUOUS
 62
     7
 10
-71.54366931749016
 20
-2329.858970825761
 40
2554.658400830788
 50
92.4133216735209
 51
92.82902979479016
  0
LINE
  8
1
  6
CONTINUOUS
 62
     7
 10
-179.0178333333716
 20
224.3896188611108
 11
-179.1226625978182
 21
224.3461991522725
  0
ARC
  8
1
  6
CONTINUOUS
 62
     7
 10
-76.37821546534023
 20
-2224.679797617563
 40
2451.180277799053
 50
92.40233182472119
 51
92.83544302071753
  0
LINE
  8
1
  6
CONTINUOUS
 62
     7
 10
-179.0178333333334
 20
227.0
 11
-197.6488333333334
 21
227.0
  0
POLYLINE
  8
1
  6
CONTINUOUS
 62
     7
 66
     1
  0
VERTEX
  8
1
  6
CONTINUOUS
 62
     7
 10
-179.0178333333334
 20
215.3182499241522
  0
VERTEX
  8
1
  6
CONTINUOUS
 62
     7
 10
-179.0904175304818
 20
215.2304079822783
  0
VERTEX
  8
1
  6
CONTINUOUS
 62
     7
 10
-179.2191689512036
 20
215.1717887368014
  0
SEQEND
  8
1
  6
CONTINUOUS
 62
     7
  0
ARC
  8
1
  6
CONTINUOUS
 62
     7
 10
-193.5043343328233
 20
298.419009125145
 40
84.46399027020726
 50
275.0376417728717
 51
279.7370814681235
  0
POLYLINE
  8
1
  6
CONTINUOUS
 62
     7
 66
     1
  0
VERTEX
  8
1
  6
CONTINUOUS
 62
     7
 10
-186.0875347259871
 20
214.2812843166044
  0
VERTEX
  8
1
  6
CONTINUOUS
 62
     7
 10
-186.0688608606181
 20
214.1744838216271
  0
VERTEX
  8
1
  6
CONTINUOUS
 62
     7
 10
-185.9475488113594
 20
214.1442348206734
  0
SEQEND
  8
1
  6
CONTINUOUS
 62
     7
  0
ARC
  8
1
  6
CONTINUOUS
 62
     7
 10
-206.1577724885499
 20
-487.3503978099523
 40
701.785702868517
 50
87.78366554176819
 51
88.34975173741735
  0
POLYLINE
  8
1
  6
CONTINUOUS
 62
     7
 66
     1
  0
VERTEX
  8
1
  6
CONTINUOUS
 62
     7
 10
-179.1453333333334
 20
200.0049036357239
  0
VERTEX
  8
1
  6
CONTINUOUS
 62
     7
 10
-179.2168283119934
 20
199.9292157048392
  0
VERTEX
  8
1
  6
CONTINUOUS
 62
     7
 10
-179.3436483767903
 20
199.8787039052662
  0
SEQEND
  8
1
  6
CONTINUOUS
 62
     7
  0
ARC
  8
1
  6
CONTINUOUS
 62
     7
 10
-189.2720751853618
 20
255.5104661098894
 40
56.51076556626089
 50
276.2547332392062
 51
280.1188662489144
  0
POLYLINE
  8
1
  6
CONTINUOUS
 62
     7
 66
     1
  0
VERTEX
  8
1
  6
CONTINUOUS
 62
     7
 10
-183.1152841222661
 20
199.3360898455259
  0
VERTEX
  8
1
  6
CONTINUOUS
 62
     7
 10
-183.2088058767627
 20
199.291697503543
  0
VERTEX
  8
1
  6
CONTINUOUS
 62
     7
 10
-183.1236773850008
 20
199.2047155893016
  0
SEQEND
  8
1
  6
CONTINUOUS
 62
     7
  0
ARC
  8
1
  6
CONTINUOUS
 62
     7
 10
-168.4723061821846
 20
439.4146231534154
 40
240.6563158740755
 50
266.5096233900421
 51
267.4581176008887
  0
LINE
  8
1
  6
CONTINUOUS
 62
     7
 10
-179.1453333333334
 20
198.0
 11
-197.5213333333334
 21
198.0
  0
LINE
  8
1
  6
CONTINUOUS
 62
     7
 10
-203.0208138170788
 20
209.5
 11
-203.0208138170788
 21
212.5
  0
LINE
  8
1
  6
CONTINUOUS
 62
     7
 10
-200.8727745436987
 20
209.5
 11
-203.0208138170788
 21
209.5
  0
LINE
  8
1
  6
CONTINUOUS
 62
     7
 10
-200.8727745436987
 20
212.5
 11
-203.0208138170788
 21
212.5
  0
LINE
  8
1
  6
CONTINUOUS
 62
     7
 10
-173.6458528495879
 20
209.5
 11
-173.6458528495879
 21
209.8295454545455
  0
LINE
  8
1
  6
CONTINUOUS
 62
     7
 10
-173.6458528495879
 20
209.5
 11
-175.793892122968
 21
209.5
  0
LINE
  8
1
  6
CONTINUOUS
 62
     7
 10
-173.6458528495879
 20
212.5
 11
-175.793892122968
 21
212.5
  0
LINE
  8
1
  6
CONTINUOUS
 62
     7
 10
-205.1782103946094
 20
209.5
 11
-203.0208138170788
 21
209.5
  0
LINE
  8
1
  6
CONTINUOUS
 62
     7
 10
-205.1782103946094
 20
212.5
 11
-203.0208138170788
 21
212.5
  0
LINE
  8
1
  6
CONTINUOUS
 62
     7
 10
-173.6458528495879
 20
209.5
 11
-171.4884562720573
 21
209.5
  0
LINE
  8
1
  6
CONTINUOUS
 62
     7
 10
-173.6458528495879
 20
212.5
 11
-171.4884562720574
 21
212.5
  0
LINE
  8
1
  6
CONTINUOUS
 62
     7
 10
-205.1782103946094
 20
209.5
 11
-205.3243940849459
 21
209.5
  0
LINE
  8
1
  6
CONTINUOUS
 62
     7
 10
-205.3243940849459
 20
212.5
 11
-205.1782103946094
 21
212.5
  0
LINE
  8
1
  6
CONTINUOUS
 62
     7
 10
-171.3422725817209
 20
209.5
 11
-171.4884562720574
 21
209.5
  0
LINE
  8
1
  6
CONTINUOUS
 62
     7
 10
-171.4884562720574
 20
212.5
 11
-171.3422725817209
 21
212.5
  0
LINE
  8
1
  6
CONTINUOUS
 62
     7
 10
-171.3422725817209
 20
209.5
 11
-171.3333333333334
 21
209.5
  0
LINE
  8
1
  6
CONTINUOUS
 62
     7
 10
-171.3422725817209
 20
212.5
 11
-171.3333333333334
 21
212.5
  0
LINE
  8
1
  6
CONTINUOUS
 62
     7
 10
-205.3333333333334
 20
209.5
 11
-205.3243940849459
 21
209.5
  0
LINE
  8
1
  6
CONTINUOUS
 62
     7
 10
-205.3333333333334
 20
212.5
 11
-205.3243940849459
 21
212.5
  0
LINE
  8
1
  6
CONTINUOUS
 62
     7
 10
-177.9569508107024
 20
214.6142857168663
 11
-178.1662743031482
 21
214.8720594362765
  0
LINE
  8
1
  6
CONTINUOUS
 62
     7
 10
-178.1662743031482
 20
214.8720594362765
 11
-179.19072813566
 21
215.3864821291723
  0
LINE
  8
1
  6
CONTINUOUS
 62
     7
 10
-179.0720067484904
 20
215.6879534831134
 11
-178.0813657798789
 21
216.2060817368519
  0
POLYLINE
  8
1
  6
CONTINUOUS
 62
     7
 66
     1
  0
VERTEX
  8
1
  6
CONTINUOUS
 62
     7
 10
-178.0813657798789
 20
216.2060817368519
  0
VERTEX
  8
1
  6
CONTINUOUS
 62
     7
 10
-178.0688988203792
 20
216.2145397879831
  0
VERTEX
  8
1
  6
CONTINUOUS
 62
     7
 10
-178.0502753038485
 20
216.2291587848258
  0
VERTEX
  8
1
  6
CONTINUOUS
 62
     7
 10
-178.0327402927123
 20
216.2455364135673
  0
VERTEX
  8
1
  6
CONTINUOUS
 62
     7
 10
-178.0165038384557
 20
216.2636225856821
  0
VERTEX
  8
1
  6
CONTINUOUS
 62
     7
 10
-178.001791649976
 20
216.2833550795969
  0
VERTEX
  8
1
  6
CONTINUOUS
 62
     7
 10
-177.9912807484953
 20
216.3002761092142
  0
VERTEX
  8
1
  6
CONTINUOUS
 62
     7
 10
-177.9820076637669
 20
216.3181441160339
  0
VERTEX
  8
1
  6
CONTINUOUS
 62
     7
 10
-177.9740583071938
 20
216.3368769217455
  0
VERTEX
  8
1
  6
CONTINUOUS
 62
     7
 10
-177.9675201172416
 20
216.356382994501
  0
VERTEX
  8
1
  6
CONTINUOUS
 62
     7
 10
-177.9624836992731
 20
216.3765621158358
  0
VERTEX
  8
1
  6
CONTINUOUS
 62
     7
 10
-177.959042897442
 20
216.3973050919932
  0
VERTEX
  8
1
  6
CONTINUOUS
 62
     7
 10
-177.9572948669033
 20
216.4184934615717
  0
VERTEX
  8
1
  6
CONTINUOUS
 62
     7
 10
-177.957338132349
 20
216.4399991994949
  0
VERTEX
  8
1
  6
CONTINUOUS
 62
     7
 10
-177.9592348012102
 20
216.4616844173038
  0
VERTEX
  8
1
  6
CONTINUOUS
 62
     7
 10
-177.9630108417657
 20
216.4834010597718
  0
VERTEX
  8
1
  6
CONTINUOUS
 62
     7
 10
-177.9676094531187
 20
216.5014082178836
  0
VERTEX
  8
1
  6
CONTINUOUS
 62
     7
 10
-177.9735405954412
 20
216.5192298512746
  0
VERTEX
  8
1
  6
CONTINUOUS
 62
     7
 10
-177.9808148716079
 20
216.5367631844391
  0
VERTEX
  8
1
  6
CONTINUOUS
 62
     7
 10
-177.989441682868
 20
216.5538999873696
  0
VERTEX
  8
1
  6
CONTINUOUS
 62
     7
 10
-177.9994286099486
 20
216.5705267996279
  0
VERTEX
  8
1
  6
CONTINUOUS
 62
     7
 10
-178.0107612524126
 20
216.5865370143885
  0
VERTEX
  8
1
  6
CONTINUOUS
 62
     7
 10
-178.0233967229671
 20
216.6018346769492
  0
VERTEX
  8
1
  6
CONTINUOUS
 62
     7
 10
-178.0372864801972
 20
216.6163204750042
  0
VERTEX
  8
1
  6
CONTINUOUS
 62
     7
 10
-178.0523777809527
 20
216.6298907029837
  0
VERTEX
  8
1
  6
CONTINUOUS
 62
     7
 10
-178.0644506189549
 20
216.6394026168118
  0
VERTEX
  8
1
  6
CONTINUOUS
 62
     7
 10
-178.0771416446164
 20
216.6482914242547
  0
VERTEX
  8
1
  6
CONTINUOUS
 62
     7
 10
-178.0904237587868
 20
216.6565083185031
  0
VERTEX
  8
1
  6
CONTINUOUS
 62
     7
 10
-178.0972776128677
 20
216.6603491372858
  0
VERTEX
  8
1
  6
CONTINUOUS
 62
     7
 10
-178.09814405136
 20
216.6608162268744
  0
VERTEX
  8
1
  6
CONTINUOUS
 62
     7
 10
-178.0985780708406
 20
216.6610486722863
  0
VERTEX
  8
1
  6
CONTINUOUS
 62
     7
 10
-178.0986323607194
 20
216.6610776763131
  0
VERTEX
  8
1
  6
CONTINUOUS
 62
     7
 10
-178.0986459344884
 20
216.661084925525
  0
VERTEX
  8
1
  6
CONTINUOUS
 62
     7
 10
-178.0986497352368
 20
216.6610869551756
  0
VERTEX
  8
1
  6
CONTINUOUS
 62
     7
 10
-178.0986562726829
 20
216.6610903825843
  0
SEQEND
  8
1
  6
CONTINUOUS
 62
     7
  0
LINE
  8
1
  6
CONTINUOUS
 62
     7
 10
-178.0986616815141
 20
216.6610932089709
 11
-179.016610590144
 21
217.1403954758778
  0
LINE
  8
1
  6
CONTINUOUS
 62
     7
 10
-179.0677612610619
 20
217.5045339371444
 11
-178.0795172906556
 21
218.021904042771
  0
POLYLINE
  8
1
  6
CONTINUOUS
 62
     7
 66
     1
  0
VERTEX
  8
1
  6
CONTINUOUS
 62
     7
 10
-178.0795172906556
 20
218.021904042771
  0
VERTEX
  8
1
  6
CONTINUOUS
 62
     7
 10
-178.0673870182904
 20
218.0302043563798
  0
VERTEX
  8
1
  6
CONTINUOUS
 62
     7
 10
-178.0526045140636
 20
218.0417002268447
  0
VERTEX
  8
1
  6
CONTINUOUS
 62
     7
 10
-178.0384772673768
 20
218.0543335984301
  0
VERTEX
  8
1
  6
CONTINUOUS
 62
     7
 10
-178.0251119815988
 20
218.0680806451739
  0
VERTEX
  8
1
  6
CONTINUOUS
 62
     7
 10
-178.0126217221576
 20
218.0829126659594
  0
VERTEX
  8
1
  6
CONTINUOUS
 62
     7
 10
-178.0011261121465
 20
218.0987958952688
  0
VERTEX
  8
1
  6
CONTINUOUS
 62
     7
 10
-177.990750867422
 20
218.1156909095485
  0
VERTEX
  8
1
  6
CONTINUOUS
 62
     7
 10
-177.9816061017882
 20
218.1335391460998
  0
VERTEX
  8
1
  6
CONTINUOUS
 62
     7
 10
-177.9737794714845
 20
218.152258426612
  0
VERTEX
  8
1
  6
CONTINUOUS
 62
     7
 10
-177.9673602049812
 20
218.1717572192374
  0
VERTEX
  8
1
  6
CONTINUOUS
 62
     7
 10
-177.9624407410094
 20
218.1919353055111
  0
VERTEX
  8
1
  6
CONTINUOUS
 62
     7
 10
-177.9591167981724
 20
218.2126834916765
  0
VERTEX
  8
1
  6
CONTINUOUS
 62
     7
 10
-177.9574874444657
 20
218.2338833163322
  0
VERTEX
  8
1
  6
CONTINUOUS
 62
     7
 10
-177.9576531527431
 20
218.2554067544017
  0
VERTEX
  8
1
  6
CONTINUOUS
 62
     7
 10
-177.9596780120517
 20
218.2771159174261
  0
VERTEX
  8
1
  6
CONTINUOUS
 62
     7
 10
-177.9635900042377
 20
218.2988627501786
  0
VERTEX
  8
1
  6
CONTINUOUS
 62
     7
 10
-177.9683093095724
 20
218.3168998373998
  0
VERTEX
  8
1
  6
CONTINUOUS
 62
     7
 10
-177.9743691477611
 20
218.3347557367539
  0
VERTEX
  8
1
  6
CONTINUOUS
 62
     7
 10
-177.9817813266142
 20
218.3523276727349
  0
VERTEX
  8
1
  6
CONTINUOUS
 62
     7
 10
-177.9905564609384
 20
218.3695074153355
  0
VERTEX
  8
1
  6
CONTINUOUS
 62
     7
 10
-178.0007033520678
 20
218.3861815041174
  0
VERTEX
  8
1
  6
CONTINUOUS
 62
     7
 10
-178.012208828416
 20
218.4022433322552
  0
VERTEX
  8
1
  6
CONTINUOUS
 62
     7
 10
-178.0250312410077
 20
218.4175969450466
  0
VERTEX
  8
1
  6
CONTINUOUS
 62
     7
 10
-178.0391232934354
 20
218.4321430301861
  0
VERTEX
  8
1
  6
CONTINUOUS
 62
     7
 10
-178.0544334935182
 20
218.4457778821034
  0
VERTEX
  8
1
  6
CONTINUOUS
 62
     7
 10
-178.0666821581821
 20
218.455341109945
  0
VERTEX
  8
1
  6
CONTINUOUS
 62
     7
 10
-178.0795595891911
 20
218.4642836708816
  0
VERTEX
  8
1
  6
CONTINUOUS
 62
     7
 10
-178.0930392213056
 20
218.4725567581039
  0
VERTEX
  8
1
  6
CONTINUOUS
 62
     7
 10
-178.0999961689299
 20
218.4764265881786
  0
VERTEX
  8
1
  6
CONTINUOUS
 62
     7
 10
-178.1008757022122
 20
218.4768973470602
  0
VERTEX
  8
1
  6
CONTINUOUS
 62
     7
 10
-178.101316286585
 20
218.4771316306919
  0
VERTEX
  8
1
  6
CONTINUOUS
 62
     7
 10
-178.1013713978967
 20
218.4771608646638
  0
VERTEX
  8
1
  6
CONTINUOUS
 62
     7
 10
-178.1013851770524
 20
218.4771681713677
  0
VERTEX
  8
1
  6
CONTINUOUS
 62
     7
 10
-178.1013890353112
 20
218.4771702171165
  0
VERTEX
  8
1
  6
CONTINUOUS
 62
     7
 10
-178.1013955967599
 20
218.4771736516085
  0
SEQEND
  8
1
  6
CONTINUOUS
 62
     7
  0
LINE
  8
1
  6
CONTINUOUS
 62
     7
 10
-178.1014009887712
 20
218.4771764674149
 11
-179.016492417035
 21
218.9546371645465
  0
LINE
  8
1
  6
CONTINUOUS
 62
     7
 10
-179.0709243195223
 20
219.3170664890618
 11
-178.0824967253015
 21
219.8340146489131
  0
POLYLINE
  8
1
  6
CONTINUOUS
 62
     7
 66
     1
  0
VERTEX
  8
1
  6
CONTINUOUS
 62
     7
 10
-178.0824967253015
 20
219.8340146489131
  0
VERTEX
  8
1
  6
CONTINUOUS
 62
     7
 10
-178.067764381022
 20
219.8440279333322
  0
VERTEX
  8
1
  6
CONTINUOUS
 62
     7
 10
-178.0525497749001
 20
219.8559266181744
  0
VERTEX
  8
1
  6
CONTINUOUS
 62
     7
 10
-178.038237219116
 20
219.8688176430106
  0
VERTEX
  8
1
  6
CONTINUOUS
 62
     7
 10
-178.0235119665505
 20
219.8841868191114
  0
VERTEX
  8
1
  6
CONTINUOUS
 62
     7
 10
-178.0100771761432
 20
219.9006057232879
  0
VERTEX
  8
1
  6
CONTINUOUS
 62
     7
 10
-177.9980285790065
 20
219.9179852572545
  0
VERTEX
  8
1
  6
CONTINUOUS
 62
     7
 10
-177.9874566551485
 20
219.9362331618487
  0
VERTEX
  8
1
  6
CONTINUOUS
 62
     7
 10
-177.9784138914352
 20
219.9552341516633
  0
VERTEX
  8
1
  6
CONTINUOUS
 62
     7
 10
-177.9709359150445
 20
219.9748627503537
  0
VERTEX
  8
1
  6
CONTINUOUS
 62
     7
 10
-177.9650582040282
 20
219.9949934362154
  0
VERTEX
  8
1
  6
CONTINUOUS
 62
     7
 10
-177.9608161588264
 20
220.0155006875444
  0
VERTEX
  8
1
  6
CONTINUOUS
 62
     7
 10
-177.9582450990529
 20
220.0362589826363
  0
VERTEX
  8
1
  6
CONTINUOUS
 62
     7
 10
-177.95738026028
 20
220.057142799787
  0
VERTEX
  8
1
  6
CONTINUOUS
 62
     7
 10
-177.9582450896812
 20
220.0780266172922
  0
VERTEX
  8
1
  6
CONTINUOUS
 62
     7
 10
-177.9608161402815
 20
220.0987849134476
  0
VERTEX
  8
1
  6
CONTINUOUS
 62
     7
 10
-177.965058176509
 20
220.1192921665489
  0
VERTEX
  8
1
  6
CONTINUOUS
 62
     7
 10
-177.9709358787504
 20
220.1394228548921
  0
VERTEX
  8
1
  6
CONTINUOUS
 62
     7
 10
-177.9784138465655
 20
220.1590514567727
  0
VERTEX
  8
1
  6
CONTINUOUS
 62
     7
 10
-177.9874566019031
 20
220.1780524504867
  0
VERTEX
  8
1
  6
CONTINUOUS
 62
     7
 10
-177.998028517592
 20
220.1963003596854
  0
VERTEX
  8
1
  6
CONTINUOUS
 62
     7
 10
-178.010077106989
 20
220.2136798988261
  0
VERTEX
  8
1
  6
CONTINUOUS
 62
     7
 10
-178.0235118901961
 20
220.23009880868
  0
VERTEX
  8
1
  6
CONTINUOUS
 62
     7
 10
-178.0382371361009
 20
220.2454679909615
  0
VERTEX
  8
1
  6
CONTINUOUS
 62
     7
 10
-178.0514248551452
 20
220.2574094876204
  0
VERTEX
  8
1
  6
CONTINUOUS
 62
     7
 10
-178.0653867914147
 20
220.268508571481
  0
VERTEX
  8
1
  6
CONTINUOUS
 62
     7
 10
-178.0800675019912
 20
220.2787136810353
  0
VERTEX
  8
1
  6
CONTINUOUS
 62
     7
 10
-178.0915163750184
 20
220.2857498250928
  0
VERTEX
  8
1
  6
CONTINUOUS
 62
     7
 10
-178.0973734215076
 20
220.2890616505011
  0
VERTEX
  8
1
  6
CONTINUOUS
 62
     7
 10
-178.1003338179308
 20
220.2906648119596
  0
VERTEX
  8
1
  6
CONTINUOUS
 62
     7
 10
-178.1005195358442
 20
220.2907638303597
  0
VERTEX
  8
1
  6
CONTINUOUS
 62
     7
 10
-178.1006124251853
 20
220.290813287355
  0
VERTEX
  8
1
  6
CONTINUOUS
 62
     7
 10
-178.1006182314413
 20
220.2908163772613
  0
VERTEX
  8
1
  6
CONTINUOUS
 62
     7
 10
-178.1006214829792
 20
220.2908181075494
  0
VERTEX
  8
1
  6
CONTINUOUS
 62
     7
 10
-178.1006240913933
 20
220.2908194949676
  0
VERTEX
  8
1
  6
CONTINUOUS
 62
     7
 10
-178.3116501359844
 20
220.401036663621
  0
VERTEX
  8
1
  6
CONTINUOUS
 62
     7
 10
-179.0178030766603
 20
220.7695168178453
  0
SEQEND
  8
1
  6
CONTINUOUS
 62
     7
  0
LINE
  8
1
  6
CONTINUOUS
 62
     7
 10
-179.0717968994598
 20
221.1308143900282
 11
-178.0812945297124
 21
221.6489452337148
  0
POLYLINE
  8
1
  6
CONTINUOUS
 62
     7
 66
     1
  0
VERTEX
  8
1
  6
CONTINUOUS
 62
     7
 10
-178.0812945297124
 20
221.6489452337148
  0
VERTEX
  8
1
  6
CONTINUOUS
 62
     7
 10
-178.0688538369967
 20
221.6573964074147
  0
VERTEX
  8
1
  6
CONTINUOUS
 62
     7
 10
-178.0538932988846
 20
221.6689500124281
  0
VERTEX
  8
1
  6
CONTINUOUS
 62
     7
 10
-178.0396035529724
 20
221.6816350412407
  0
VERTEX
  8
1
  6
CONTINUOUS
 62
     7
 10
-178.0260897964645
 20
221.6954276678905
  0
VERTEX
  8
1
  6
CONTINUOUS
 62
     7
 10
-178.0134635404185
 20
221.7102991912609
  0
VERTEX
  8
1
  6
CONTINUOUS
 62
     7
 10
-178.0018428052519
 20
221.7262158458339
  0
VERTEX
  8
1
  6
CONTINUOUS
 62
     7
 10
-177.9913516560813
 20
221.7431382080561
  0
VERTEX
  8
1
  6
CONTINUOUS
 62
     7
 10
-177.9820985094677
 20
221.7610077152286
  0
VERTEX
  8
1
  6
CONTINUOUS
 62
     7
 10
-177.9741692780077
 20
221.7797421890409
  0
VERTEX
  8
1
  6
CONTINUOUS
 62
     7
 10
-177.9676513995566
 20
221.7992500976451
  0
VERTEX
  8
1
  6
CONTINUOUS
 62
     7
 10
-177.9626354769697
 20
221.8194312225764
  0
VERTEX
  8
1
  6
CONTINUOUS
 62
     7
 10
-177.959215349908
 20
221.8401763700783
  0
VERTEX
  8
1
  6
CONTINUOUS
 62
     7
 10
-177.957488166961
 20
221.8613670787492
  0
VERTEX
  8
1
  6
CONTINUOUS
 62
     7
 10
-177.9575524441348
 20
221.8828753235128
  0
VERTEX
  8
1
  6
CONTINUOUS
 62
     7
 10
-177.9594702788458
 20
221.9045632159099
  0
VERTEX
  8
1
  6
CONTINUOUS
 62
     7
 10
-177.9632676283471
 20
221.9262827007141
  0
VERTEX
  8
1
  6
CONTINUOUS
 62
     7
 10
-177.9678840974379
 20
221.9442923555801
  0
VERTEX
  8
1
  6
CONTINUOUS
 62
     7
 10
-177.9738331800472
 20
221.9621166022171
  0
VERTEX
  8
1
  6
CONTINUOUS
 62
     7
 10
-177.9811254701705
 20
221.9796526651191
  0
VERTEX
  8
1
  6
CONTINUOUS
 62
     7
 10
-177.9897703594174
 20
221.9967923142787
  0
VERTEX
  8
1
  6
CONTINUOUS
 62
     7
 10
-177.9997754181376
 20
222.0134220892577
  0
VERTEX
  8
1
  6
CONTINUOUS
 62
     7
 10
-178.011126235501
 20
222.0294353832306
  0
VERTEX
  8
1
  6
CONTINUOUS
 62
     7
 10
-178.023779914241
 20
222.0447362414952
  0
VERTEX
  8
1
  6
CONTINUOUS
 62
     7
 10
-178.0376879027557
 20
222.0592253517459
  0
VERTEX
  8
1
  6
CONTINUOUS
 62
     7
 10
-178.0527974474893
 20
222.0727990084125
  0
VERTEX
  8
1
  6
CONTINUOUS
 62
     7
 10
-178.0648839704469
 20
222.0823135702036
  0
VERTEX
  8
1
  6
CONTINUOUS
 62
     7
 10
-178.0775886777464
 20
222.091205091136
  0
VERTEX
  8
1
  6
CONTINUOUS
 62
     7
 10
-178.0908844657001
 20
222.0994247644006
  0
VERTEX
  8
1
  6
CONTINUOUS
 62
     7
 10
-178.097745152305
 20
222.1032669972637
  0
VERTEX
  8
1
  6
CONTINUOUS
 62
     7
 10
-178.0986124446163
 20
222.1037342647643
  0
VERTEX
  8
1
  6
CONTINUOUS
 62
     7
 10
-178.0990468909846
 20
222.103966799228
  0
VERTEX
  8
1
  6
CONTINUOUS
 62
     7
 10
-178.0991012342233
 20
222.1039958143909
  0
VERTEX
  8
1
  6
CONTINUOUS
 62
     7
 10
-178.0991148213322
 20
222.1040030663868
  0
VERTEX
  8
1
  6
CONTINUOUS
 62
     7
 10
-178.0991186258158
 20
222.1040050968171
  0
VERTEX
  8
1
  6
CONTINUOUS
 62
     7
 10
-178.0991251646825
 20
222.1040085245688
  0
SEQEND
  8
1
  6
CONTINUOUS
 62
     7
  0
LINE
  8
1
  6
CONTINUOUS
 62
     7
 10
-178.0991305722501
 20
222.1040113502017
 11
-179.0165987563873
 21
222.5830548003951
  0
LINE
  8
1
  6
CONTINUOUS
 62
     7
 10
-179.0672268013269
 20
222.9474783428838
 11
-178.0790712141541
 21
223.4648191985151
  0
POLYLINE
  8
1
  6
CONTINUOUS
 62
     7
 66
     1
  0
VERTEX
  8
1
  6
CONTINUOUS
 62
     7
 10
-178.0790712141541
 20
223.4648191985151
  0
VERTEX
  8
1
  6
CONTINUOUS
 62
     7
 10
-178.066964850551
 20
223.4731100716942
  0
VERTEX
  8
1
  6
CONTINUOUS
 62
     7
 10
-178.0521994526321
 20
223.4846027263597
  0
VERTEX
  8
1
  6
CONTINUOUS
 62
     7
 10
-178.0380896112945
 20
223.497233000917
  0
VERTEX
  8
1
  6
CONTINUOUS
 62
     7
 10
-178.024742052008
 20
223.5109770694043
  0
VERTEX
  8
1
  6
CONTINUOUS
 62
     7
 10
-178.0122698603246
 20
223.5258062307048
  0
VERTEX
  8
1
  6
CONTINUOUS
 62
     7
 10
-178.0007926772667
 20
223.5416867193006
  0
VERTEX
  8
1
  6
CONTINUOUS
 62
     7
 10
-177.9904362341782
 20
223.5585791116383
  0
VERTEX
  8
1
  6
CONTINUOUS
 62
     7
 10
-177.9813106570548
 20
223.5764248450188
  0
VERTEX
  8
1
  6
CONTINUOUS
 62
     7
 10
-177.9735036108141
 20
223.595141741132
  0
VERTEX
  8
1
  6
CONTINUOUS
 62
     7
 10
-177.9671043297236
 20
223.6146382681295
  0
VERTEX
  8
1
  6
CONTINUOUS
 62
     7
 10
-177.9622052552773
 20
223.634814207547
  0
VERTEX
  8
1
  6
CONTINUOUS
 62
     7
 10
-177.9589021056026
 20
223.6555603656277
  0
VERTEX
  8
1
  6
CONTINUOUS
 62
     7
 10
-177.9572939447743
 20
223.6767582809701
  0
VERTEX
  8
1
  6
CONTINUOUS
 62
     7
 10
-177.9574812380405
 20
223.6982799284978
  0
VERTEX
  8
1
  6
CONTINUOUS
 62
     7
 10
-177.9595280624271
 20
223.7199874197517
  0
VERTEX
  8
1
  6
CONTINUOUS
 62
     7
 10
-177.9634623835714
 20
223.7417326995054
  0
VERTEX
  8
1
  6
CONTINUOUS
 62
     7
 10
-177.9682005601467
 20
223.759768583289
  0
VERTEX
  8
1
  6
CONTINUOUS
 62
     7
 10
-177.9742794951478
 20
223.7776233616857
  0
VERTEX
  8
1
  6
CONTINUOUS
 62
     7
 10
-177.981710981141
 20
223.7951942591895
  0
VERTEX
  8
1
  6
CONTINUOUS
 62
     7
 10
-177.9905056158337
 20
223.812373045793
  0
VERTEX
  8
1
  6
CONTINUOUS
 62
     7
 10
-178.0006721815721
 20
223.8290462610581
  0
VERTEX
  8
1
  6
CONTINUOUS
 62
     7
 10
-178.0121974858482
 20
223.8451072981593
  0
VERTEX
  8
1
  6
CONTINUOUS
 62
     7
 10
-178.0250398570134
 20
223.8604602023943
  0
VERTEX
  8
1
  6
CONTINUOUS
 62
     7
 10
-178.0391519744189
 20
223.8750056614575
  0
VERTEX
  8
1
  6
CONTINUOUS
 62
     7
 10
-178.0544823201004
 20
223.8886399697787
  0
VERTEX
  8
1
  6
CONTINUOUS
 62
     7
 10
-178.066746130502
 20
223.8982028440509
  0
VERTEX
  8
1
  6
CONTINUOUS
 62
     7
 10
-178.079638725197
 20
223.9071450978132
  0
VERTEX
  8
1
  6
CONTINUOUS
 62
     7
 10
-178.0931335264058
 20
223.9154179242562
  0
VERTEX
  8
1
  6
CONTINUOUS
 62
     7
 10
-178.1000980565605
 20
223.9192876413394
  0
VERTEX
  8
1
  6
CONTINUOUS
 62
     7
 10
-178.1009785374434
 20
223.9197583869126
  0
VERTEX
  8
1
  6
CONTINUOUS
 62
     7
 10
-178.1014195955946
 20
223.9199926639581
  0
VERTEX
  8
1
  6
CONTINUOUS
 62
     7
 10
-178.1014747661276
 20
223.9200218971099
  0
VERTEX
  8
1
  6
CONTINUOUS
 62
     7
 10
-178.1014885600886
 20
223.9200292036089
  0
VERTEX
  8
1
  6
CONTINUOUS
 62
     7
 10
-178.1014924224928
 20
223.9200312493004
  0
VERTEX
  8
1
  6
CONTINUOUS
 62
     7
 10
-178.1014989857164
 20
223.9200346837671
  0
SEQEND
  8
1
  6
CONTINUOUS
 62
     7
  0
LINE
  8
1
  6
CONTINUOUS
 62
     7
 10
-178.1015043765433
 20
223.9200374985898
 11
-179.0164883702153
 21
224.3973891772245
  0
LINE
  8
1
  6
CONTINUOUS
 62
     7
 10
-179.1907289770492
 20
224.7278031418396
 11
-178.1504449689955
 21
225.249428627953
  0
LINE
  8
1
  6
CONTINUOUS
 62
     7
 10
-178.1504449689954
 20
225.249428627953
 11
-177.9569508107024
 21
225.5000000025806
  0
LINE
  8
1
  6
CONTINUOUS
 62
     7
 10
-197.5990630533688
 20
225.331195046623
 11
-198.5873470854053
 21
224.8138627545786
  0
POLYLINE
  8
1
  6
CONTINUOUS
 62
     7
 66
     1
  0
VERTEX
  8
1
  6
CONTINUOUS
 62
     7
 10
-198.5873470854053
 20
224.8138627545786
  0
VERTEX
  8
1
  6
CONTINUOUS
 62
     7
 10
-198.5994927233811
 20
224.8055580888391
  0
VERTEX
  8
1
  6
CONTINUOUS
 62
     7
 10
-198.6142825328417
 20
224.7940645750089
  0
VERTEX
  8
1
  6
CONTINUOUS
 62
     7
 10
-198.62841739032
 20
224.7814333884544
  0
VERTEX
  8
1
  6
CONTINUOUS
 62
     7
 10
-198.6417905148032
 20
224.7676883551545
  0
VERTEX
  8
1
  6
CONTINUOUS
 62
     7
 10
-198.6542887589495
 20
224.752858176243
  0
VERTEX
  8
1
  6
CONTINUOUS
 62
     7
 10
-198.6657924134114
 20
224.7369766172551
  0
VERTEX
  8
1
  6
CONTINUOUS
 62
     7
 10
-198.6761756717288
 20
224.7200831017786
  0
VERTEX
  8
1
  6
CONTINUOUS
 62
     7
 10
-198.6853283258572
 20
224.7022361926703
  0
VERTEX
  8
1
  6
CONTINUOUS
 62
     7
 10
-198.6931626215697
 20
224.6835180682959
  0
VERTEX
  8
1
  6
CONTINUOUS
 62
     7
 10
-198.6995892282479
 20
224.6640202605292
  0
VERTEX
  8
1
  6
CONTINUOUS
 62
     7
 10
-198.7045156009125
 20
224.643842987861
  0
VERTEX
  8
1
  6
CONTINUOUS
 62
     7
 10
-198.7078459106833
 20
224.6230954440743
  0
VERTEX
  8
1
  6
CONTINUOUS
 62
     7
 10
-198.7094809753573
 20
224.6018960905973
  0
VERTEX
  8
1
  6
CONTINUOUS
 62
     7
 10
-198.7093202041906
 20
224.5803729525335
  0
VERTEX
  8
1
  6
CONTINUOUS
 62
     7
 10
-198.7072993880601
 20
224.5586639183694
  0
VERTEX
  8
1
  6
CONTINUOUS
 62
     7
 10
-198.7033904225774
 20
224.5369170433594
  0
VERTEX
  8
1
  6
CONTINUOUS
 62
     7
 10
-198.6986727725259
 20
224.5188797902289
  0
VERTEX
  8
1
  6
CONTINUOUS
 62
     7
 10
-198.6926137224259
 20
224.5010236061697
  0
VERTEX
  8
1
  6
CONTINUOUS
 62
     7
 10
-198.6852013890101
 20
224.4834512667043
  0
VERTEX
  8
1
  6
CONTINUOUS
 62
     7
 10
-198.6764250808054
 20
224.4662710018568
  0
VERTEX
  8
1
  6
CONTINUOUS
 62
     7
 10
-198.6662759187272
 20
224.4495962720669
  0
VERTEX
  8
1
  6
CONTINUOUS
 62
     7
 10
-198.6547669963836
 20
224.4335336840441
  0
VERTEX
  8
1
  6
CONTINUOUS
 62
     7
 10
-198.6419398844757
 20
224.4181791924731
  0
VERTEX
  8
1
  6
CONTINUOUS
 62
     7
 10
-198.6278418210006
 20
224.4036321096721
  0
VERTEX
  8
1
  6
CONTINUOUS
 62
     7
 10
-198.6125242930478
 20
224.3899961412234
  0
VERTEX
  8
1
  6
CONTINUOUS
 62
     7
 10
-198.6002692720256
 20
224.3804319979826
  0
VERTEX
  8
1
  6
CONTINUOUS
 62
     7
 10
-198.5873847514831
 20
224.3714884547951
  0
VERTEX
  8
1
  6
CONTINUOUS
 62
     7
 10
-198.5738973018048
 20
224.3632143184754
  0
VERTEX
  8
1
  6
CONTINUOUS
 62
     7
 10
-198.5669361743015
 20
224.3593439387864
  0
VERTEX
  8
1
  6
CONTINUOUS
 62
     7
 10
-198.5660561058893
 20
224.358873110028
  0
VERTEX
  8
1
  6
CONTINUOUS
 62
     7
 10
-198.5656152528999
 20
224.3586387913601
  0
VERTEX
  8
1
  6
CONTINUOUS
 62
     7
 10
-198.5655601079618
 20
224.358609553004
  0
VERTEX
  8
1
  6
CONTINUOUS
 62
     7
 10
-198.5655463203978
 20
224.3586022452039
  0
VERTEX
  8
1
  6
CONTINUOUS
 62
     7
 10
-198.5655424597846
 20
224.3586001991482
  0
VERTEX
  8
1
  6
CONTINUOUS
 62
     7
 10
-198.565535148009
 20
224.3585963741638
  0
SEQEND
  8
1
  6
CONTINUOUS
 62
     7
  0
LINE
  8
1
  6
CONTINUOUS
 62
     7
 10
-198.5655297563944
 20
224.3585935587899
 11
-197.6501712088664
 21
223.8810366111446
  0
LINE
  8
1
  6
CONTINUOUS
 62
     7
 10
-197.5958402385988
 20
223.5185646113837
 11
-198.5843169327288
 21
223.0016125261781
  0
POLYLINE
  8
1
  6
CONTINUOUS
 62
     7
 66
     1
  0
VERTEX
  8
1
  6
CONTINUOUS
 62
     7
 10
-198.5843169327288
 20
223.001612526178
  0
VERTEX
  8
1
  6
CONTINUOUS
 62
     7
 10
-198.5990546986346
 20
222.9915979580877
  0
VERTEX
  8
1
  6
CONTINUOUS
 62
     7
 10
-198.6142738043885
 20
222.9796986519972
  0
VERTEX
  8
1
  6
CONTINUOUS
 62
     7
 10
-198.6285906588445
 20
222.9668070063222
  0
VERTEX
  8
1
  6
CONTINUOUS
 62
     7
 10
-198.6433204151621
 20
222.9514371425429
  0
VERTEX
  8
1
  6
CONTINUOUS
 62
     7
 10
-198.6567594062356
 20
222.9350175511912
  0
VERTEX
  8
1
  6
CONTINUOUS
 62
     7
 10
-198.66881187128
 20
222.9176373305526
  0
VERTEX
  8
1
  6
CONTINUOUS
 62
     7
 10
-198.6793873007948
 20
222.8993887398561
  0
VERTEX
  8
1
  6
CONTINUOUS
 62
     7
 10
-198.6884331792454
 20
222.8803870646444
  0
VERTEX
  8
1
  6
CONTINUOUS
 62
     7
 10
-198.6959138510204
 20
222.8607577812659
  0
VERTEX
  8
1
  6
CONTINUOUS
 62
     7
 10
-198.701793809854
 20
222.8406264114249
  0
VERTEX
  8
1
  6
CONTINUOUS
 62
     7
 10
-198.7060376273667
 20
222.8201184768257
  0
VERTEX
  8
1
  6
CONTINUOUS
 62
     7
 10
-198.7086099563331
 20
222.7993594991725
  0
VERTEX
  8
1
  6
CONTINUOUS
 62
     7
 10
-198.7094755339514
 20
222.7784750001695
  0
VERTEX
  8
1
  6
CONTINUOUS
 62
     7
 10
-198.708610886668
 20
222.757590501521
  0
VERTEX
  8
1
  6
CONTINUOUS
 62
     7
 10
-198.7060394364242
 20
222.7368315249312
  0
VERTEX
  8
1
  6
CONTINUOUS
 62
     7
 10
-198.7017963943024
 20
222.7163235921044
  0
VERTEX
  8
1
  6
CONTINUOUS
 62
     7
 10
-198.6959170559766
 20
222.6961922247448
  0
VERTEX
  8
1
  6
CONTINUOUS
 62
     7
 10
-198.6884367985166
 20
222.6765629445567
  0
VERTEX
  8
1
  6
CONTINUOUS
 62
     7
 10
-198.6793910771886
 20
222.6575612732443
  0
VERTEX
  8
1
  6
CONTINUOUS
 62
     7
 10
-198.6688154969875
 20
222.6393126871522
  0
VERTEX
  8
1
  6
CONTINUOUS
 62
     7
 10
-198.6567625234917
 20
222.6219324716878
  0
VERTEX
  8
1
  6
CONTINUOUS
 62
     7
 10
-198.643322616633
 20
222.6055128860135
  0
VERTEX
  8
1
  6
CONTINUOUS
 62
     7
 10
-198.6285914880376
 20
222.5901430284149
  0
VERTEX
  8
1
  6
CONTINUOUS
 62
     7
 10
-198.6153982731912
 20
222.578200969376
  0
VERTEX
  8
1
  6
CONTINUOUS
 62
     7
 10
-198.6014302900045
 20
222.567101323485
  0
VERTEX
  8
1
  6
CONTINUOUS
 62
     7
 10
-198.586742970794
 20
222.5568956522498
  0
VERTEX
  8
1
  6
CONTINUOUS
 62
     7
 10
-198.5752887663794
 20
222.5498590871609
  0
VERTEX
  8
1
  6
CONTINUOUS
 62
     7
 10
-198.5694289321452
 20
222.5465470513107
  0
VERTEX
  8
1
  6
CONTINUOUS
 62
     7
 10
-198.5664671111001
 20
222.5449437846497
  0
VERTEX
  8
1
  6
CONTINUOUS
 62
     7
 10
-198.5662813034648
 20
222.5448447596748
  0
VERTEX
  8
1
  6
CONTINUOUS
 62
     7
 10
-198.5661883692327
 20
222.5447952993921
  0
VERTEX
  8
1
  6
CONTINUOUS
 62
     7
 10
-198.5661825601703
 20
222.5447922092804
  0
VERTEX
  8
1
  6
CONTINUOUS
 62
     7
 10
-198.5661793070608
 20
222.5447904788772
  0
VERTEX
  8
1
  6
CONTINUOUS
 62
     7
 10
-198.5661759481995
 20
222.5447887010115
  0
VERTEX
  8
1
  6
CONTINUOUS
 62
     7
 10
-198.3551341213568
 20
222.4345705844006
  0
VERTEX
  8
1
  6
CONTINUOUS
 62
     7
 10
-197.6488639871336
 20
222.0660577970996
  0
SEQEND
  8
1
  6
CONTINUOUS
 62
     7
  0
LINE
  8
1
  6
CONTINUOUS
 62
     7
 10
-197.5944816494097
 20
221.7049686727912
 11
-198.5850448610467
 21
221.186850313056
  0
POLYLINE
  8
1
  6
CONTINUOUS
 62
     7
 66
     1
  0
VERTEX
  8
1
  6
CONTINUOUS
 62
     7
 10
-198.5850448610467
 20
221.186850313056
  0
VERTEX
  8
1
  6
CONTINUOUS
 62
     7
 10
-198.5975049412363
 20
221.1783949954044
  0
VERTEX
  8
1
  6
CONTINUOUS
 62
     7
 10
-198.6124803870098
 20
221.1668425732854
  0
VERTEX
  8
1
  6
CONTINUOUS
 62
     7
 10
-198.626785705253
 20
221.1541587991097
  0
VERTEX
  8
1
  6
CONTINUOUS
 62
     7
 10
-198.6403157120423
 20
221.1403674988562
  0
VERTEX
  8
1
  6
CONTINUOUS
 62
     7
 10
-198.65295890843
 20
221.1254973736585
  0
VERTEX
  8
1
  6
CONTINUOUS
 62
     7
 10
-198.6645972848009
 20
221.109582189052
  0
VERTEX
  8
1
  6
CONTINUOUS
 62
     7
 10
-198.6751067854001
 20
221.0926613686246
  0
VERTEX
  8
1
  6
CONTINUOUS
 62
     7
 10
-198.6843790012127
 20
221.0747934752328
  0
VERTEX
  8
1
  6
CONTINUOUS
 62
     7
 10
-198.6923280249341
 20
221.0560606872426
  0
VERTEX
  8
1
  6
CONTINUOUS
 62
     7
 10
-198.698866422342
 20
221.0365545365276
  0
VERTEX
  8
1
  6
CONTINUOUS
 62
     7
 10
-198.7039035925274
 20
221.0163752415785
  0
VERTEX
  8
1
  6
CONTINUOUS
 62
     7
 10
-198.7073456959729
 20
220.9956319961786
  0
VERTEX
  8
1
  6
CONTINUOUS
 62
     7
 10
-198.7090955823103
 20
220.9744432617559
  0
VERTEX
  8
1
  6
CONTINUOUS
 62
     7
 10
-198.7090547317572
 20
220.9529370634139
  0
VERTEX
  8
1
  6
CONTINUOUS
 62
     7
 10
-198.7071610410904
 20
220.9312512896393
  0
VERTEX
  8
1
  6
CONTINUOUS
 62
     7
 10
-198.7033885450396
 20
220.9095339956862
  0
VERTEX
  8
1
  6
CONTINUOUS
 62
     7
 10
-198.6987933221328
 20
220.8915262217243
  0
VERTEX
  8
1
  6
CONTINUOUS
 62
     7
 10
-198.6928659652052
 20
220.8737039061861
  0
VERTEX
  8
1
  6
CONTINUOUS
 62
     7
 10
-198.6855958730266
 20
220.8561698245942
  0
VERTEX
  8
1
  6
CONTINUOUS
 62
     7
 10
-198.6769736459737
 20
220.8390322069726
  0
VERTEX
  8
1
  6
CONTINUOUS
 62
     7
 10
-198.6669917049361
 20
220.8224045137611
  0
VERTEX
  8
1
  6
CONTINUOUS
 62
     7
 10
-198.6556644516574
 20
220.8063933516692
  0
VERTEX
  8
1
  6
CONTINUOUS
 62
     7
 10
-198.6430347739778
 20
220.7910946753816
  0
VERTEX
  8
1
  6
CONTINUOUS
 62
     7
 10
-198.6291512138062
 20
220.7766077972163
  0
VERTEX
  8
1
  6
CONTINUOUS
 62
     7
 10
-198.6140665148457
 20
220.7630364227559
  0
VERTEX
  8
1
  6
CONTINUOUS
 62
     7
 10
-198.601998894179
 20
220.7535236055189
  0
VERTEX
  8
1
  6
CONTINUOUS
 62
     7
 10
-198.5893133141865
 20
220.7446338573459
  0
VERTEX
  8
1
  6
CONTINUOUS
 62
     7
 10
-198.5760368743755
 20
220.7364159850515
  0
VERTEX
  8
1
  6
CONTINUOUS
 62
     7
 10
-198.5691859433592
 20
220.7325746632541
  0
VERTEX
  8
1
  6
CONTINUOUS
 62
     7
 10
-198.5683198742799
 20
220.7321075101329
  0
VERTEX
  8
1
  6
CONTINUOUS
 62
     7
 10
-198.5678860398417
 20
220.7318750329001
  0
VERTEX
  8
1
  6
CONTINUOUS
 62
     7
 10
-198.567831773109
 20
220.731846024893
  0
VERTEX
  8
1
  6
CONTINUOUS
 62
     7
 10
-198.5678182051271
 20
220.7318387746861
  0
VERTEX
  8
1
  6
CONTINUOUS
 62
     7
 10
-198.5678144059991
 20
220.7318367447568
  0
VERTEX
  8
1
  6
CONTINUOUS
 62
     7
 10
-198.5678071200309
 20
220.7318329268681
  0
SEQEND
  8
1
  6
CONTINUOUS
 62
     7
  0
LINE
  8
1
  6
CONTINUOUS
 62
     7
 10
-198.5678017108837
 20
220.7318301000685
 11
-197.6500591308791
 21
220.2525915922774
  0
LINE
  8
1
  6
CONTINUOUS
 62
     7
 10
-197.5993082095857
 20
219.8881788278187
 11
-198.5873756273021
 21
219.3708300258259
  0
POLYLINE
  8
1
  6
CONTINUOUS
 62
     7
 66
     1
  0
VERTEX
  8
1
  6
CONTINUOUS
 62
     7
 10
-198.5873756273021
 20
219.3708300258259
  0
VERTEX
  8
1
  6
CONTINUOUS
 62
     7
 10
-198.5994832170038
 20
219.3625339772125
  0
VERTEX
  8
1
  6
CONTINUOUS
 62
     7
 10
-198.6142418227341
 20
219.3510403807907
  0
VERTEX
  8
1
  6
CONTINUOUS
 62
     7
 10
-198.6283451238346
 20
219.3384092401339
  0
VERTEX
  8
1
  6
CONTINUOUS
 62
     7
 10
-198.6416864297841
 20
219.3246643812209
  0
VERTEX
  8
1
  6
CONTINUOUS
 62
     7
 10
-198.6541526900122
 20
219.3098345051854
  0
VERTEX
  8
1
  6
CONTINUOUS
 62
     7
 10
-198.6656242984177
 20
219.2939533775628
  0
VERTEX
  8
1
  6
CONTINUOUS
 62
     7
 10
-198.6759755584264
 20
219.2770604219408
  0
VERTEX
  8
1
  6
CONTINUOUS
 62
     7
 10
-198.685096378173
 20
219.2592142011763
  0
VERTEX
  8
1
  6
CONTINUOUS
 62
     7
 10
-198.6928991255106
 20
219.2404968936348
  0
VERTEX
  8
1
  6
CONTINUOUS
 62
     7
 10
-198.6992945981436
 20
219.2210000311904
  0
VERTEX
  8
1
  6
CONTINUOUS
 62
     7
 10
-198.7041903857078
 20
219.2008238323335
  0
VERTEX
  8
1
  6
CONTINUOUS
 62
     7
 10
-198.7074908002288
 20
219.1800774908474
  0
VERTEX
  8
1
  6
CONTINUOUS
 62
     7
 10
-198.7090968066659
 20
219.1588794681601
  0
VERTEX
  8
1
  6
CONTINUOUS
 62
     7
 10
-198.708907967546
 20
219.1373577893754
  0
VERTEX
  8
1
  6
CONTINUOUS
 62
     7
 10
-198.7068602313904
 20
219.1156503429796
  0
VERTEX
  8
1
  6
CONTINUOUS
 62
     7
 10
-198.7029256551951
 20
219.093905184227
  0
VERTEX
  8
1
  6
CONTINUOUS
 62
     7
 10
-198.6981877827152
 20
219.0758694594626
  0
VERTEX
  8
1
  6
CONTINUOUS
 62
     7
 10
-198.6921096331735
 20
219.058014892998
  0
VERTEX
  8
1
  6
CONTINUOUS
 62
     7
 10
-198.6846794239082
 20
219.0404442603559
  0
VERTEX
  8
1
  6
CONTINUOUS
 62
     7
 10
-198.6758865660624
 20
219.0232657915603
  0
VERTEX
  8
1
  6
CONTINUOUS
 62
     7
 10
-198.6657222850531
 20
219.006592947051
  0
VERTEX
  8
1
  6
CONTINUOUS
 62
     7
 10
-198.6541997796654
 20
218.9905323335373
  0
VERTEX
  8
1
  6
CONTINUOUS
 62
     7
 10
-198.641360725808
 20
218.9751799057041
  0
VERTEX
  8
1
  6
CONTINUOUS
 62
     7
 10
-198.6272524470861
 20
218.9606349758695
  0
VERTEX
  8
1
  6
CONTINUOUS
 62
     7
 10
-198.6119264631997
 20
218.9470012496158
  0
VERTEX
  8
1
  6
CONTINUOUS
 62
     7
 10
-198.5996662677913
 20
218.9374388465776
  0
VERTEX
  8
1
  6
CONTINUOUS
 62
     7
 10
-198.5867775824196
 20
218.9284970937836
  0
VERTEX
  8
1
  6
CONTINUOUS
 62
     7
 10
-198.5732869842467
 20
218.9202247980488
  0
VERTEX
  8
1
  6
CONTINUOUS
 62
     7
 10
-198.5663246654548
 20
218.9163553574737
  0
VERTEX
  8
1
  6
CONTINUOUS
 62
     7
 10
-198.5654444661304
 20
218.9158846469869
  0
VERTEX
  8
1
  6
CONTINUOUS
 62
     7
 10
-198.5650035491861
 20
218.9156503875282
  0
VERTEX
  8
1
  6
CONTINUOUS
 62
     7
 10
-198.5649483963241
 20
218.9156211565768
  0
VERTEX
  8
1
  6
CONTINUOUS
 62
     7
 10
-198.5649346067815
 20
218.915613850628
  0
VERTEX
  8
1
  6
CONTINUOUS
 62
     7
 10
-198.5649307456145
 20
218.9156118050906
  0
VERTEX
  8
1
  6
CONTINUOUS
 62
     7
 10
-198.5649234339308
 20
218.9156079803343
  0
SEQEND
  8
1
  6
CONTINUOUS
 62
     7
  0
LINE
  8
1
  6
CONTINUOUS
 62
     7
 10
-198.5649180431397
 20
218.915605165385
 11
-197.6501822945843
 21
218.4383567712049
  0
LINE
  8
1
  6
CONTINUOUS
 62
     7
 10
-197.595795926807
 20
218.0759002106185
 11
-198.5843104348648
 21
217.5589489280193
  0
POLYLINE
  8
1
  6
CONTINUOUS
 62
     7
 66
     1
  0
VERTEX
  8
1
  6
CONTINUOUS
 62
     7
 10
-198.5843104348648
 20
217.5589489280193
  0
VERTEX
  8
1
  6
CONTINUOUS
 62
     7
 10
-198.5990518348736
 20
217.5489335573221
  0
VERTEX
  8
1
  6
CONTINUOUS
 62
     7
 10
-198.6142730520591
 20
217.5370342512315
  0
VERTEX
  8
1
  6
CONTINUOUS
 62
     7
 10
-198.6285915710644
 20
217.5241426055564
  0
VERTEX
  8
1
  6
CONTINUOUS
 62
     7
 10
-198.6433226929977
 20
217.5087727417771
  0
VERTEX
  8
1
  6
CONTINUOUS
 62
     7
 10
-198.6567625926549
 20
217.4923531504253
  0
VERTEX
  8
1
  6
CONTINUOUS
 62
     7
 10
-198.6688155584098
 20
217.4749729297867
  0
VERTEX
  8
1
  6
CONTINUOUS
 62
     7
 10
-198.6793911304404
 20
217.4567243390902
  0
VERTEX
  8
1
  6
CONTINUOUS
 62
     7
 10
-198.6884368433914
 20
217.4377226638784
  0
VERTEX
  8
1
  6
CONTINUOUS
 62
     7
 10
-198.6959170922747
 20
217.4180933804999
  0
VERTEX
  8
1
  6
CONTINUOUS
 62
     7
 10
-198.7017964218241
 20
217.3979620106588
  0
VERTEX
  8
1
  6
CONTINUOUS
 62
     7
 10
-198.7060394549706
 20
217.3774540760596
  0
VERTEX
  8
1
  6
CONTINUOUS
 62
     7
 10
-198.70861089604
 20
217.3566950984063
  0
VERTEX
  8
1
  6
CONTINUOUS
 62
     7
 10
-198.7094755339506
 20
217.3358105994033
  0
VERTEX
  8
1
  6
CONTINUOUS
 62
     7
 10
-198.7086099469593
 20
217.3149261007547
  0
VERTEX
  8
1
  6
CONTINUOUS
 62
     7
 10
-198.7060376088187
 20
217.2941671241649
  0
VERTEX
  8
1
  6
CONTINUOUS
 62
     7
 10
-198.7017937823308
 20
217.273659191338
  0
VERTEX
  8
1
  6
CONTINUOUS
 62
     7
 10
-198.6959138147212
 20
217.2535278239784
  0
VERTEX
  8
1
  6
CONTINUOUS
 62
     7
 10
-198.6884331343698
 20
217.2338985437902
  0
VERTEX
  8
1
  6
CONTINUOUS
 62
     7
 10
-198.6793872475426
 20
217.2148968724778
  0
VERTEX
  8
1
  6
CONTINUOUS
 62
     7
 10
-198.6688118098579
 20
217.1966482863856
  0
VERTEX
  8
1
  6
CONTINUOUS
 62
     7
 10
-198.656759337073
 20
217.1792680709212
  0
VERTEX
  8
1
  6
CONTINUOUS
 62
     7
 10
-198.6433203387985
 20
217.1628484852468
  0
VERTEX
  8
1
  6
CONTINUOUS
 62
     7
 10
-198.6285905758195
 20
217.1474786276482
  0
VERTEX
  8
1
  6
CONTINUOUS
 62
     7
 10
-198.615398883201
 20
217.1355365686093
  0
VERTEX
  8
1
  6
CONTINUOUS
 62
     7
 10
-198.6014328012417
 20
217.1244369227182
  0
VERTEX
  8
1
  6
CONTINUOUS
 62
     7
 10
-198.5867477898328
 20
217.1142312514829
  0
VERTEX
  8
1
  6
CONTINUOUS
 62
     7
 10
-198.5752955995218
 20
217.107194686394
  0
VERTEX
  8
1
  6
CONTINUOUS
 62
     7
 10
-198.5694368674369
 20
217.1038826505438
  0
VERTEX
  8
1
  6
CONTINUOUS
 62
     7
 10
-198.5664756218631
 20
217.1022793838828
  0
VERTEX
  8
1
  6
CONTINUOUS
 62
     7
 10
-198.5662898507408
 20
217.1021803589079
  0
VERTEX
  8
1
  6
CONTINUOUS
 62
     7
 10
-198.5661969347894
 20
217.1021308986252
  0
VERTEX
  8
1
  6
CONTINUOUS
 62
     7
 10
-198.5661911268701
 20
217.1021278085134
  0
VERTEX
  8
1
  6
CONTINUOUS
 62
     7
 10
-198.5661878744007
 20
217.1021260781103
  0
VERTEX
  8
1
  6
CONTINUOUS
 62
     7
 10
-198.5661845160418
 20
217.1021243002446
  0
VERTEX
  8
1
  6
CONTINUOUS
 62
     7
 10
-198.3551483145752
 20
216.9919061836336
  0
VERTEX
  8
1
  6
CONTINUOUS
 62
     7
 10
-197.6488634452205
 20
216.6233713733729
  0
SEQEND
  8
1
  6
CONTINUOUS
 62
     7
  0
LINE
  8
1
  6
CONTINUOUS
 62
     7
 10
-197.5950249475351
 20
216.261997976224
 11
-198.5856622945365
 21
215.7438474393707
  0
POLYLINE
  8
1
  6
CONTINUOUS
 62
     7
 66
     1
  0
VERTEX
  8
1
  6
CONTINUOUS
 62
     7
 10
-198.5856622945365
 20
215.7438474393707
  0
VERTEX
  8
1
  6
CONTINUOUS
 62
     7
 10
-198.5981145125404
 20
215.7353916664294
  0
VERTEX
  8
1
  6
CONTINUOUS
 62
     7
 10
-198.6167224040844
 20
215.7207704330011
  0
VERTEX
  8
1
  6
CONTINUOUS
 62
     7
 10
-198.6342395071747
 20
215.7043906390456
  0
VERTEX
  8
1
  6
CONTINUOUS
 62
     7
 10
-198.6504557401404
 20
215.6863023731213
  0
VERTEX
  8
1
  6
CONTINUOUS
 62
     7
 10
-198.6651454698699
 20
215.6665678568353
  0
VERTEX
  8
1
  6
CONTINUOUS
 62
     7
 10
-198.6756368626105
 20
215.6496452607964
  0
VERTEX
  8
1
  6
CONTINUOUS
 62
     7
 10
-198.6848891312071
 20
215.6317757334722
  0
VERTEX
  8
1
  6
CONTINUOUS
 62
     7
 10
-198.6928164274991
 20
215.6130414532286
  0
VERTEX
  8
1
  6
CONTINUOUS
 62
     7
 10
-198.6993313805309
 20
215.5935339519391
  0
VERTEX
  8
1
  6
CONTINUOUS
 62
     7
 10
-198.7043434568235
 20
215.5733534480946
  0
VERTEX
  8
1
  6
CONTINUOUS
 62
     7
 10
-198.7077588885697
 20
215.5526091354782
  0
VERTEX
  8
1
  6
CONTINUOUS
 62
     7
 10
-198.7094806015017
 20
215.531419475518
  0
VERTEX
  8
1
  6
CONTINUOUS
 62
     7
 10
-198.7094101564981
 20
215.5099124933176
  0
VERTEX
  8
1
  6
CONTINUOUS
 62
     7
 10
-198.7074855368029
 20
215.4882260773635
  0
VERTEX
  8
1
  6
CONTINUOUS
 62
     7
 10
-198.7036808688761
 20
215.4665082829099
  0
VERTEX
  8
1
  6
CONTINUOUS
 62
     7
 10
-198.6990579555113
 20
215.4485002000912
  0
VERTEX
  8
1
  6
CONTINUOUS
 62
     7
 10
-198.6931021685969
 20
215.4306776740844
  0
VERTEX
  8
1
  6
CONTINUOUS
 62
     7
 10
-198.6858029658796
 20
215.4131434804121
  0
VERTEX
  8
1
  6
CONTINUOUS
 62
     7
 10
-198.6771510083719
 20
215.3960058490983
  0
VERTEX
  8
1
  6
CONTINUOUS
 62
     7
 10
-198.6671387792052
 20
215.3793782405829
  0
VERTEX
  8
1
  6
CONTINUOUS
 62
     7
 10
-198.655780744121
 20
215.3633672615751
  0
VERTEX
  8
1
  6
CONTINUOUS
 62
     7
 10
-198.6431198563831
 20
215.3480688667599
  0
VERTEX
  8
1
  6
CONTINUOUS
 62
     7
 10
-198.6292047241308
 20
215.3335823684551
  0
VERTEX
  8
1
  6
CONTINUOUS
 62
     7
 10
-198.6140881579377
 20
215.3200114722434
  0
VERTEX
  8
1
  6
CONTINUOUS
 62
     7
 10
-198.6019964836652
 20
215.3104990782602
  0
VERTEX
  8
1
  6
CONTINUOUS
 62
     7
 10
-198.5892867504917
 20
215.3016098086843
  0
VERTEX
  8
1
  6
CONTINUOUS
 62
     7
 10
-198.5759860865638
 20
215.2933924703305
  0
VERTEX
  8
1
  6
CONTINUOUS
 62
     7
 10
-198.5691230258514
 20
215.2895514362571
  0
VERTEX
  8
1
  6
CONTINUOUS
 62
     7
 10
-198.568255439996
 20
215.2890843200742
  0
VERTEX
  8
1
  6
CONTINUOUS
 62
     7
 10
-198.5678208471312
 20
215.2888518613917
  0
VERTEX
  8
1
  6
CONTINUOUS
 62
     7
 10
-198.5677664855934
 20
215.2888228557072
  0
VERTEX
  8
1
  6
CONTINUOUS
 62
     7
 10
-198.5677528939101
 20
215.288815606081
  0
VERTEX
  8
1
  6
CONTINUOUS
 62
     7
 10
-198.5677490881457
 20
215.2888135763143
  0
VERTEX
  8
1
  6
CONTINUOUS
 62
     7
 10
-198.5677417992934
 20
215.2888097584972
  0
SEQEND
  8
1
  6
CONTINUOUS
 62
     7
  0
LINE
  8
1
  6
CONTINUOUS
 62
     7
 10
-198.5677363921504
 20
215.2888069333695
 11
-197.650063634658
 21
214.8097009451971
  0
LINE
  8
1
  6
CONTINUOUS
 62
     7
 10
-179.2922842614103
 20
207.9434201847253
 11
-178.7022327847029
 21
208.2601891606571
  0
LINE
  8
1
  6
CONTINUOUS
 62
     7
 10
-178.7022327847028
 20
208.2601891606571
 11
-178.5208145833334
 21
208.5000000001198
  0
POLYLINE
  8
1
  6
CONTINUOUS
 62
     7
 66
     1
  0
VERTEX
  8
1
  6
CONTINUOUS
 62
     7
 10
-179.1735519187901
 20
206.4735061310553
  0
VERTEX
  8
1
  6
CONTINUOUS
 62
     7
 10
-178.8257213817586
 20
206.6748290578229
  0
VERTEX
  8
1
  6
CONTINUOUS
 62
     7
 10
-178.7344728323265
 20
206.7276858958796
  0
VERTEX
  8
1
  6
CONTINUOUS
 62
     7
 10
-178.6882074084448
 20
206.7544932308627
  0
VERTEX
  8
1
  6
CONTINUOUS
 62
     7
 10
-178.6649146260888
 20
206.767991627343
  0
VERTEX
  8
1
  6
CONTINUOUS
 62
     7
 10
-178.6532282452275
 20
206.7747645078302
  0
VERTEX
  8
1
  6
CONTINUOUS
 62
     7
 10
-178.6503024857898
 20
206.7764601948528
  0
VERTEX
  8
1
  6
CONTINUOUS
 62
     7
 10
-178.6495707857012
 20
206.7768842707897
  0
VERTEX
  8
1
  6
CONTINUOUS
 62
     7
 10
-178.6495633858616
 20
206.7768885734823
  0
VERTEX
  8
1
  6
CONTINUOUS
 62
     7
 10
-178.6495612821014
 20
206.7768898111669
  0
VERTEX
  8
1
  6
CONTINUOUS
 62
     7
 10
-178.6495575254047
 20
206.7768920213735
  0
VERTEX
  8
1
  6
CONTINUOUS
 62
     7
 10
-178.6375300086849
 20
206.784416489625
  0
VERTEX
  8
1
  6
CONTINUOUS
 62
     7
 10
-178.6257886672359
 20
206.7926837373744
  0
VERTEX
  8
1
  6
CONTINUOUS
 62
     7
 10
-178.6143817440136
 20
206.8016874674649
  0
VERTEX
  8
1
  6
CONTINUOUS
 62
     7
 10
-178.6017343736163
 20
206.8129497942763
  0
VERTEX
  8
1
  6
CONTINUOUS
 62
     7
 10
-178.5896791298984
 20
206.8251602516504
  0
VERTEX
  8
1
  6
CONTINUOUS
 62
     7
 10
-178.5783026278498
 20
206.8382988247442
  0
VERTEX
  8
1
  6
CONTINUOUS
 62
     7
 10
-178.567696432128
 20
206.8523414960628
  0
VERTEX
  8
1
  6
CONTINUOUS
 62
     7
 10
-178.5579572089129
 20
206.8672600903452
  0
VERTEX
  8
1
  6
CONTINUOUS
 62
     7
 10
-178.5491846914285
 20
206.8830208540774
  0
VERTEX
  8
1
  6
CONTINUOUS
 62
     7
 10
-178.5414603795992
 20
206.8995719084689
  0
VERTEX
  8
1
  6
CONTINUOUS
 62
     7
 10
-178.5348549738364
 20
206.9168472908758
  0
VERTEX
  8
1
  6
CONTINUOUS
 62
     7
 10
-178.5294414625637
 20
206.9347742563956
  0
VERTEX
  8
1
  6
CONTINUOUS
 62
     7
 10
-178.5252953596504
 20
206.9532731564414
  0
VERTEX
  8
1
  6
CONTINUOUS
 62
     7
 10
-178.522864695862
 20
206.9690634119669
  0
VERTEX
  8
1
  6
CONTINUOUS
 62
     7
 10
-178.5214149530458
 20
206.9851365916819
  0
VERTEX
  8
1
  6
CONTINUOUS
 62
     7
 10
-178.5209940151605
 20
207.0014349314594
  0
VERTEX
  8
1
  6
CONTINUOUS
 62
     7
 10
-178.5216445294909
 20
207.017896925348
  0
VERTEX
  8
1
  6
CONTINUOUS
 62
     7
 10
-178.5233868609283
 20
207.034457229162
  0
VERTEX
  8
1
  6
CONTINUOUS
 62
     7
 10
-178.5262357890702
 20
207.0510465630936
  0
VERTEX
  8
1
  6
CONTINUOUS
 62
     7
 10
-178.5302053204313
 20
207.067591613346
  0
VERTEX
  8
1
  6
CONTINUOUS
 62
     7
 10
-178.535308659757
 20
207.0840149327877
  0
VERTEX
  8
1
  6
CONTINUOUS
 62
     7
 10
-178.5415581810625
 20
207.1002348406277
  0
VERTEX
  8
1
  6
CONTINUOUS
 62
     7
 10
-178.5489653984031
 20
207.1161653211129
  0
VERTEX
  8
1
  6
CONTINUOUS
 62
     7
 10
-178.5575409174549
 20
207.1317159321753
  0
VERTEX
  8
1
  6
CONTINUOUS
 62
     7
 10
-178.5672851019544
 20
207.1467970750501
  0
VERTEX
  8
1
  6
CONTINUOUS
 62
     7
 10
-178.5781722158509
 20
207.1613290322466
  0
VERTEX
  8
1
  6
CONTINUOUS
 62
     7
 10
-178.5901696240628
 20
207.17523075965
  0
VERTEX
  8
1
  6
CONTINUOUS
 62
     7
 10
-178.6032415136262
 20
207.1884176155479
  0
VERTEX
  8
1
  6
CONTINUOUS
 62
     7
 10
-178.6173488163156
 20
207.2008012821715
  0
VERTEX
  8
1
  6
CONTINUOUS
 62
     7
 10
-178.6324491309363
 20
207.2122896865216
  0
VERTEX
  8
1
  6
CONTINUOUS
 62
     7
 10
-178.6484966453186
 20
207.2227869204768
  0
VERTEX
  8
1
  6
CONTINUOUS
 62
     7
 10
-178.6516070604685
 20
207.2246367687444
  0
VERTEX
  8
1
  6
CONTINUOUS
 62
     7
 10
-178.6518025021538
 20
207.2247510957733
  0
VERTEX
  8
1
  6
CONTINUOUS
 62
     7
 10
-178.6519002687298
 20
207.2248082020822
  0
VERTEX
  8
1
  6
CONTINUOUS
 62
     7
 10
-178.6519491634466
 20
207.2248367409262
  0
VERTEX
  8
1
  6
CONTINUOUS
 62
     7
 10
-178.6519736136616
 20
207.2248510067695
  0
VERTEX
  8
1
  6
CONTINUOUS
 62
     7
 10
-178.6519770368436
 20
207.2248530037971
  0
VERTEX
  8
1
  6
CONTINUOUS
 62
     7
 10
-178.6519847800118
 20
207.2248574856812
  0
VERTEX
  8
1
  6
CONTINUOUS
 62
     7
 10
-178.6519910471549
 20
207.2248611130138
  0
VERTEX
  8
1
  6
CONTINUOUS
 62
     7
 10
-178.9017908494986
 20
207.3693605021833
  0
VERTEX
  8
1
  6
CONTINUOUS
 62
     7
 10
-179.144958119985
 20
207.5098771558439
  0
SEQEND
  8
1
  6
CONTINUOUS
 62
     7
  0
POLYLINE
  8
1
  6
CONTINUOUS
 62
     7
 66
     1
  0
VERTEX
  8
1
  6
CONTINUOUS
 62
     7
 10
-179.1772826879221
 20
204.9713843683153
  0
VERTEX
  8
1
  6
CONTINUOUS
 62
     7
 10
-178.8281682867479
 20
205.1731973867944
  0
VERTEX
  8
1
  6
CONTINUOUS
 62
     7
 10
-178.7366606949412
 20
205.2261551615099
  0
VERTEX
  8
1
  6
CONTINUOUS
 62
     7
 10
-178.6902741862058
 20
205.253009726882
  0
VERTEX
  8
1
  6
CONTINUOUS
 62
     7
 10
-178.6669228933592
 20
205.2665309290716
  0
VERTEX
  8
1
  6
CONTINUOUS
 62
     7
 10
-178.6552077551851
 20
205.2733150100423
  0
VERTEX
  8
1
  6
CONTINUOUS
 62
     7
 10
-178.6522748577912
 20
205.2750134761054
  0
VERTEX
  8
1
  6
CONTINUOUS
 62
     7
 10
-178.6515413764118
 20
205.275438245485
  0
VERTEX
  8
1
  6
CONTINUOUS
 62
     7
 10
-178.6515339402589
 20
205.2754425617637
  0
VERTEX
  8
1
  6
CONTINUOUS
 62
     7
 10
-178.6515318072122
 20
205.275443810123
  0
VERTEX
  8
1
  6
CONTINUOUS
 62
     7
 10
-178.6515279982189
 20
205.2754460393914
  0
VERTEX
  8
1
  6
CONTINUOUS
 62
     7
 10
-178.639337049436
 20
205.2830300969709
  0
VERTEX
  8
1
  6
CONTINUOUS
 62
     7
 10
-178.6274433771835
 20
205.2913527615679
  0
VERTEX
  8
1
  6
CONTINUOUS
 62
     7
 10
-178.6158945288348
 20
205.3004077360255
  0
VERTEX
  8
1
  6
CONTINUOUS
 62
     7
 10
-178.6030957719947
 20
205.3117238725
  0
VERTEX
  8
1
  6
CONTINUOUS
 62
     7
 10
-178.5909008452142
 20
205.3239826134524
  0
VERTEX
  8
1
  6
CONTINUOUS
 62
     7
 10
-178.5793951978095
 20
205.3371639440395
  0
VERTEX
  8
1
  6
CONTINUOUS
 62
     7
 10
-178.5686691908586
 20
205.3512438467665
  0
VERTEX
  8
1
  6
CONTINUOUS
 62
     7
 10
-178.5588182491825
 20
205.3661941463725
  0
VERTEX
  8
1
  6
CONTINUOUS
 62
     7
 10
-178.5499408273771
 20
205.3819810893434
  0
VERTEX
  8
1
  6
CONTINUOUS
 62
     7
 10
-178.5421171113832
 20
205.3985527968886
  0
VERTEX
  8
1
  6
CONTINUOUS
 62
     7
 10
-178.5354164515766
 20
205.4158433063644
  0
VERTEX
  8
1
  6
CONTINUOUS
 62
     7
 10
-178.5299104501581
 20
205.4337798728682
  0
VERTEX
  8
1
  6
CONTINUOUS
 62
     7
 10
-178.5256731999827
 20
205.452282847813
  0
VERTEX
  8
1
  6
CONTINUOUS
 62
     7
 10
-178.5231665578233
 20
205.4680722777729
  0
VERTEX
  8
1
  6
CONTINUOUS
 62
     7
 10
-178.5216399017915
 20
205.4841407943633
  0
VERTEX
  8
1
  6
CONTINUOUS
 62
     7
 10
-178.5211402435664
 20
205.5004306334573
  0
VERTEX
  8
1
  6
CONTINUOUS
 62
     7
 10
-178.5217093450615
 20
205.5168802891034
  0
VERTEX
  8
1
  6
CONTINUOUS
 62
     7
 10
-178.5233666735067
 20
205.533424417116
  0
VERTEX
  8
1
  6
CONTINUOUS
 62
     7
 10
-178.5261260988676
 20
205.5499937376872
  0
VERTEX
  8
1
  6
CONTINUOUS
 62
     7
 10
-178.5300007070159
 20
205.5665149370203
  0
VERTEX
  8
1
  6
CONTINUOUS
 62
     7
 10
-178.5350027721567
 20
205.5829105679836
  0
VERTEX
  8
1
  6
CONTINUOUS
 62
     7
 10
-178.5411437290229
 20
205.5990989497864
  0
VERTEX
  8
1
  6
CONTINUOUS
 62
     7
 10
-178.548434144839
 20
205.6149940666753
  0
VERTEX
  8
1
  6
CONTINUOUS
 62
     7
 10
-178.5568836721307
 20
205.6305054765826
  0
VERTEX
  8
1
  6
CONTINUOUS
 62
     7
 10
-178.5664917156695
 20
205.6455435807432
  0
VERTEX
  8
1
  6
CONTINUOUS
 62
     7
 10
-178.5772315736842
 20
205.6600286616666
  0
VERTEX
  8
1
  6
CONTINUOUS
 62
     7
 10
-178.5890696399136
 20
205.6738796752381
  0
VERTEX
  8
1
  6
CONTINUOUS
 62
     7
 10
-178.6019691255657
 20
205.687011979745
  0
VERTEX
  8
1
  6
CONTINUOUS
 62
     7
 10
-178.6158899824209
 20
205.6993372574187
  0
VERTEX
  8
1
  6
CONTINUOUS
 62
     7
 10
-178.6307888254686
 20
205.7107634352598
  0
VERTEX
  8
1
  6
CONTINUOUS
 62
     7
 10
-178.6466188550912
 20
205.7211946051472
  0
VERTEX
  8
1
  6
CONTINUOUS
 62
     7
 10
-178.64968662874
 20
205.7230316391739
  0
VERTEX
  8
1
  6
CONTINUOUS
 62
     7
 10
-178.6498793853335
 20
205.723145160833
  0
VERTEX
  8
1
  6
CONTINUOUS
 62
     7
 10
-178.6499758084777
 20
205.7232018642595
  0
VERTEX
  8
1
  6
CONTINUOUS
 62
     7
 10
-178.6500240312571
 20
205.7232302016129
  0
VERTEX
  8
1
  6
CONTINUOUS
 62
     7
 10
-178.650048145448
 20
205.7232443666985
  0
VERTEX
  8
1
  6
CONTINUOUS
 62
     7
 10
-178.6500515215837
 20
205.7232463496194
  0
VERTEX
  8
1
  6
CONTINUOUS
 62
     7
 10
-178.6500592452918
 20
205.7232508252965
  0
VERTEX
  8
1
  6
CONTINUOUS
 62
     7
 10
-178.6500654971812
 20
205.7232544477522
  0
VERTEX
  8
1
  6
CONTINUOUS
 62
     7
 10
-178.8992093345556
 20
205.8675469692964
  0
VERTEX
  8
1
  6
CONTINUOUS
 62
     7
 10
-179.1449992522887
 20
206.0097805423486
  0
SEQEND
  8
1
  6
CONTINUOUS
 62
     7
  0
POLYLINE
  8
1
  6
CONTINUOUS
 62
     7
 66
     1
  0
VERTEX
  8
1
  6
CONTINUOUS
 62
     7
 10
-179.1762914068851
 20
203.4720298386737
  0
VERTEX
  8
1
  6
CONTINUOUS
 62
     7
 10
-178.7302268339998
 20
203.7300398984911
  0
VERTEX
  8
1
  6
CONTINUOUS
 62
     7
 10
-178.6745292372363
 20
203.7622911559683
  0
VERTEX
  8
1
  6
CONTINUOUS
 62
     7
 10
-178.6606071012752
 20
203.7703539703376
  0
VERTEX
  8
1
  6
CONTINUOUS
 62
     7
 10
-178.6536463764227
 20
203.7743853775222
  0
VERTEX
  8
1
  6
CONTINUOUS
 62
     7
 10
-178.6519062310642
 20
203.7753932293184
  0
VERTEX
  8
1
  6
CONTINUOUS
 62
     7
 10
-178.6514711969683
 20
203.7756451922674
  0
VERTEX
  8
1
  6
CONTINUOUS
 62
     7
 10
-178.6513624385846
 20
203.7757081830047
  0
VERTEX
  8
1
  6
CONTINUOUS
 62
     7
 10
-178.6513080594139
 20
203.7757396783733
  0
VERTEX
  8
1
  6
CONTINUOUS
 62
     7
 10
-178.6512808698337
 20
203.7757554260576
  0
VERTEX
  8
1
  6
CONTINUOUS
 62
     7
 10
-178.6512723431821
 20
203.7757603645314
  0
VERTEX
  8
1
  6
CONTINUOUS
 62
     7
 10
-178.6512680667928
 20
203.7757628449832
  0
VERTEX
  8
1
  6
CONTINUOUS
 62
     7
 10
-178.6512658157805
 20
203.7757641633701
  0
VERTEX
  8
1
  6
CONTINUOUS
 62
     7
 10
-178.6344361417223
 20
203.7864934945164
  0
VERTEX
  8
1
  6
CONTINUOUS
 62
     7
 10
-178.6184816547362
 20
203.7984330718485
  0
VERTEX
  8
1
  6
CONTINUOUS
 62
     7
 10
-178.6034821862585
 20
203.8115034570139
  0
VERTEX
  8
1
  6
CONTINUOUS
 62
     7
 10
-178.5895175583343
 20
203.8256252116609
  0
VERTEX
  8
1
  6
CONTINUOUS
 62
     7
 10
-178.5770072631468
 20
203.8402891038266
  0
VERTEX
  8
1
  6
CONTINUOUS
 62
     7
 10
-178.5656241681659
 20
203.8557988833018
  0
VERTEX
  8
1
  6
CONTINUOUS
 62
     7
 10
-178.5554416036485
 20
203.8720815211076
  0
VERTEX
  8
1
  6
CONTINUOUS
 62
     7
 10
-178.5465237712299
 20
203.8890587309451
  0
VERTEX
  8
1
  6
CONTINUOUS
 62
     7
 10
-178.5389041276899
 20
203.9066344906881
  0
VERTEX
  8
1
  6
CONTINUOUS
 62
     7
 10
-178.5326096240511
 20
203.9247090420217
  0
VERTEX
  8
1
  6
CONTINUOUS
 62
     7
 10
-178.527667174096
 20
203.943182626631
  0
VERTEX
  8
1
  6
CONTINUOUS
 62
     7
 10
-178.5241036529672
 20
203.9619554862012
  0
VERTEX
  8
1
  6
CONTINUOUS
 62
     7
 10
-178.5219458957674
 20
203.9809278624174
  0
VERTEX
  8
1
  6
CONTINUOUS
 62
     7
 10
-178.5212206961596
 20
203.9999999969646
  0
VERTEX
  8
1
  6
CONTINUOUS
 62
     7
 10
-178.5219458953102
 20
204.0190721315282
  0
VERTEX
  8
1
  6
CONTINUOUS
 62
     7
 10
-178.5241036520614
 20
204.0380445077931
  0
VERTEX
  8
1
  6
CONTINUOUS
 62
     7
 10
-178.5276671727504
 20
204.0568173674445
  0
VERTEX
  8
1
  6
CONTINUOUS
 62
     7
 10
-178.5326096222744
 20
204.0752909521675
  0
VERTEX
  8
1
  6
CONTINUOUS
 62
     7
 10
-178.5389041254909
 20
204.0933655036472
  0
VERTEX
  8
1
  6
CONTINUOUS
 62
     7
 10
-178.5465237686173
 20
204.1109412635688
  0
VERTEX
  8
1
  6
CONTINUOUS
 62
     7
 10
-178.555441600631
 20
204.1279184736174
  0
VERTEX
  8
1
  6
CONTINUOUS
 62
     7
 10
-178.565624164759
 20
204.144201111663
  0
VERTEX
  8
1
  6
CONTINUOUS
 62
     7
 10
-178.5770072593744
 20
204.1597108914016
  0
VERTEX
  8
1
  6
CONTINUOUS
 62
     7
 10
-178.58951755422
 20
204.1743747838547
  0
VERTEX
  8
1
  6
CONTINUOUS
 62
     7
 10
-178.6007509364923
 20
204.185895844126
  0
VERTEX
  8
1
  6
CONTINUOUS
 62
     7
 10
-178.612673700525
 20
204.196736507011
  0
VERTEX
  8
1
  6
CONTINUOUS
 62
     7
 10
-178.6252433822766
 20
204.2068545108459
  0
VERTEX
  8
1
  6
CONTINUOUS
 62
     7
 10
-178.6350696358359
 20
204.2139433456883
  0
VERTEX
  8
1
  6
CONTINUOUS
 62
     7
 10
-178.6452179741803
 20
204.2205840834898
  0
VERTEX
  8
1
  6
CONTINUOUS
 62
     7
 10
-178.6504073256467
 20
204.2237308443941
  0
VERTEX
  8
1
  6
CONTINUOUS
 62
     7
 10
-178.6510612296997
 20
204.2241158884017
  0
VERTEX
  8
1
  6
CONTINUOUS
 62
     7
 10
-178.6512248853803
 20
204.2242118590737
  0
VERTEX
  8
1
  6
CONTINUOUS
 62
     7
 10
-178.651265810511
 20
204.2242358335775
  0
VERTEX
  8
1
  6
CONTINUOUS
 62
     7
 10
-178.6512688776006
 20
204.224237628305
  0
VERTEX
  8
1
  6
CONTINUOUS
 62
     7
 10
-178.6512808410147
 20
204.2242445572861
  0
VERTEX
  8
1
  6
CONTINUOUS
 62
     7
 10
-178.7302268051804
 20
204.2699600848526
  0
VERTEX
  8
1
  6
CONTINUOUS
 62
     7
 10
-179.145307531884
 20
204.5100635736065
  0
SEQEND
  8
1
  6
CONTINUOUS
 62
     7
  0
POLYLINE
  8
1
  6
CONTINUOUS
 62
     7
 66
     1
  0
VERTEX
  8
1
  6
CONTINUOUS
 62
     7
 10
-179.174004285815
 20
201.9734416385874
  0
VERTEX
  8
1
  6
CONTINUOUS
 62
     7
 10
-178.8261264710727
 20
202.1747802074709
  0
VERTEX
  8
1
  6
CONTINUOUS
 62
     7
 10
-178.7348657721462
 20
202.2276405505731
  0
VERTEX
  8
1
  6
CONTINUOUS
 62
     7
 10
-178.6885941938273
 20
202.2544495772563
  0
VERTEX
  8
1
  6
CONTINUOUS
 62
     7
 10
-178.6652983117735
 20
202.267948804381
  0
VERTEX
  8
1
  6
CONTINUOUS
 62
     7
 10
-178.6536103751179
 20
202.2747220963891
  0
VERTEX
  8
1
  6
CONTINUOUS
 62
     7
 10
-178.6506842260963
 20
202.2764178858959
  0
VERTEX
  8
1
  6
CONTINUOUS
 62
     7
 10
-178.6499524285717
 20
202.2768419874291
  0
VERTEX
  8
1
  6
CONTINUOUS
 62
     7
 10
-178.6499450265487
 20
202.2768462906232
  0
VERTEX
  8
1
  6
CONTINUOUS
 62
     7
 10
-178.6499429209266
 20
202.2768475287019
  0
VERTEX
  8
1
  6
CONTINUOUS
 62
     7
 10
-178.6499391609051
 20
202.2768497396123
  0
VERTEX
  8
1
  6
CONTINUOUS
 62
     7
 10
-178.6379008610737
 20
202.2843764457178
  0
VERTEX
  8
1
  6
CONTINUOUS
 62
     7
 10
-178.626148675983
 20
202.292645852944
  0
VERTEX
  8
1
  6
CONTINUOUS
 62
     7
 10
-178.614730834503
 20
202.3016516641339
  0
VERTEX
  8
1
  6
CONTINUOUS
 62
     7
 10
-178.6020707884595
 20
202.3129162889381
  0
VERTEX
  8
1
  6
CONTINUOUS
 62
     7
 10
-178.5900027305031
 20
202.3251289405011
  0
VERTEX
  8
1
  6
CONTINUOUS
 62
     7
 10
-178.5786132547213
 20
202.3382696039802
  0
VERTEX
  8
1
  6
CONTINUOUS
 62
     7
 10
-178.567993905275
 20
202.3523142618801
  0
VERTEX
  8
1
  6
CONTINUOUS
 62
     7
 10
-178.5582413283711
 20
202.3672347389401
  0
VERTEX
  8
1
  6
CONTINUOUS
 62
     7
 10
-178.5494552379704
 20
202.3829972816461
  0
VERTEX
  8
1
  6
CONTINUOUS
 62
     7
 10
-178.5417171161248
 20
202.3995500112075
  0
VERTEX
  8
1
  6
CONTINUOUS
 62
     7
 10
-178.5350976465507
 20
202.4168269649806
  0
VERTEX
  8
1
  6
CONTINUOUS
 62
     7
 10
-178.5296698018772
 20
202.4347553980628
  0
VERTEX
  8
1
  6
CONTINUOUS
 62
     7
 10
-178.5255090811972
 20
202.4532556618672
  0
VERTEX
  8
1
  6
CONTINUOUS
 62
     7
 10
-178.5230660088417
 20
202.4690469745636
  0
VERTEX
  8
1
  6
CONTINUOUS
 62
     7
 10
-178.5216036432795
 20
202.4851211393635
  0
VERTEX
  8
1
  6
CONTINUOUS
 62
     7
 10
-178.5211698619265
 20
202.50142039214
  0
VERTEX
  8
1
  6
CONTINUOUS
 62
     7
 10
-178.5218073063612
 20
202.5178832269416
  0
VERTEX
  8
1
  6
CONTINUOUS
 62
     7
 10
-178.5235363368793
 20
202.5344442995826
  0
VERTEX
  8
1
  6
CONTINUOUS
 62
     7
 10
-178.5263717292562
 20
202.5510343302553
  0
VERTEX
  8
1
  6
CONTINUOUS
 62
     7
 10
-178.5303274869027
 20
202.5675800051628
  0
VERTEX
  8
1
  6
CONTINUOUS
 62
     7
 10
-178.5354168122156
 20
202.5840038771735
  0
VERTEX
  8
1
  6
CONTINUOUS
 62
     7
 10
-178.5416520776522
 20
202.6002242654966
  0
VERTEX
  8
1
  6
CONTINUOUS
 62
     7
 10
-178.5490447965358
 20
202.616155154379
  0
VERTEX
  8
1
  6
CONTINUOUS
 62
     7
 10
-178.5576055746703
 20
202.6317061017526
  0
VERTEX
  8
1
  6
CONTINUOUS
 62
     7
 10
-178.5673347768599
 20
202.6467875088526
  0
VERTEX
  8
1
  6
CONTINUOUS
 62
     7
 10
-178.5782066690757
 20
202.6613196581883
  0
VERTEX
  8
1
  6
CONTINUOUS
 62
     7
 10
-178.5901886190032
 20
202.675221505645
  0
VERTEX
  8
1
  6
CONTINUOUS
 62
     7
 10
-178.6032448171599
 20
202.6884084095102
  0
VERTEX
  8
1
  6
CONTINUOUS
 62
     7
 10
-178.6173361995135
 20
202.7007920520151
  0
VERTEX
  8
1
  6
CONTINUOUS
 62
     7
 10
-178.6324203697679
 20
202.7122803601606
  0
VERTEX
  8
1
  6
CONTINUOUS
 62
     7
 10
-178.6484515213477
 20
202.7227774258252
  0
VERTEX
  8
1
  6
CONTINUOUS
 62
     7
 10
-178.6515588446525
 20
202.7246272345131
  0
VERTEX
  8
1
  6
CONTINUOUS
 62
     7
 10
-178.6517540928508
 20
202.724741558984
  0
VERTEX
  8
1
  6
CONTINUOUS
 62
     7
 10
-178.6518517626724
 20
202.7247986640103
  0
VERTEX
  8
1
  6
CONTINUOUS
 62
     7
 10
-178.6519006090092
 20
202.7248272022121
  0
VERTEX
  8
1
  6
CONTINUOUS
 62
     7
 10
-178.6519250350336
 20
202.724841467734
  0
VERTEX
  8
1
  6
CONTINUOUS
 62
     7
 10
-178.6519284548289
 20
202.7248434647166
  0
VERTEX
  8
1
  6
CONTINUOUS
 62
     7
 10
-178.6519361965383
 20
202.7248479465808
  0
VERTEX
  8
1
  6
CONTINUOUS
 62
     7
 10
-178.651942462536
 20
202.724851573898
  0
VERTEX
  8
1
  6
CONTINUOUS
 62
     7
 10
-178.9016973745664
 20
202.869350070144
  0
VERTEX
  8
1
  6
CONTINUOUS
 62
     7
 10
-179.1449594488632
 20
203.0099444503341
  0
SEQEND
  8
1
  6
CONTINUOUS
 62
     7
  0
POLYLINE
  8
1
  6
CONTINUOUS
 62
     7
 66
     1
  0
VERTEX
  8
1
  6
CONTINUOUS
 62
     7
 10
-179.1774237723121
 20
200.4713723501145
  0
VERTEX
  8
1
  6
CONTINUOUS
 62
     7
 10
-178.8282371920808
 20
200.6731907390958
  0
VERTEX
  8
1
  6
CONTINUOUS
 62
     7
 10
-178.7367115117445
 20
200.7261493238571
  0
VERTEX
  8
1
  6
CONTINUOUS
 62
     7
 10
-178.690315925404
 20
200.7530042143651
  0
VERTEX
  8
1
  6
CONTINUOUS
 62
     7
 10
-178.666960083223
 20
200.766525559151
  0
VERTEX
  8
1
  6
CONTINUOUS
 62
     7
 10
-178.6552426674713
 20
200.7733097064269
  0
VERTEX
  8
1
  6
CONTINUOUS
 62
     7
 10
-178.6523092003664
 20
200.7750081885462
  0
VERTEX
  8
1
  6
CONTINUOUS
 62
     7
 10
-178.651575576539
 20
200.7754329619073
  0
VERTEX
  8
1
  6
CONTINUOUS
 62
     7
 10
-178.6515681375695
 20
200.775437278264
  0
VERTEX
  8
1
  6
CONTINUOUS
 62
     7
 10
-178.6515660022966
 20
200.7754385266845
  0
VERTEX
  8
1
  6
CONTINUOUS
 62
     7
 10
-178.6515621893282
 20
200.7754407560622
  0
VERTEX
  8
1
  6
CONTINUOUS
 62
     7
 10
-178.6393584130782
 20
200.7830251157933
  0
VERTEX
  8
1
  6
CONTINUOUS
 62
     7
 10
-178.6274519754054
 20
200.7913479795978
  0
VERTEX
  8
1
  6
CONTINUOUS
 62
     7
 10
-178.6158904126333
 20
200.8004030503189
  0
VERTEX
  8
1
  6
CONTINUOUS
 62
     7
 10
-178.6030770727338
 20
200.8117191701706
  0
VERTEX
  8
1
  6
CONTINUOUS
 62
     7
 10
-178.5908676001467
 20
200.8239777581597
  0
VERTEX
  8
1
  6
CONTINUOUS
 62
     7
 10
-178.5793474287193
 20
200.8371587994433
  0
VERTEX
  8
1
  6
CONTINUOUS
 62
     7
 10
-178.5686069046434
 20
200.8512382765262
  0
VERTEX
  8
1
  6
CONTINUOUS
 62
     7
 10
-178.5587414384923
 20
200.8661880141478
  0
VERTEX
  8
1
  6
CONTINUOUS
 62
     7
 10
-178.5498494712922
 20
200.8819742587938
  0
VERTEX
  8
1
  6
CONTINUOUS
 62
     7
 10
-178.5420111759093
 20
200.8985451316738
  0
VERTEX
  8
1
  6
CONTINUOUS
 62
     7
 10
-178.5352958901235
 20
200.9158346701439
  0
VERTEX
  8
1
  6
CONTINUOUS
 62
     7
 10
-178.5297752041491
 20
200.9337701293016
  0
VERTEX
  8
1
  6
CONTINUOUS
 62
     7
 10
-178.525523199517
 20
200.95227186056
  0
VERTEX
  8
1
  6
CONTINUOUS
 62
     7
 10
-178.5230042009049
 20
200.9680601499656
  0
VERTEX
  8
1
  6
CONTINUOUS
 62
     7
 10
-178.5214651267678
 20
200.9841274313208
  0
VERTEX
  8
1
  6
CONTINUOUS
 62
     7
 10
-178.5209529834525
 20
201.0004159404989
  0
VERTEX
  8
1
  6
CONTINUOUS
 62
     7
 10
-178.5215095278301
 20
201.0168641715481
  0
VERTEX
  8
1
  6
CONTINUOUS
 62
     7
 10
-178.5231542219925
 20
201.033406780283
  0
VERTEX
  8
1
  6
CONTINUOUS
 62
     7
 10
-178.5259009309284
 20
201.0499744868957
  0
VERTEX
  8
1
  6
CONTINUOUS
 62
     7
 10
-178.5297627357888
 20
201.0664939775895
  0
VERTEX
  8
1
  6
CONTINUOUS
 62
     7
 10
-178.5347519063242
 20
201.0828878052326
  0
VERTEX
  8
1
  6
CONTINUOUS
 62
     7
 10
-178.5408798730872
 20
201.0990742890343
  0
VERTEX
  8
1
  6
CONTINUOUS
 62
     7
 10
-178.5481571994059
 20
201.1149674132414
  0
VERTEX
  8
1
  6
CONTINUOUS
 62
     7
 10
-178.5565935342001
 20
201.130476735786
  0
VERTEX
  8
1
  6
CONTINUOUS
 62
     7
 10
-178.5661882786454
 20
201.1455126579031
  0
VERTEX
  8
1
  6
CONTINUOUS
 62
     7
 10
-178.5769147268106
 20
201.1599954621022
  0
VERTEX
  8
1
  6
CONTINUOUS
 62
     7
 10
-178.5887392681894
 20
201.1738441042684
  0
VERTEX
  8
1
  6
CONTINUOUS
 62
     7
 10
-178.6016251097471
 20
201.1869739426892
  0
VERTEX
  8
1
  6
CONTINUOUS
 62
     7
 10
-178.6155321990032
 20
201.1992966595961
  0
VERTEX
  8
1
  6
CONTINUOUS
 62
     7
 10
-178.6304171466442
 20
201.2107201819895
  0
VERTEX
  8
1
  6
CONTINUOUS
 62
     7
 10
-178.6462331486817
 20
201.2211486017483
  0
VERTEX
  8
1
  6
CONTINUOUS
 62
     7
 10
-178.6492982770823
 20
201.2229851095852
  0
VERTEX
  8
1
  6
CONTINUOUS
 62
     7
 10
-178.6494908681875
 20
201.223098598247
  0
VERTEX
  8
1
  6
CONTINUOUS
 62
     7
 10
-178.6495872085806
 20
201.2231552851699
  0
VERTEX
  8
1
  6
CONTINUOUS
 62
     7
 10
-178.6496353899826
 20
201.2231836142703
  0
VERTEX
  8
1
  6
CONTINUOUS
 62
     7
 10
-178.6496594834844
 20
201.2231977752291
  0
VERTEX
  8
1
  6
CONTINUOUS
 62
     7
 10
-178.6496628567237
 20
201.2231997575722
  0
VERTEX
  8
1
  6
CONTINUOUS
 62
     7
 10
-178.6496705794077
 20
201.2232042329951
  0
VERTEX
  8
1
  6
CONTINUOUS
 62
     7
 10
-178.6496768304998
 20
201.223207855251
  0
VERTEX
  8
1
  6
CONTINUOUS
 62
     7
 10
-178.8987896066183
 20
201.3674921474268
  0
VERTEX
  8
1
  6
CONTINUOUS
 62
     7
 10
-179.1450038457438
 20
201.5099795030246
  0
SEQEND
  8
1
  6
CONTINUOUS
 62
     7
  0
LINE
  8
1
  6
CONTINUOUS
 62
     7
 10
-178.5208145833334
 20
199.5000000001198
 11
-178.7174317611563
 21
199.7472249006181
  0
LINE
  8
1
  6
CONTINUOUS
 62
     7
 10
-178.7174317611563
 20
199.7472249006181
 11
-179.2922842329236
 21
200.056579798638
  0
POLYLINE
  8
1
  6
CONTINUOUS
 62
     7
 66
     1
  0
VERTEX
  8
1
  6
CONTINUOUS
 62
     7
 10
-197.4895837152146
 20
200.7785814959647
  0
VERTEX
  8
1
  6
CONTINUOUS
 62
     7
 10
-197.8387576450029
 20
200.576755706232
  0
VERTEX
  8
1
  6
CONTINUOUS
 62
     7
 10
-197.9302770460696
 20
200.523795411412
  0
VERTEX
  8
1
  6
CONTINUOUS
 62
     7
 10
-197.9766689888606
 20
200.4969396868941
  0
VERTEX
  8
1
  6
CONTINUOUS
 62
     7
 10
-198.0000228802086
 20
200.483417930358
  0
VERTEX
  8
1
  6
CONTINUOUS
 62
     7
 10
-198.0117392878867
 20
200.4766335785208
  0
VERTEX
  8
1
  6
CONTINUOUS
 62
     7
 10
-198.0146724995522
 20
200.474935045398
  0
VERTEX
  8
1
  6
CONTINUOUS
 62
     7
 10
-198.0154060593055
 20
200.4745102592946
  0
VERTEX
  8
1
  6
CONTINUOUS
 62
     7
 10
-198.0154134732429
 20
200.4745059562921
  0
VERTEX
  8
1
  6
CONTINUOUS
 62
     7
 10
-198.0154156072303
 20
200.4745047076754
  0
VERTEX
  8
1
  6
CONTINUOUS
 62
     7
 10
-198.0154194179031
 20
200.4745024779472
  0
VERTEX
  8
1
  6
CONTINUOUS
 62
     7
 10
-198.0276154506815
 20
200.4669169978433
  0
VERTEX
  8
1
  6
CONTINUOUS
 62
     7
 10
-198.0395135081501
 20
200.4585930407615
  0
VERTEX
  8
1
  6
CONTINUOUS
 62
     7
 10
-198.0510660466361
 20
200.4495369038592
  0
VERTEX
  8
1
  6
CONTINUOUS
 62
     7
 10
-198.0638682109303
 20
200.438219590548
  0
VERTEX
  8
1
  6
CONTINUOUS
 62
     7
 10
-198.0760656812093
 20
200.4259598449874
  0
VERTEX
  8
1
  6
CONTINUOUS
 62
     7
 10
-198.0875730449711
 20
200.4127776820208
  0
VERTEX
  8
1
  6
CONTINUOUS
 62
     7
 10
-198.0982999789894
 20
200.3986971191443
  0
VERTEX
  8
1
  6
CONTINUOUS
 62
     7
 10
-198.1081510973727
 20
200.3837463316192
  0
VERTEX
  8
1
  6
CONTINUOUS
 62
     7
 10
-198.1170279856414
 20
200.3679590729628
  0
VERTEX
  8
1
  6
CONTINUOUS
 62
     7
 10
-198.1248504998507
 20
200.3513872219717
  0
VERTEX
  8
1
  6
CONTINUOUS
 62
     7
 10
-198.1315493332669
 20
200.3340967412915
  0
VERTEX
  8
1
  6
CONTINUOUS
 62
     7
 10
-198.1370529285797
 20
200.3161603758258
  0
VERTEX
  8
1
  6
CONTINUOUS
 62
     7
 10
-198.1412872390621
 20
200.2976577741628
  0
VERTEX
  8
1
  6
CONTINUOUS
 62
     7
 10
-198.1437910580018
 20
200.281868786847
  0
VERTEX
  8
1
  6
CONTINUOUS
 62
     7
 10
-198.145314581173
 20
200.265800832516
  0
VERTEX
  8
1
  6
CONTINUOUS
 62
     7
 10
-198.1458108255108
 20
200.2495116752974
  0
VERTEX
  8
1
  6
CONTINUOUS
 62
     7
 10
-198.145238058468
 20
200.2330628211434
  0
VERTEX
  8
1
  6
CONTINUOUS
 62
     7
 10
-198.1435768433782
 20
200.2165196142404
  0
VERTEX
  8
1
  6
CONTINUOUS
 62
     7
 10
-198.1408133415
 20
200.1999513343968
  0
VERTEX
  8
1
  6
CONTINUOUS
 62
     7
 10
-198.1369344986795
 20
200.1834312954103
  0
VERTEX
  8
1
  6
CONTINUOUS
 62
     7
 10
-198.1319280728925
 20
200.1670369444132
  0
VERTEX
  8
1
  6
CONTINUOUS
 62
     7
 10
-198.1257826620164
 20
200.1508499621972
  0
VERTEX
  8
1
  6
CONTINUOUS
 62
     7
 10
-198.1184877318324
 20
200.1349563645161
  0
VERTEX
  8
1
  6
CONTINUOUS
 62
     7
 10
-198.1100336631796
 20
200.1194465934385
  0
VERTEX
  8
1
  6
CONTINUOUS
 62
     7
 10
-198.1004210852157
 20
200.1044102477256
  0
VERTEX
  8
1
  6
CONTINUOUS
 62
     7
 10
-198.0896767345276
 20
200.0899270448657
  0
VERTEX
  8
1
  6
CONTINUOUS
 62
     7
 10
-198.0778342525161
 20
200.0760780289741
  0
VERTEX
  8
1
  6
CONTINUOUS
 62
     7
 10
-198.0649304633035
 20
200.0629478417641
  0
VERTEX
  8
1
  6
CONTINUOUS
 62
     7
 10
-198.0510054505933
 20
200.0506248010049
  0
VERTEX
  8
1
  6
CONTINUOUS
 62
     7
 10
-198.0361026349987
 20
200.0392009796963
  0
VERTEX
  8
1
  6
CONTINUOUS
 62
     7
 10
-198.0202688518275
 20
200.0287722859603
  0
VERTEX
  8
1
  6
CONTINUOUS
 62
     7
 10
-198.0172004016703
 20
200.0269357295291
  0
VERTEX
  8
1
  6
CONTINUOUS
 62
     7
 10
-198.0170076030978
 20
200.0268222378592
  0
VERTEX
  8
1
  6
CONTINUOUS
 62
     7
 10
-198.0169111589775
 20
200.0267655494336
  0
VERTEX
  8
1
  6
CONTINUOUS
 62
     7
 10
-198.0168629257135
 20
200.0267372195822
  0
VERTEX
  8
1
  6
CONTINUOUS
 62
     7
 10
-198.0168388062811
 20
200.0267230582479
  0
VERTEX
  8
1
  6
CONTINUOUS
 62
     7
 10
-198.0168354294116
 20
200.0267210758522
  0
VERTEX
  8
1
  6
CONTINUOUS
 62
     7
 10
-198.0168276816859
 20
200.0267165868023
  0
VERTEX
  8
1
  6
CONTINUOUS
 62
     7
 10
-198.0168214294272
 20
200.0267129645281
  0
VERTEX
  8
1
  6
CONTINUOUS
 62
     7
 10
-197.7676643702544
 20
199.8824280531753
  0
VERTEX
  8
1
  6
CONTINUOUS
 62
     7
 10
-197.5216652000603
 20
199.7400873799273
  0
SEQEND
  8
1
  6
CONTINUOUS
 62
     7
  0
POLYLINE
  8
1
  6
CONTINUOUS
 62
     7
 66
     1
  0
VERTEX
  8
1
  6
CONTINUOUS
 62
     7
 10
-197.4904789331871
 20
202.2780602982152
  0
VERTEX
  8
1
  6
CONTINUOUS
 62
     7
 10
-197.9365800931033
 20
202.0200481104308
  0
VERTEX
  8
1
  6
CONTINUOUS
 62
     7
 10
-197.9922816750681
 20
201.9877965869577
  0
VERTEX
  8
1
  6
CONTINUOUS
 62
     7
 10
-198.0062047866697
 20
201.9797337060894
  0
VERTEX
  8
1
  6
CONTINUOUS
 62
     7
 10
-198.0131659962397
 20
201.9757022656553
  0
VERTEX
  8
1
  6
CONTINUOUS
 62
     7
 10
-198.0149062624543
 20
201.9746944055468
  0
VERTEX
  8
1
  6
CONTINUOUS
 62
     7
 10
-198.0153413267439
 20
201.9744424405197
  0
VERTEX
  8
1
  6
CONTINUOUS
 62
     7
 10
-198.0154500926748
 20
201.9743794492628
  0
VERTEX
  8
1
  6
CONTINUOUS
 62
     7
 10
-198.015504475619
 20
201.9743479536345
  0
VERTEX
  8
1
  6
CONTINUOUS
 62
     7
 10
-198.0155316670858
 20
201.9743322058202
  0
VERTEX
  8
1
  6
CONTINUOUS
 62
     7
 10
-198.0155401943291
 20
201.9743272673057
  0
VERTEX
  8
1
  6
CONTINUOUS
 62
     7
 10
-198.015544447597
 20
201.9743248004258
  0
VERTEX
  8
1
  6
CONTINUOUS
 62
     7
 10
-198.015546699293
 20
201.9743234819818
  0
VERTEX
  8
1
  6
CONTINUOUS
 62
     7
 10
-198.0323813883197
 20
201.9635937127414
  0
VERTEX
  8
1
  6
CONTINUOUS
 62
     7
 10
-198.0483404504291
 20
201.9516536973406
  0
VERTEX
  8
1
  6
CONTINUOUS
 62
     7
 10
-198.0633440610241
 20
201.9385828741314
  0
VERTEX
  8
1
  6
CONTINUOUS
 62
     7
 10
-198.0773124050741
 20
201.9244606814659
  0
VERTEX
  8
1
  6
CONTINUOUS
 62
     7
 10
-198.0898259119832
 20
201.9097963634194
  0
VERTEX
  8
1
  6
CONTINUOUS
 62
     7
 10
-198.1012118295794
 20
201.8942861580873
  0
VERTEX
  8
1
  6
CONTINUOUS
 62
     7
 10
-198.1113968346505
 20
201.8780030944484
  0
VERTEX
  8
1
  6
CONTINUOUS
 62
     7
 10
-198.1203167330068
 20
201.8610254588064
  0
VERTEX
  8
1
  6
CONTINUOUS
 62
     7
 10
-198.1279380761135
 20
201.8434492732913
  0
VERTEX
  8
1
  6
CONTINUOUS
 62
     7
 10
-198.134233921579
 20
201.8253742962182
  0
VERTEX
  8
1
  6
CONTINUOUS
 62
     7
 10
-198.1391773645277
 20
201.8069002859018
  0
VERTEX
  8
1
  6
CONTINUOUS
 62
     7
 10
-198.1427415389959
 20
201.788127000657
  0
VERTEX
  8
1
  6
CONTINUOUS
 62
     7
 10
-198.1448996193258
 20
201.7691541987987
  0
VERTEX
  8
1
  6
CONTINUOUS
 62
     7
 10
-198.1456248215597
 20
201.7500816386418
  0
VERTEX
  8
1
  6
CONTINUOUS
 62
     7
 10
-198.1448993146611
 20
201.731009078501
  0
VERTEX
  8
1
  6
CONTINUOUS
 62
     7
 10
-198.142740950809
 20
201.7120362766915
  0
VERTEX
  8
1
  6
CONTINUOUS
 62
     7
 10
-198.1391765350625
 20
201.6932629915279
  0
VERTEX
  8
1
  6
CONTINUOUS
 62
     7
 10
-198.1342329141194
 20
201.6747889813252
  0
VERTEX
  8
1
  6
CONTINUOUS
 62
     7
 10
-198.1279369748952
 20
201.6567140043982
  0
VERTEX
  8
1
  6
CONTINUOUS
 62
     7
 10
-198.1203156431026
 20
201.6391378190618
  0
VERTEX
  8
1
  6
CONTINUOUS
 62
     7
 10
-198.1113958818308
 20
201.6221601836309
  0
VERTEX
  8
1
  6
CONTINUOUS
 62
     7
 10
-198.1012111601547
 20
201.6058771202316
  0
VERTEX
  8
1
  6
CONTINUOUS
 62
     7
 10
-198.0898256926205
 20
201.5903669151631
  0
VERTEX
  8
1
  6
CONTINUOUS
 62
     7
 10
-198.0773128225916
 20
201.575702597404
  0
VERTEX
  8
1
  6
CONTINUOUS
 62
     7
 10
-198.0660771492871
 20
201.564181182729
  0
VERTEX
  8
1
  6
CONTINUOUS
 62
     7
 10
-198.0541519704499
 20
201.5533401654569
  0
VERTEX
  8
1
  6
CONTINUOUS
 62
     7
 10
-198.0415797576853
 20
201.5432218072515
  0
VERTEX
  8
1
  6
CONTINUOUS
 62
     7
 10
-198.0317515341397
 20
201.536132706642
  0
VERTEX
  8
1
  6
CONTINUOUS
 62
     7
 10
-198.0216011678498
 20
201.5294917030827
  0
VERTEX
  8
1
  6
CONTINUOUS
 62
     7
 10
-198.0164107816621
 20
201.5263448093029
  0
VERTEX
  8
1
  6
CONTINUOUS
 62
     7
 10
-198.0157567473252
 20
201.5259597486861
  0
VERTEX
  8
1
  6
CONTINUOUS
 62
     7
 10
-198.0155930590412
 20
201.5258637738618
  0
VERTEX
  8
1
  6
CONTINUOUS
 62
     7
 10
-198.0155521257577
 20
201.5258397983199
  0
VERTEX
  8
1
  6
CONTINUOUS
 62
     7
 10
-198.0155490345444
 20
201.5258379899159
  0
VERTEX
  8
1
  6
CONTINUOUS
 62
     7
 10
-198.0155370705301
 20
201.5258310608776
  0
VERTEX
  8
1
  6
CONTINUOUS
 62
     7
 10
-197.9365871175179
 20
201.4801151562671
  0
VERTEX
  8
1
  6
CONTINUOUS
 62
     7
 10
-197.5213590567895
 20
201.2399370135676
  0
SEQEND
  8
1
  6
CONTINUOUS
 62
     7
  0
POLYLINE
  8
1
  6
CONTINUOUS
 62
     7
 66
     1
  0
VERTEX
  8
1
  6
CONTINUOUS
 62
     7
 10
-197.4929315307223
 20
203.7764454039034
  0
VERTEX
  8
1
  6
CONTINUOUS
 62
     7
 10
-197.8407401998083
 20
203.5751163319064
  0
VERTEX
  8
1
  6
CONTINUOUS
 62
     7
 10
-197.9319826521284
 20
203.5222582008771
  0
VERTEX
  8
1
  6
CONTINUOUS
 62
     7
 10
-197.9782449554796
 20
203.495450255908
  0
VERTEX
  8
1
  6
CONTINUOUS
 62
     7
 10
-198.0015361615456
 20
203.4819515635598
  0
VERTEX
  8
1
  6
CONTINUOUS
 62
     7
 10
-198.013221750509
 20
203.4751785374198
  0
VERTEX
  8
1
  6
CONTINUOUS
 62
     7
 10
-198.0161473115939
 20
203.4734828142217
  0
VERTEX
  8
1
  6
CONTINUOUS
 62
     7
 10
-198.0168789620708
 20
203.4730587292557
  0
VERTEX
  8
1
  6
CONTINUOUS
 62
     7
 10
-198.0168863375404
 20
203.4730544399901
  0
VERTEX
  8
1
  6
CONTINUOUS
 62
     7
 10
-198.0168884407418
 20
203.4730532021665
  0
VERTEX
  8
1
  6
CONTINUOUS
 62
     7
 10
-198.0168921964407
 20
203.4730509917115
  0
VERTEX
  8
1
  6
CONTINUOUS
 62
     7
 10
-198.0289164782968
 20
203.4655257435928
  0
VERTEX
  8
1
  6
CONTINUOUS
 62
     7
 10
-198.0406545825593
 20
203.4572577630207
  0
VERTEX
  8
1
  6
CONTINUOUS
 62
     7
 10
-198.052058281717
 20
203.4482533471526
  0
VERTEX
  8
1
  6
CONTINUOUS
 62
     7
 10
-198.0647019785115
 20
203.4369902893513
  0
VERTEX
  8
1
  6
CONTINUOUS
 62
     7
 10
-198.0767536114375
 20
203.4247791632957
  0
VERTEX
  8
1
  6
CONTINUOUS
 62
     7
 10
-198.088126590551
 20
203.4116399838296
  0
VERTEX
  8
1
  6
CONTINUOUS
 62
     7
 10
-198.098729376711
 20
203.3975967684488
  0
VERTEX
  8
1
  6
CONTINUOUS
 62
     7
 10
-198.10846532968
 20
203.3826776924149
  0
VERTEX
  8
1
  6
CONTINUOUS
 62
     7
 10
-198.1172347425029
 20
203.3669165092449
  0
VERTEX
  8
1
  6
CONTINUOUS
 62
     7
 10
-198.124956141246
 20
203.3503650977356
  0
VERTEX
  8
1
  6
CONTINUOUS
 62
     7
 10
-198.1315588512934
 20
203.3330894205325
  0
VERTEX
  8
1
  6
CONTINUOUS
 62
     7
 10
-198.1369699100823
 20
203.3151622225393
  0
VERTEX
  8
1
  6
CONTINUOUS
 62
     7
 10
-198.1411138296055
 20
203.296663152344
  0
VERTEX
  8
1
  6
CONTINUOUS
 62
     7
 10
-198.1435428980676
 20
203.2808728026368
  0
VERTEX
  8
1
  6
CONTINUOUS
 62
     7
 10
-198.1449912651817
 20
203.2647995720221
  0
VERTEX
  8
1
  6
CONTINUOUS
 62
     7
 10
-198.1454110617236
 20
203.2485012246277
  0
VERTEX
  8
1
  6
CONTINUOUS
 62
     7
 10
-198.1447596548294
 20
203.2320392664058
  0
VERTEX
  8
1
  6
CONTINUOUS
 62
     7
 10
-198.1430166932095
 20
203.2154790415427
  0
VERTEX
  8
1
  6
CONTINUOUS
 62
     7
 10
-198.140167410449
 20
203.1988898298469
  0
VERTEX
  8
1
  6
CONTINUOUS
 62
     7
 10
-198.1361978128978
 20
203.1823449451161
  0
VERTEX
  8
1
  6
CONTINUOUS
 62
     7
 10
-198.1310947083229
 20
203.1659218344826
  0
VERTEX
  8
1
  6
CONTINUOUS
 62
     7
 10
-198.1248457348365
 20
203.149702178738
  0
VERTEX
  8
1
  6
CONTINUOUS
 62
     7
 10
-198.1174393900923
 20
203.1337719936362
  0
VERTEX
  8
1
  6
CONTINUOUS
 62
     7
 10
-198.1088650796708
 20
203.1182217212458
  0
VERTEX
  8
1
  6
CONTINUOUS
 62
     7
 10
-198.0991224503691
 20
203.1031409603279
  0
VERTEX
  8
1
  6
CONTINUOUS
 62
     7
 10
-198.0882372475942
 20
203.0886094283709
  0
VERTEX
  8
1
  6
CONTINUOUS
 62
     7
 10
-198.0762421151067
 20
203.0747081694901
  0
VERTEX
  8
1
  6
CONTINUOUS
 62
     7
 10
-198.0631728739612
 20
203.0615218253987
  0
VERTEX
  8
1
  6
CONTINUOUS
 62
     7
 10
-198.0490685998737
 20
203.049138713866
  0
VERTEX
  8
1
  6
CONTINUOUS
 62
     7
 10
-198.0339717009184
 20
203.0376509078918
  0
VERTEX
  8
1
  6
CONTINUOUS
 62
     7
 10
-198.0179279955275
 20
203.0271543155981
  0
VERTEX
  8
1
  6
CONTINUOUS
 62
     7
 10
-198.0148183388199
 20
203.0253045924609
  0
VERTEX
  8
1
  6
CONTINUOUS
 62
     7
 10
-198.0146229450038
 20
203.0251902733033
  0
VERTEX
  8
1
  6
CONTINUOUS
 62
     7
 10
-198.014525202383
 20
203.0251331709323
  0
VERTEX
  8
1
  6
CONTINUOUS
 62
     7
 10
-198.014476319649
 20
203.0251046340577
  0
VERTEX
  8
1
  6
CONTINUOUS
 62
     7
 10
-198.0144518754267
 20
203.0250903691993
  0
VERTEX
  8
1
  6
CONTINUOUS
 62
     7
 10
-198.0144484530837
 20
203.0250883723095
  0
VERTEX
  8
1
  6
CONTINUOUS
 62
     7
 10
-198.014440686893
 20
203.0250838768822
  0
VERTEX
  8
1
  6
CONTINUOUS
 62
     7
 10
-198.0144344201666
 20
203.0250802495972
  0
VERTEX
  8
1
  6
CONTINUOUS
 62
     7
 10
-197.7646523463713
 20
202.8805829037871
  0
VERTEX
  8
1
  6
CONTINUOUS
 62
     7
 10
-197.5217104658579
 20
202.7401875732397
  0
SEQEND
  8
1
  6
CONTINUOUS
 62
     7
  0
POLYLINE
  8
1
  6
CONTINUOUS
 62
     7
 66
     1
  0
VERTEX
  8
1
  6
CONTINUOUS
 62
     7
 10
-197.4890414396439
 20
205.2786816378535
  0
VERTEX
  8
1
  6
CONTINUOUS
 62
     7
 10
-197.8381951206376
 20
205.0768692226856
  0
VERTEX
  8
1
  6
CONTINUOUS
 62
     7
 10
-197.9297137465554
 20
205.0239118336837
  0
VERTEX
  8
1
  6
CONTINUOUS
 62
     7
 10
-197.9761059807201
 20
204.9970574964013
  0
VERTEX
  8
1
  6
CONTINUOUS
 62
     7
 10
-197.9994601905444
 20
204.9835364170647
  0
VERTEX
  8
1
  6
CONTINUOUS
 62
     7
 10
-198.0111768010477
 20
204.9767523997226
  0
VERTEX
  8
1
  6
CONTINUOUS
 62
     7
 10
-198.014110067979
 20
204.975053949796
  0
VERTEX
  8
1
  6
CONTINUOUS
 62
     7
 10
-198.0148436418341
 20
204.9746291844649
  0
VERTEX
  8
1
  6
CONTINUOUS
 62
     7
 10
-198.0148510564537
 20
204.9746248818695
  0
VERTEX
  8
1
  6
CONTINUOUS
 62
     7
 10
-198.0148531911914
 20
204.9746236335725
  0
VERTEX
  8
1
  6
CONTINUOUS
 62
     7
 10
-198.0148570032043
 20
204.9746214044154
  0
VERTEX
  8
1
  6
CONTINUOUS
 62
     7
 10
-198.0270578286
 20
204.9670377297672
  0
VERTEX
  8
1
  6
CONTINUOUS
 62
     7
 10
-198.0389615956236
 20
204.9587154935128
  0
VERTEX
  8
1
  6
CONTINUOUS
 62
     7
 10
-198.0505207653028
 20
204.9496609928096
  0
VERTEX
  8
1
  6
CONTINUOUS
 62
     7
 10
-198.0633316913111
 20
204.9383454577497
  0
VERTEX
  8
1
  6
CONTINUOUS
 62
     7
 10
-198.0755391103472
 20
204.9260873783576
  0
VERTEX
  8
1
  6
CONTINUOUS
 62
     7
 10
-198.0870575848178
 20
204.9129067694768
  0
VERTEX
  8
1
  6
CONTINUOUS
 62
     7
 10
-198.097796764866
 20
204.8988276486033
  0
VERTEX
  8
1
  6
CONTINUOUS
 62
     7
 10
-198.1076612363204
 20
204.8838781909986
  0
VERTEX
  8
1
  6
CONTINUOUS
 62
     7
 10
-198.1165525545528
 20
204.8680921501798
  0
VERTEX
  8
1
  6
CONTINUOUS
 62
     7
 10
-198.1243905424982
 20
204.8515214049436
  0
VERTEX
  8
1
  6
CONTINUOUS
 62
     7
 10
-198.1311058577483
 20
204.8342319179356
  0
VERTEX
  8
1
  6
CONTINUOUS
 62
     7
 10
-198.1366269053819
 20
204.8162964340594
  0
VERTEX
  8
1
  6
CONTINUOUS
 62
     7
 10
-198.1408795990802
 20
204.7977946019031
  0
VERTEX
  8
1
  6
CONTINUOUS
 62
     7
 10
-198.1433994185008
 20
204.7820061702242
  0
VERTEX
  8
1
  6
CONTINUOUS
 62
     7
 10
-198.1449395345527
 20
204.7659386936949
  0
VERTEX
  8
1
  6
CONTINUOUS
 62
     7
 10
-198.145452937964
 20
204.7496499364427
  0
VERTEX
  8
1
  6
CONTINUOUS
 62
     7
 10
-198.1448978687176
 20
204.7332014044199
  0
VERTEX
  8
1
  6
CONTINUOUS
 62
     7
 10
-198.1432548609006
 20
204.7166584418129
  0
VERTEX
  8
1
  6
CONTINUOUS
 62
     7
 10
-198.1405100454774
 20
204.7000903284301
  0
VERTEX
  8
1
  6
CONTINUOUS
 62
     7
 10
-198.1366503371622
 20
204.6835703780692
  0
VERTEX
  8
1
  6
CONTINUOUS
 62
     7
 10
-198.1316634619852
 20
204.6671760378625
  0
VERTEX
  8
1
  6
CONTINUOUS
 62
     7
 10
-198.1255379850936
 20
204.6509889886015
  0
VERTEX
  8
1
  6
CONTINUOUS
 62
     7
 10
-198.1182633387822
 20
204.6350952460403
  0
VERTEX
  8
1
  6
CONTINUOUS
 62
     7
 10
-198.1098298696806
 20
204.6195852522475
  0
VERTEX
  8
1
  6
CONTINUOUS
 62
     7
 10
-198.1002381718731
 20
204.604548605984
  0
VERTEX
  8
1
  6
CONTINUOUS
 62
     7
 10
-198.0895149458832
 20
204.5900650247383
  0
VERTEX
  8
1
  6
CONTINUOUS
 62
     7
 10
-198.0776937966488
 20
204.5762155526257
  0
VERTEX
  8
1
  6
CONTINUOUS
 62
     7
 10
-198.0648115115877
 20
204.5630848313595
  0
VERTEX
  8
1
  6
CONTINUOUS
 62
     7
 10
-198.0509081375293
 20
204.5507611787089
  0
VERTEX
  8
1
  6
CONTINUOUS
 62
     7
 10
-198.0360270581156
 20
204.5393366676736
  0
VERTEX
  8
1
  6
CONTINUOUS
 62
     7
 10
-198.0202150716579
 20
204.5289072063758
  0
VERTEX
  8
1
  6
CONTINUOUS
 62
     7
 10
-198.0171507121226
 20
204.5270704973614
  0
VERTEX
  8
1
  6
CONTINUOUS
 62
     7
 10
-198.016958169236
 20
204.5269569960643
  0
VERTEX
  8
1
  6
CONTINUOUS
 62
     7
 10
-198.0168618529594
 20
204.526900302821
  0
VERTEX
  8
1
  6
CONTINUOUS
 62
     7
 10
-198.0168136836175
 20
204.5268719705598
  0
VERTEX
  8
1
  6
CONTINUOUS
 62
     7
 10
-198.0167895961462
 20
204.5268578080203
  0
VERTEX
  8
1
  6
CONTINUOUS
 62
     7
 10
-198.0167862237513
 20
204.5268558254559
  0
VERTEX
  8
1
  6
CONTINUOUS
 62
     7
 10
-198.0167784780261
 20
204.5268513363318
  0
VERTEX
  8
1
  6
CONTINUOUS
 62
     7
 10
-198.0167722273401
 20
204.5268477139992
  0
VERTEX
  8
1
  6
CONTINUOUS
 62
     7
 10
-197.7676757331513
 20
204.3825602038939
  0
VERTEX
  8
1
  6
CONTINUOUS
 62
     7
 10
-197.5216647129876
 20
204.2401775664862
  0
SEQEND
  8
1
  6
CONTINUOUS
 62
     7
  0
POLYLINE
  8
1
  6
CONTINUOUS
 62
     7
 66
     1
  0
VERTEX
  8
1
  6
CONTINUOUS
 62
     7
 10
-197.490499354422
 20
206.7778970148609
  0
VERTEX
  8
1
  6
CONTINUOUS
 62
     7
 10
-197.936587146338
 20
206.5198848270765
  0
VERTEX
  8
1
  6
CONTINUOUS
 62
     7
 10
-197.9922875631053
 20
206.4876333036034
  0
VERTEX
  8
1
  6
CONTINUOUS
 62
     7
 10
-198.0062103996323
 20
206.4795704227352
  0
VERTEX
  8
1
  6
CONTINUOUS
 62
     7
 10
-198.0131714740659
 20
206.475538982301
  0
VERTEX
  8
1
  6
CONTINUOUS
 62
     7
 10
-198.0149117067455
 20
206.4745311221925
  0
VERTEX
  8
1
  6
CONTINUOUS
 62
     7
 10
-198.0153467626669
 20
206.4742791571654
  0
VERTEX
  8
1
  6
CONTINUOUS
 62
     7
 10
-198.0154555265067
 20
206.4742161659086
  0
VERTEX
  8
1
  6
CONTINUOUS
 62
     7
 10
-198.0155099084055
 20
206.4741846702802
  0
VERTEX
  8
1
  6
CONTINUOUS
 62
     7
 10
-198.0155370993497
 20
206.474168922466
  0
VERTEX
  8
1
  6
CONTINUOUS
 62
     7
 10
-198.015545626429
 20
206.4741639839515
  0
VERTEX
  8
1
  6
CONTINUOUS
 62
     7
 10
-198.0155498795668
 20
206.4741615170716
  0
VERTEX
  8
1
  6
CONTINUOUS
 62
     7
 10
-198.0155521310274
 20
206.4741601986275
  0
VERTEX
  8
1
  6
CONTINUOUS
 62
     7
 10
-198.0323851650946
 20
206.4634304293871
  0
VERTEX
  8
1
  6
CONTINUOUS
 62
     7
 10
-198.0483428545546
 20
206.4514904139863
  0
VERTEX
  8
1
  6
CONTINUOUS
 62
     7
 10
-198.0633453538405
 20
206.4384195907771
  0
VERTEX
  8
1
  6
CONTINUOUS
 62
     7
 10
-198.0773128267061
 20
206.4242973981116
  0
VERTEX
  8
1
  6
CONTINUOUS
 62
     7
 10
-198.0898256963933
 20
206.4096330800651
  0
VERTEX
  8
1
  6
CONTINUOUS
 62
     7
 10
-198.1012111635618
 20
206.3941228747331
  0
VERTEX
  8
1
  6
CONTINUOUS
 62
     7
 10
-198.1113958848485
 20
206.3778398110941
  0
VERTEX
  8
1
  6
CONTINUOUS
 62
     7
 10
-198.1203156457154
 20
206.3608621754521
  0
VERTEX
  8
1
  6
CONTINUOUS
 62
     7
 10
-198.1279369770944
 20
206.3432859899371
  0
VERTEX
  8
1
  6
CONTINUOUS
 62
     7
 10
-198.1342329158961
 20
206.325211012864
  0
VERTEX
  8
1
  6
CONTINUOUS
 62
     7
 10
-198.1391765364081
 20
206.3067370025475
  0
VERTEX
  8
1
  6
CONTINUOUS
 62
     7
 10
-198.1427409517148
 20
206.2879637173028
  0
VERTEX
  8
1
  6
CONTINUOUS
 62
     7
 10
-198.1448993151184
 20
206.2689909154444
  0
VERTEX
  8
1
  6
CONTINUOUS
 62
     7
 10
-198.1456248215597
 20
206.2499183552875
  0
VERTEX
  8
1
  6
CONTINUOUS
 62
     7
 10
-198.1448996188685
 20
206.2308457951468
  0
VERTEX
  8
1
  6
CONTINUOUS
 62
     7
 10
-198.1427415380901
 20
206.2118729933372
  0
VERTEX
  8
1
  6
CONTINUOUS
 62
     7
 10
-198.139177363182
 20
206.1930997081736
  0
VERTEX
  8
1
  6
CONTINUOUS
 62
     7
 10
-198.1342339198022
 20
206.1746256979709
  0
VERTEX
  8
1
  6
CONTINUOUS
 62
     7
 10
-198.1279380739144
 20
206.1565507210439
  0
VERTEX
  8
1
  6
CONTINUOUS
 62
     7
 10
-198.120316730394
 20
206.1389745357075
  0
VERTEX
  8
1
  6
CONTINUOUS
 62
     7
 10
-198.1113968316329
 20
206.1219969002767
  0
VERTEX
  8
1
  6
CONTINUOUS
 62
     7
 10
-198.1012118261723
 20
206.1057138368774
  0
VERTEX
  8
1
  6
CONTINUOUS
 62
     7
 10
-198.0898259082105
 20
206.0902036318089
  0
VERTEX
  8
1
  6
CONTINUOUS
 62
     7
 10
-198.0773124009596
 20
206.0755393140497
  0
VERTEX
  8
1
  6
CONTINUOUS
 62
     7
 10
-198.0660760395513
 20
206.0640178993748
  0
VERTEX
  8
1
  6
CONTINUOUS
 62
     7
 10
-198.054150017609
 20
206.0531768821027
  0
VERTEX
  8
1
  6
CONTINUOUS
 62
     7
 10
-198.041576795414
 20
206.0430585238972
  0
VERTEX
  8
1
  6
CONTINUOUS
 62
     7
 10
-198.0317476988925
 20
206.0359694232877
  0
VERTEX
  8
1
  6
CONTINUOUS
 62
     7
 10
-198.0215963550628
 20
206.0293284197284
  0
VERTEX
  8
1
  6
CONTINUOUS
 62
     7
 10
-198.0164054394361
 20
206.0261815259487
  0
VERTEX
  8
1
  6
CONTINUOUS
 62
     7
 10
-198.0157513369705
 20
206.0257964653319
  0
VERTEX
  8
1
  6
CONTINUOUS
 62
     7
 10
-198.0155876315861
 20
206.0257004905075
  0
VERTEX
  8
1
  6
CONTINUOUS
 62
     7
 10
-198.0155466940232
 20
206.0256765149657
  0
VERTEX
  8
1
  6
CONTINUOUS
 62
     7
 10
-198.0155436025104
 20
206.0256747065616
  0
VERTEX
  8
1
  6
CONTINUOUS
 62
     7
 10
-198.0155316382661
 20
206.0256677775234
  0
VERTEX
  8
1
  6
CONTINUOUS
 62
     7
 10
-197.9365800642832
 20
205.9799518729129
  0
VERTEX
  8
1
  6
CONTINUOUS
 62
     7
 10
-197.521359318145
 20
205.739785006853
  0
SEQEND
  8
1
  6
CONTINUOUS
 62
     7
  0
POLYLINE
  8
1
  6
CONTINUOUS
 62
     7
 66
     1
  0
VERTEX
  8
1
  6
CONTINUOUS
 62
     7
 10
-197.4928586279927
 20
208.276574084408
  0
VERTEX
  8
1
  6
CONTINUOUS
 62
     7
 10
-197.8407470998381
 20
208.0752504899753
  0
VERTEX
  8
1
  6
CONTINUOUS
 62
     7
 10
-197.9320126437275
 20
208.0223933245473
  0
VERTEX
  8
1
  6
CONTINUOUS
 62
     7
 10
-197.978286945066
 20
207.9955858018103
  0
VERTEX
  8
1
  6
CONTINUOUS
 62
     7
 10
-198.0015842611486
 20
207.9820873054361
  0
VERTEX
  8
1
  6
CONTINUOUS
 62
     7
 10
-198.0132729325994
 20
207.9753143734975
  0
VERTEX
  8
1
  6
CONTINUOUS
 62
     7
 10
-198.0161992671545
 20
207.9736186734555
  0
VERTEX
  8
1
  6
CONTINUOUS
 62
     7
 10
-198.0169311111767
 20
207.9731945942538
  0
VERTEX
  8
1
  6
CONTINUOUS
 62
     7
 10
-198.016938490403
 20
207.9731903051012
  0
VERTEX
  8
1
  6
CONTINUOUS
 62
     7
 10
-198.0169405965362
 20
207.9731890673663
  0
VERTEX
  8
1
  6
CONTINUOUS
 62
     7
 10
-198.0169443574705
 20
207.9731868570696
  0
VERTEX
  8
1
  6
CONTINUOUS
 62
     7
 10
-198.0289857608425
 20
207.9656620823409
  0
VERTEX
  8
1
  6
CONTINUOUS
 62
     7
 10
-198.0407413318192
 20
207.9573944971089
  0
VERTEX
  8
1
  6
CONTINUOUS
 62
     7
 10
-198.0521628143746
 20
207.948390398531
  0
VERTEX
  8
1
  6
CONTINUOUS
 62
     7
 10
-198.0648273291735
 20
207.9371276092811
  0
VERTEX
  8
1
  6
CONTINUOUS
 62
     7
 10
-198.0769001096243
 20
207.9249166484067
  0
VERTEX
  8
1
  6
CONTINUOUS
 62
     7
 10
-198.0882945126643
 20
207.9117775307517
  0
VERTEX
  8
1
  6
CONTINUOUS
 62
     7
 10
-198.0989189423501
 20
207.8977342738117
  0
VERTEX
  8
1
  6
CONTINUOUS
 62
     7
 10
-198.1086766978405
 20
207.8828150528484
  0
VERTEX
  8
1
  6
CONTINUOUS
 62
     7
 10
-198.1174680077175
 20
207.8670536213788
  0
VERTEX
  8
1
  6
CONTINUOUS
 62
     7
 10
-198.1252113302088
 20
207.8505018581998
  0
VERTEX
  8
1
  6
CONTINUOUS
 62
     7
 10
-198.1318359194512
 20
207.8332257259567
  0
VERTEX
  8
1
  6
CONTINUOUS
 62
     7
 10
-198.1372687379357
 20
207.8152979695534
  0
VERTEX
  8
1
  6
CONTINUOUS
 62
     7
 10
-198.1414342189761
 20
207.7967982375778
  0
VERTEX
  8
1
  6
CONTINUOUS
 62
     7
 10
-198.1438810446298
 20
207.7810072574236
  0
VERTEX
  8
1
  6
CONTINUOUS
 62
     7
 10
-198.1453469244492
 20
207.7649333245772
  0
VERTEX
  8
1
  6
CONTINUOUS
 62
     7
 10
-198.1457839377196
 20
207.7486342031661
  0
VERTEX
  8
1
  6
CONTINUOUS
 62
     7
 10
-198.1451493985564
 20
207.7321713991427
  0
VERTEX
  8
1
  6
CONTINUOUS
 62
     7
 10
-198.1434229018999
 20
207.7156102566933
  0
VERTEX
  8
1
  6
CONTINUOUS
 62
     7
 10
-198.140589626315
 20
207.6990200556264
  0
VERTEX
  8
1
  6
CONTINUOUS
 62
     7
 10
-198.1366355217411
 20
207.6824741097396
  0
VERTEX
  8
1
  6
CONTINUOUS
 62
     7
 10
-198.1315473381846
 20
207.6660498661652
  0
VERTEX
  8
1
  6
CONTINUOUS
 62
     7
 10
-198.1253126546896
 20
207.6498290056948
  0
VERTEX
  8
1
  6
CONTINUOUS
 62
     7
 10
-198.1179199085803
 20
207.6338975440824
  0
VERTEX
  8
1
  6
CONTINUOUS
 62
     7
 10
-198.1093584438974
 20
207.6183459233966
  0
VERTEX
  8
1
  6
CONTINUOUS
 62
     7
 10
-198.0996278452217
 20
207.6032637423984
  0
VERTEX
  8
1
  6
CONTINUOUS
 62
     7
 10
-198.0887537960189
 20
207.5887307185762
  0
VERTEX
  8
1
  6
CONTINUOUS
 62
     7
 10
-198.0767688775336
 20
207.5748278960455
  0
VERTEX
  8
1
  6
CONTINUOUS
 62
     7
 10
-198.0637088475833
 20
207.5616399165193
  0
VERTEX
  8
1
  6
CONTINUOUS
 62
     7
 10
-198.0496127179865
 20
207.5492550977668
  0
VERTEX
  8
1
  6
CONTINUOUS
 62
     7
 10
-198.0345228423638
 20
207.5377655127881
  0
VERTEX
  8
1
  6
CONTINUOUS
 62
     7
 10
-198.0184850101141
 20
207.527267069705
  0
VERTEX
  8
1
  6
CONTINUOUS
 62
     7
 10
-198.0153763246279
 20
207.5254169915532
  0
VERTEX
  8
1
  6
CONTINUOUS
 62
     7
 10
-198.0151809901393
 20
207.5253026501234
  0
VERTEX
  8
1
  6
CONTINUOUS
 62
     7
 10
-198.0150832771217
 20
207.5252455366125
  0
VERTEX
  8
1
  6
CONTINUOUS
 62
     7
 10
-198.0150344091741
 20
207.5252169941671
  0
VERTEX
  8
1
  6
CONTINUOUS
 62
     7
 10
-198.0150099723411
 20
207.525202726523
  0
VERTEX
  8
1
  6
CONTINUOUS
 62
     7
 10
-198.0150065510324
 20
207.5252007292433
  0
VERTEX
  8
1
  6
CONTINUOUS
 62
     7
 10
-198.0149987849359
 20
207.5251962336444
  0
VERTEX
  8
1
  6
CONTINUOUS
 62
     7
 10
-198.014992518274
 20
207.5251926062245
  0
VERTEX
  8
1
  6
CONTINUOUS
 62
     7
 10
-197.7652080687186
 20
207.3806896748167
  0
VERTEX
  8
1
  6
CONTINUOUS
 62
     7
 10
-197.5217055118638
 20
207.239971196482
  0
SEQEND
  8
1
  6
CONTINUOUS
 62
     7
  0
LINE
  8
1
  6
CONTINUOUS
 62
     7
 10
-179.0178333333334
 20
226.2039642098665
 11
-179.0178333333334
 21
227.0
  0
LINE
  8
1
  6
CONTINUOUS
 62
     7
 10
-179.0178333333334
 20
224.3896132378015
 11
-179.0178333333334
 21
224.7960357901335
  0
LINE
  8
1
  6
CONTINUOUS
 62
     7
 10
-179.0178333333334
 20
222.5752482408741
 11
-179.0178333333334
 21
222.9818118275941
  0
LINE
  8
1
  6
CONTINUOUS
 62
     7
 10
-179.0178333333334
 20
220.7609199279955
 11
-179.0178333333334
 21
221.1676180200143
  0
LINE
  8
1
  6
CONTINUOUS
 62
     7
 10
-179.0178333333334
 20
218.9466669991507
 11
-179.0178333333334
 21
219.3533654245455
  0
LINE
  8
1
  6
CONTINUOUS
 62
     7
 10
-179.0178333333334
 20
217.1324739540052
 11
-179.0178333333334
 21
217.5390379068947
  0
LINE
  8
1
  6
CONTINUOUS
 62
     7
 10
-179.0178333333334
 20
215.3182499241522
 11
-179.0178333333334
 21
215.7246714904527
  0
LINE
  8
1
  6
CONTINUOUS
 62
     7
 10
-179.0178333333334
 20
212.5
 11
-179.0178333333334
 21
213.9103215044192
  0
LINE
  8
1
  6
CONTINUOUS
 62
     7
 10
-197.6488333333334
 20
214.817511200399
 11
-197.6488333333334
 21
212.5000000000001
  0
LINE
  8
1
  6
CONTINUOUS
 62
     7
 10
-197.6488333333334
 20
216.6318559261566
 11
-197.6488333333334
 21
216.2253474278813
  0
LINE
  8
1
  6
CONTINUOUS
 62
     7
 10
-197.6488333333334
 20
218.446222796544
 11
-197.6488333333334
 21
218.0395740998032
  0
LINE
  8
1
  6
CONTINUOUS
 62
     7
 10
-197.6488333333334
 20
220.2605042370726
 11
-197.6488333333334
 21
219.8537805528331
  0
LINE
  8
1
  6
CONTINUOUS
 62
     7
 10
-197.6488333333334
 20
222.0747117684919
 11
-197.6488333333334
 21
221.6680613517263
  0
LINE
  8
1
  6
CONTINUOUS
 62
     7
 10
-197.6488333333334
 20
223.8889405346297
 11
-197.6488333333334
 21
223.4824294667842
  0
LINE
  8
1
  6
CONTINUOUS
 62
     7
 10
-197.6488333333334
 20
227.0
 11
-197.6488333333334
 21
225.2967765621937
  0
LINE
  8
1
  6
CONTINUOUS
 62
     7
 10
-179.1453333333334
 20
209.0049036357239
 11
-179.1453333333334
 21
209.5
  0
LINE
  8
1
  6
CONTINUOUS
 62
     7
 10
-179.1453333333334
 20
207.5048361734843
 11
-179.1453333333334
 21
207.9950963642762
  0
LINE
  8
1
  6
CONTINUOUS
 62
     7
 10
-179.1453333333334
 20
206.0047410763796
 11
-179.1453333333334
 21
206.4898389357074
  0
LINE
  8
1
  6
CONTINUOUS
 62
     7
 10
-179.1453333333334
 20
204.5046911987466
 11
-179.1453333333334
 21
204.9898533735076
  0
LINE
  8
1
  6
CONTINUOUS
 62
     7
 10
-179.1453333333334
 20
203.0047375033758
 11
-179.1453333333334
 21
203.4953009444114
  0
LINE
  8
1
  6
CONTINUOUS
 62
     7
 10
-179.1453333333334
 20
201.5048402791647
 11
-179.1453333333334
 21
201.9900353053766
  0
LINE
  8
1
  6
CONTINUOUS
 62
     7
 10
-179.1453333333334
 20
200.0049036357239
 11
-179.1453333333334
 21
200.4899195711793
  0
LINE
  8
1
  6
CONTINUOUS
 62
     7
 10
-179.1453333333334
 20
198.0
 11
-179.1453333333334
 21
198.9950963642762
  0
LINE
  8
1
  6
CONTINUOUS
 62
     7
 10
-197.5213333333334
 20
199.7451471789957
 11
-197.5213333333334
 21
198.0
  0
LINE
  8
1
  6
CONTINUOUS
 62
     7
 10
-197.5213333333334
 20
201.2452190704421
 11
-197.5213333333334
 21
200.7602299204207
  0
LINE
  8
1
  6
CONTINUOUS
 62
     7
 10
-197.5213333333334
 20
202.7452950085285
 11
-197.5213333333334
 21
202.2547768406317
  0
LINE
  8
1
  6
CONTINUOUS
 62
     7
 10
-197.5213333333334
 20
204.2453019707505
 11
-197.5213333333334
 21
203.7600050185106
  0
LINE
  8
1
  6
CONTINUOUS
 62
     7
 10
-197.5213333333334
 20
205.7452145965613
 11
-197.5213333333334
 21
205.2600167764742
  0
LINE
  8
1
  6
CONTINUOUS
 62
     7
 10
-197.5213333333334
 20
207.2451476397146
 11
-197.5213333333334
 21
206.7547786531438
  0
LINE
  8
1
  6
CONTINUOUS
 62
     7
 10
-197.5213333333334
 20
209.5
 11
-197.5213333333334
 21
208.2600957285741
  0
LINE
  8
1
  6
CONTINUOUS
 62
     7
 10
-171.3333333333333
 20
209.5
 11
-171.3333333333333
 21
212.5
  0
LINE
  8
1
  6
CONTINUOUS
 62
     7
 10
-205.3333333333334
 20
212.5
 11
-205.3333333333334
 21
209.5
  0
ENDBLK
  8
0
  0
BLOCK
  8
0
  2
D_FRAME_VIEW_1853
 70
     0
 10
0.0
 20
0.0
  0
CIRCLE
  8
1
  6
CONTINUOUS
 62
     7
 10
-188.3333333333333
 20
156.6666666666667
 40
9.188000000000002
  0
CIRCLE
  8
1
  6
CONTINUOUS
 62
     7
 10
-188.3333333333333
 20
156.6666666666667
 40
7.750000000000007
  0
LINE
  8
1
  6
CONTINUOUS
 62
     7
 10
-179.1453333333334
 20
156.6666666666667
 11
-178.5208145833334
 21
156.6666666666667
  0
LINE
  8
1
  6
CONTINUOUS
 62
     7
 10
-191.3793006738667
 20
171.3541471504122
 11
-189.2219040963361
 21
173.5115437279427
  0
ARC
  8
1
  6
CONTINUOUS
 62
     7
 10
-188.8683507057429
 20
173.1579903373494
 40
0.4999999999999841
 50
91.8581582782651
 51
134.9999999999999
  0
ARC
  8
1
  6
CONTINUOUS
 62
     7
 10
-188.3333333333333
 20
156.6666666666667
 40
17.0
 50
88.14184172173465
 51
91.85815827826514
  0
ARC
  8
1
  6
CONTINUOUS
 62
     7
 10
-187.7983159609238
 20
173.1579903373494
 40
0.4999999999999983
 50
44.99999999999977
 51
88.1418417217349
  0
LINE
  8
1
  6
CONTINUOUS
 62
     7
 10
-187.4447625703305
 20
173.5115437279427
 11
-185.2873659928
 21
171.3541471504122
  0
ARC
  8
1
  6
CONTINUOUS
 62
     7
 10
-188.3333333333333
 20
156.6666666666667
 40
14.99999999999999
 50
56.71621950857575
 51
78.28378049142417
  0
ARC
  8
1
  6
CONTINUOUS
 62
     7
 10
-177.0505209471347
 20
168.7061078770321
 40
0.5000000000000067
 50
46.85815827826523
 51
89.99999999999982
  0
ARC
  8
1
  6
CONTINUOUS
 62
     7
 10
-188.3333333333333
 20
156.6666666666667
 40
17.00000000000001
 50
43.14184172173486
 51
46.85815827826514
  0
ARC
  8
1
  6
CONTINUOUS
 62
     7
 10
-176.293892122968
 20
167.9494790528653
 40
0.5000000000000004
 50
359.9999999999998
 51
43.14184172173509
  0
LINE
  8
1
  6
CONTINUOUS
 62
     7
 10
-175.793892122968
 20
167.9494790528653
 11
-175.793892122968
 21
164.8984595535043
  0
ARC
  8
1
  6
CONTINUOUS
 62
     7
 10
-188.3333333333333
 20
156.6666666666667
 40
15.00000000000001
 50
11.71621950857575
 51
33.28378049142418
  0
LINE
  8
1
  6
CONTINUOUS
 62
     7
 10
-173.6458528495879
 20
159.7126340072
 11
-171.4884562720574
 21
157.5552374296695
  0
ARC
  8
1
  6
CONTINUOUS
 62
     7
 10
-171.8420096626506
 20
157.2016840390762
 40
0.4999999999999841
 50
1.85815827826512
 51
44.99999999999996
  0
ARC
  8
1
  6
CONTINUOUS
 62
     7
 10
-188.3333333333333
 20
156.6666666666667
 40
17.0
 50
358.1418417217346
 51
1.858158278265137
  0
ARC
  8
1
  6
CONTINUOUS
 62
     7
 10
-171.8420096626506
 20
156.1316492942572
 40
0.4999999999999983
 50
314.9999999999998
 51
358.1418417217349
  0
LINE
  8
1
  6
CONTINUOUS
 62
     7
 10
-171.4884562720574
 20
155.7780959036639
 11
-173.6458528495879
 21
153.6206993261334
  0
ARC
  8
1
  6
CONTINUOUS
 62
     7
 10
-188.3333333333333
 20
156.6666666666667
 40
14.99999999999999
 50
326.7162195085758
 51
348.2837804914242
  0
LINE
  8
1
  6
CONTINUOUS
 62
     7
 10
-175.793892122968
 20
148.434873779829
 11
-175.793892122968
 21
145.3838542804681
  0
ARC
  8
1
  6
CONTINUOUS
 62
     7
 10
-176.293892122968
 20
145.3838542804681
 40
0.4999999999999877
 50
316.8581582782653
 51
359.9999999999998
  0
ARC
  8
1
  6
CONTINUOUS
 62
     7
 10
-188.3333333333333
 20
156.6666666666667
 40
17.00000000000001
 50
313.1418417217351
 51
316.8581582782651
  0
ARC
  8
1
  6
CONTINUOUS
 62
     7
 10
-177.0505209471347
 20
144.6272254563013
 40
0.5000000000000004
 50
269.9999999999998
 51
313.141841721735
  0
LINE
  8
1
  6
CONTINUOUS
 62
     7
 10
-177.0505209471347
 20
144.1272254563013
 11
-180.1015404464957
 21
144.1272254563013
  0
ARC
  8
1
  6
CONTINUOUS
 62
     7
 10
-188.3333333333333
 20
156.6666666666667
 40
15.00000000000001
 50
281.7162195085758
 51
303.2837804914241
  0
LINE
  8
1
  6
CONTINUOUS
 62
     7
 10
-185.2873659928
 20
141.9791861829212
 11
-187.4447625703305
 21
139.8217896053907
  0
ARC
  8
1
  6
CONTINUOUS
 62
     7
 10
-187.7983159609238
 20
140.175342995984
 40
0.4999999999999832
 50
271.8581582782651
 51
314.9999999999999
  0
ARC
  8
1
  6
CONTINUOUS
 62
     7
 10
-188.3333333333333
 20
156.6666666666667
 40
17.0
 50
268.1418417217347
 51
271.8581582782651
  0
ARC
  8
1
  6
CONTINUOUS
 62
     7
 10
-188.8683507057429
 20
140.175342995984
 40
0.4999999999999983
 50
224.9999999999998
 51
268.1418417217349
  0
LINE
  8
1
  6
CONTINUOUS
 62
     7
 10
-189.2219040963361
 20
139.8217896053907
 11
-191.3793006738667
 21
141.9791861829212
  0
ARC
  8
1
  6
CONTINUOUS
 62
     7
 10
-188.3333333333333
 20
156.6666666666667
 40
14.99999999999999
 50
236.7162195085758
 51
258.2837804914242
  0
LINE
  8
1
  6
CONTINUOUS
 62
     7
 10
-196.565126220171
 20
144.1272254563013
 11
-199.6161457195319
 21
144.1272254563013
  0
ARC
  8
1
  6
CONTINUOUS
 62
     7
 10
-199.6161457195319
 20
144.6272254563013
 40
0.4999999999999877
 50
226.8581582782653
 51
269.9999999999998
  0
ARC
  8
1
  6
CONTINUOUS
 62
     7
 10
-188.3333333333333
 20
156.6666666666667
 40
17.00000000000001
 50
223.1418417217349
 51
226.8581582782651
  0
ARC
  8
1
  6
CONTINUOUS
 62
     7
 10
-200.3727745436987
 20
145.3838542804681
 40
0.5000000000000004
 50
179.9999999999998
 51
223.141841721735
  0
LINE
  8
1
  6
CONTINUOUS
 62
     7
 10
-200.8727745436987
 20
145.3838542804681
 11
-200.8727745436987
 21
148.434873779829
  0
ARC
  8
1
  6
CONTINUOUS
 62
     7
 10
-188.3333333333333
 20
156.6666666666667
 40
15.00000000000001
 50
191.7162195085758
 51
213.2837804914241
  0
LINE
  8
1
  6
CONTINUOUS
 62
     7
 10
-203.0208138170788
 20
153.6206993261334
 11
-205.1782103946094
 21
155.7780959036639
  0
ARC
  8
1
  6
CONTINUOUS
 62
     7
 10
-204.8246570040161
 20
156.1316492942571
 40
0.4999999999999832
 50
181.8581582782651
 51
225.0
  0
ARC
  8
1
  6
CONTINUOUS
 62
     7
 10
-188.3333333333333
 20
156.6666666666667
 40
17.0
 50
178.1418417217346
 51
181.8581582782651
  0
ARC
  8
1
  6
CONTINUOUS
 62
     7
 10
-204.8246570040161
 20
157.2016840390762
 40
0.4999999999999983
 50
134.9999999999998
 51
178.1418417217349
  0
LINE
  8
1
  6
CONTINUOUS
 62
     7
 10
-205.1782103946094
 20
157.5552374296695
 11
-203.0208138170788
 21
159.7126340072
  0
ARC
  8
1
  6
CONTINUOUS
 62
     7
 10
-188.3333333333333
 20
156.6666666666667
 40
15.00000000000001
 50
146.7162195085758
 51
168.2837804914242
  0
ARC
  8
1
  6
CONTINUOUS
 62
     7
 10
-200.3727745436987
 20
167.9494790528653
 40
0.4999999999999877
 50
136.8581582782653
 51
180.0
  0
ARC
  8
1
  6
CONTINUOUS
 62
     7
 10
-188.3333333333333
 20
156.6666666666667
 40
17.00000000000001
 50
133.141841721735
 51
136.8581582782651
  0
ARC
  8
1
  6
CONTINUOUS
 62
     7
 10
-199.6161457195319
 20
168.7061078770321
 40
0.5000000000000004
 50
89.99999999999982
 51
133.1418417217351
  0
LINE
  8
1
  6
CONTINUOUS
 62
     7
 10
-199.6161457195319
 20
169.2061078770321
 11
-196.565126220171
 21
169.2061078770321
  0
LINE
  8
1
  6
CONTINUOUS
 62
     7
 10
-180.1015404464957
 20
169.206107877032
 11
-177.0505209471347
 21
169.2061078770321
  0
LINE
  8
1
  6
CONTINUOUS
 62
     7
 10
-200.8727745436987
 20
164.8984595535043
 11
-200.8727745436987
 21
167.9494790528653
  0
ARC
  8
1
  6
CONTINUOUS
 62
     7
 10
-188.3333333333333
 20
156.6666666666667
 40
15.00000000000001
 50
101.7162195085758
 51
123.2837804914242
  0
ARC
  8
1
  6
CONTINUOUS
 62
     7
 10
-187.9889511279121
 20
156.1026042331369
 40
9.484923618865194
 50
3.409355528417375
 51
59.21232992286962
  0
LINE
  8
1
  6
CONTINUOUS
 62
     7
 10
-178.5208145833334
 20
156.6666666666662
 11
-178.5224865623222
 21
156.8470296589365
  0
ARC
  8
1
  6
CONTINUOUS
 62
     7
 10
-188.3418063565097
 20
156.7474020461691
 40
9.821323618041566
 50
359.5289994727191
 51
359.4440101235241
  0
ENDBLK
  8
0
  0
ENDSEC
  0
SECTION
  2
ENTITIES
  0
INSERT
  8
1
  6
CONTINUOUS
 62
     7
  2
D_FRAME_VIEW_1491
 10
0.0
 20
0.0
 30
0.0
  0
INSERT
  8
1
  6
CONTINUOUS
 62
     7
  2
D_FRAME_VIEW_1853
 10
0.0
 20
0.0
 30
0.0
  0
LINE
  8
1
  6
CENTER
 62
     1
 10
-188.3333333333333
 20
229.0
 11
-188.3333333333333
 21
192.5
  0
LINE
  8
1
  6
CONTINUOUS
 62
     7
 10
-173.6458528495879
 20
209.8295454545455
 11
-173.6458528495879
 21
212.5
  0
TEXT
  8
1
  6
CONTINUOUS
 62
     7
 10
-167.9159361844025
 20
125.8284200325122
 40
3.0
  1
MFPN-16M20K
  0
LINE
  8
1
  6
CONTINUOUS
 62
     2
 10
-167.8310606060606
 20
125.2704545454545
 11
-148.8356060606061
 21
125.2704545454545
  0
LINE
  8
1
  6
CENTER
 62
     1
 10
-188.3333333333333
 20
139.6666666666667
 11
-188.3333333333333
 21
173.6666666666667
  0
LINE
  8
1
  6
CENTER
 62
     1
 10
-205.3333333333334
 20
156.6666666666667
 11
-171.3333333333333
 21
156.6666666666667
  0
ENDSEC
  0
EOF
