  0
SECTION
  2
HEADER
  9
$ACADVER
  1
AC1004
  9
$INSBASE
 10
0.0
 20
0.0
  9
$EXTMIN
 10
-163.6666666666667
 20
122.7704545454545
  9
$EXTMAX
 10
-129.6666666666667
 20
226.5
  9
$LIMMIN
 10
0.0
 20
0.0
  9
$LIMMAX
 10
12.0
 20
9.0
  9
$ORTHOMODE
 70
     0
  9
$REGENMODE
 70
     1
  9
$FILLMODE
 70
     1
  9
$QTEXTMODE
 70
     0
  9
$DRAGMODE
 70
     2
  9
$LTSCALE
 40
1.0
  9
$OSMODE
 70
    37
  9
$ATTMODE
 70
     1
  9
$TEXTSIZE
 40
0.2
  9
$TRACEWID
 40
0.05
  9
$TEXTSTYLE
  7
STANDARD
  9
$CLAYER
  8
0
  9
$CELTYPE
  6
BYLAYER
  9
$CECOLOR
 62
   256
  9
$DIMSCALE
 40
1.0
  9
$DIMASZ
 40
3.0
  9
$DIMEXO
 40
0.0625
  9
$DIMDLI
 40
0.38
  9
$DIMRND
 40
0.0
  9
$DIMDLE
 40
0.0
  9
$DIMEXE
 40
1.5
  9
$DIMTP
 40
0.0
  9
$DIMTM
 40
0.0
  9
$DIMTXT
 40
3.0
  9
$DIMCEN
 40
0.09
  9
$DIMTSZ
 40
0.0
  9
$DIMTOL
 70
     0
  9
$DIMLIM
 70
     0
  9
$DIMTIH
 70
     1
  9
$DIMTOH
 70
     1
  9
$DIMSE1
 70
     0
  9
$DIMSE2
 70
     0
  9
$DIMTAD
 70
     1
  9
$DIMZIN
 70
     0
  9
$DIMBLK
  1

  9
$DIMASO
 70
     1
  9
$DIMSHO
 70
     1
  9
$DIMPOST
  1

  9
$DIMAPOST
  1

  9
$DIMALT
 70
     0
  9
$DIMALTD
 70
     2
  9
$DIMALTF
 40
25.4
  9
$DIMLFAC
 40
1.0
  9
$DIMTOFL
 70
     0
  9
$DIMTVP
 40
0.0
  9
$DIMTIX
 70
     0
  9
$DIMSOXD
 70
     0
  9
$DIMSAH
 70
     0
  9
$DIMBLK1
  1

  9
$DIMBLK2
  1

  9
$LUNITS
 70
     2
  9
$LUPREC
 70
     4
  9
$SKETCHINC
 40
0.1
  9
$FILLETRAD
 40
0.5
  9
$AUNITS
 70
     0
  9
$AUPREC
 70
     0
  9
$MENU
  1
.
  9
$ELEVATION
 40
0.0
  9
$THICKNESS
 40
0.0
  9
$LIMCHECK
 70
     0
  9
$CHAMFERA
 40
0.0
  9
$CHAMFERB
 40
0.0
  9
$SKPOLY
 70
     0
  9
$TDCREATE
 40
2459460.400308125
  9
$TDUPDATE
 40
2459460.40030831
  9
$TDINDWG
 40
0.0000000116
  9
$TDUSRTIMER
 40
0.0000000116
  9
$USRTIMER
 70
     1
  9
$ANGBASE
 50
0.0
  9
$ANGDIR
 70
     0
  9
$PDMODE
 70
     0
  9
$PDSIZE
 40
0.0
  9
$PLINEWID
 40
0.0
  9
$COORDS
 70
     1
  9
$SPLFRAME
 70
     0
  9
$SPLINETYPE
 70
     6
  9
$SPLINESEGS
 70
     8
  9
$ATTDIA
 70
     0
  9
$ATTREQ
 70
     1
  9
$SURFTAB1
 70
     6
  9
$SURFTAB2
 70
     6
  9
$SURFTYPE
 70
     6
  9
$SURFU
 70
     6
  9
$SURFV
 70
     6
  9
$UCSNAME
  2

  9
$UCSORG
 10
0.0
 20
0.0
 30
0.0
  9
$UCSXDIR
 10
1.0
 20
0.0
 30
0.0
  9
$UCSYDIR
 10
0.0
 20
1.0
 30
0.0
  9
$USERI1
 70
     0
  9
$USERI2
 70
     0
  9
$USERI3
 70
     0
  9
$USERI4
 70
     0
  9
$USERI5
 70
     0
  9
$USERR1
 40
0.0
  9
$USERR2
 40
0.0
  9
$USERR3
 40
0.0
  9
$USERR4
 40
0.0
  9
$USERR5
 40
0.0
  9
$WORLDVIEW
 70
     1
  0
ENDSEC
  0
SECTION
  2
TABLES
  0
TABLE
  2
LTYPE
 70
     2
  0
LTYPE
  2
CONTINUOUS
 70
     0
  3
Solid line
 72
    65
 73
     0
 40
0.0
  0
LTYPE
  2
CENTER
 70
     0
  3

 72
    65
 73
     0
 40
0.0
  0
ENDTAB
  0
TABLE
  2
LAYER
 70
     2
  0
LAYER
  2
0
 70
     0
 62
     7
  6
CONTINUOUS
  0
LAYER
  2
1
 70
     0
 62
     7
  6
CONTINUOUS
  0
ENDTAB
  0
TABLE
  2
STYLE
 70
     2
  0
STYLE
  2
STANDARD
 70
     0
 40
0.0
 41
1.0
 50
0.0
 71
     0
 42
0.2
  3
txt
  4

  0
STYLE
  2
ＭＳ_ゴシック
 70
     0
 40
0.0
 41
1.0
 50
0.0
 71
     0
 42
0.2
  3
ＭＳ ゴシック.shx
  4

  0
ENDTAB
  0
TABLE
  2
VIEW
 70
     0
  0
ENDTAB
  0
ENDSEC
  0
SECTION
  2
BLOCKS
  0
BLOCK
  8
0
  2
D_FRAME_VIEW_1491
 70
     0
 10
0.0
 20
0.0
  0
LINE
  8
1
  6
CONTINUOUS
 62
     7
 10
-147.217896686725
 20
207.0
 11
-146.1154366466083
 21
207.0
  0
LINE
  8
1
  6
CONTINUOUS
 62
     7
 10
-147.217896686725
 20
210.0
 11
-146.1154366466083
 21
210.0
  0
LINE
  8
1
  6
CONTINUOUS
 62
     7
 10
-146.1154366466084
 20
210.0
 11
-145.7780959036639
 21
210.0
  0
LINE
  8
1
  6
CONTINUOUS
 62
     7
 10
-145.7780959036639
 20
207.0
 11
-146.1154366466084
 21
207.0
  0
LINE
  8
1
  6
CONTINUOUS
 62
     7
 10
-147.5552374296695
 20
210.0
 11
-147.217896686725
 21
210.0
  0
LINE
  8
1
  6
CONTINUOUS
 62
     7
 10
-147.217896686725
 20
207.0
 11
-147.5552374296695
 21
207.0
  0
LINE
  8
1
  6
CONTINUOUS
 62
     7
 10
-149.7126340072
 20
207.0
 11
-149.7126340072
 21
210.0
  0
LINE
  8
1
  6
CONTINUOUS
 62
     7
 10
-149.7126340072
 20
210.0
 11
-147.5552374296695
 21
210.0
  0
LINE
  8
1
  6
CONTINUOUS
 62
     7
 10
-149.7126340072
 20
207.0
 11
-147.5552374296695
 21
207.0
  0
LINE
  8
1
  6
CONTINUOUS
 62
     7
 10
-143.6206993261333
 20
207.0
 11
-143.6206993261333
 21
210.0
  0
LINE
  8
1
  6
CONTINUOUS
 62
     7
 10
-145.7780959036639
 20
210.0
 11
-143.6206993261333
 21
210.0
  0
LINE
  8
1
  6
CONTINUOUS
 62
     7
 10
-145.7780959036639
 20
207.0
 11
-143.6206993261333
 21
207.0
  0
LINE
  8
1
  6
CONTINUOUS
 62
     7
 10
-154.8984595535043
 20
207.0
 11
-154.8984595535043
 21
210.0
  0
LINE
  8
1
  6
CONTINUOUS
 62
     7
 10
-149.7126340072
 20
210.0
 11
-154.8984595535043
 21
210.0
  0
LINE
  8
1
  6
CONTINUOUS
 62
     7
 10
-149.7126340072
 20
207.0
 11
-154.8984595535043
 21
207.0
  0
LINE
  8
1
  6
CONTINUOUS
 62
     7
 10
-138.434873779829
 20
207.0
 11
-138.434873779829
 21
210.0
  0
LINE
  8
1
  6
CONTINUOUS
 62
     7
 10
-138.434873779829
 20
210.0
 11
-143.6206993261333
 21
210.0
  0
LINE
  8
1
  6
CONTINUOUS
 62
     7
 10
-138.434873779829
 20
207.0
 11
-143.6206993261333
 21
207.0
  0
LINE
  8
1
  6
CONTINUOUS
 62
     7
 10
-157.9494790528653
 20
210.0
 11
-154.8984595535044
 21
210.0
  0
LINE
  8
1
  6
CONTINUOUS
 62
     7
 10
-157.9494790528653
 20
207.0
 11
-154.8984595535044
 21
207.0
  0
LINE
  8
1
  6
CONTINUOUS
 62
     7
 10
-138.434873779829
 20
210.0
 11
-135.3838542804681
 21
210.0
  0
LINE
  8
1
  6
CONTINUOUS
 62
     7
 10
-138.434873779829
 20
207.0
 11
-135.3838542804681
 21
207.0
  0
LINE
  8
1
  6
CONTINUOUS
 62
     7
 10
-135.3838542804681
 20
210.0
 11
-135.0419508748257
 21
210.0
  0
LINE
  8
1
  6
CONTINUOUS
 62
     7
 10
-135.0419508748257
 20
207.0
 11
-135.3838542804681
 21
207.0
  0
LINE
  8
1
  6
CONTINUOUS
 62
     7
 10
-158.2913824585077
 20
210.0
 11
-157.9494790528653
 21
210.0
  0
LINE
  8
1
  6
CONTINUOUS
 62
     7
 10
-157.9494790528653
 20
207.0
 11
-158.2913824585077
 21
207.0
  0
LINE
  8
1
  6
CONTINUOUS
 62
     7
 10
-135.0419508748257
 20
210.0
 11
-134.262393904472
 21
210.0
  0
LINE
  8
1
  6
CONTINUOUS
 62
     7
 10
-135.0419508748257
 20
207.0
 11
-134.262393904472
 21
207.0
  0
LINE
  8
1
  6
CONTINUOUS
 62
     7
 10
-159.0709394288613
 20
210.0
 11
-158.2913824585076
 21
210.0
  0
LINE
  8
1
  6
CONTINUOUS
 62
     7
 10
-159.0709394288613
 20
207.0
 11
-158.2913824585076
 21
207.0
  0
LINE
  8
1
  6
CONTINUOUS
 62
     7
 10
-134.1272254563013
 20
210.0
 11
-134.1272254563013
 21
207.0
  0
LINE
  8
1
  6
CONTINUOUS
 62
     7
 10
-134.262393904472
 20
210.0
 11
-134.1272254563013
 21
210.0
  0
LINE
  8
1
  6
CONTINUOUS
 62
     7
 10
-134.1272254563013
 20
207.0
 11
-134.262393904472
 21
207.0
  0
LINE
  8
1
  6
CONTINUOUS
 62
     7
 10
-159.2061078770321
 20
207.0
 11
-159.2061078770321
 21
210.0
  0
LINE
  8
1
  6
CONTINUOUS
 62
     7
 10
-159.2061078770321
 20
210.0
 11
-159.0709394288613
 21
210.0
  0
LINE
  8
1
  6
CONTINUOUS
 62
     7
 10
-159.0709394288613
 20
207.0
 11
-159.2061078770321
 21
207.0
  0
LINE
  8
1
  6
CONTINUOUS
 62
     7
 10
-136.0910441769802
 20
197.8548863978742
 11
-136.2337627264318
 21
197.8239623254426
  0
ARC
  8
1
  6
CONTINUOUS
 62
     7
 10
2210.610166784936
 20
-77368.21555577875
 40
77601.53453994053
 50
91.7330167276765
 51
91.74845442738722
  0
POLYLINE
  8
1
  6
CONTINUOUS
 62
     7
 66
     1
  0
VERTEX
  8
1
  6
CONTINUOUS
 62
     7
 10
-157.1329692762481
 20
197.1888162428065
  0
VERTEX
  8
1
  6
CONTINUOUS
 62
     7
 10
-157.2443165233378
 20
197.160317504288
  0
VERTEX
  8
1
  6
CONTINUOUS
 62
     7
 10
-157.2466666666666
 20
197.1556218291375
  0
SEQEND
  8
1
  6
CONTINUOUS
 62
     7
  0
LINE
  8
1
  6
CONTINUOUS
 62
     7
 10
-136.0889372636644
 20
199.267935237208
 11
-136.2390141909664
 21
199.2342296570248
  0
ARC
  8
1
  6
CONTINUOUS
 62
     7
 10
922.6734036842577
 20
-34986.45755517888
 40
35201.62214850615
 50
91.72379460232662
 51
91.75782562907315
  0
POLYLINE
  8
1
  6
CONTINUOUS
 62
     7
 66
     1
  0
VERTEX
  8
1
  6
CONTINUOUS
 62
     7
 10
-157.137489718822
 20
198.5990785781172
  0
VERTEX
  8
1
  6
CONTINUOUS
 62
     7
 10
-157.2449197502296
 20
198.5708418966676
  0
VERTEX
  8
1
  6
CONTINUOUS
 62
     7
 10
-157.2466666666648
 20
198.5669046847442
  0
SEQEND
  8
1
  6
CONTINUOUS
 62
     7
  0
LINE
  8
1
  6
CONTINUOUS
 62
     7
 10
-136.0900962192974
 20
200.6780001275906
 11
-136.2059929280364
 21
200.6496706479882
  0
ARC
  8
1
  6
CONTINUOUS
 62
     7
 10
270.2526846127075
 20
-13360.94687975572
 40
13567.68623061684
 50
91.71671508513406
 51
91.80527966549114
  0
LINE
  8
1
  6
CONTINUOUS
 62
     7
 10
-157.1682490952727
 20
200.0051885136066
 11
-157.2466666666611
 21
199.9781570021419
  0
LINE
  8
1
  6
CONTINUOUS
 62
     7
 10
-136.0910145171413
 20
202.0882476945806
 11
-136.2061017476835
 21
202.0607409566113
  0
ARC
  8
1
  6
CONTINUOUS
 62
     7
 10
79.95374356776664
 20
-7089.249423298298
 40
7294.513622586071
 50
91.69810638539788
 51
91.86316886560824
  0
LINE
  8
1
  6
CONTINUOUS
 62
     7
 10
-157.2105926612443
 20
201.4077533706753
 11
-157.2466666666588
 21
201.3892690313034
  0
LINE
  8
1
  6
CONTINUOUS
 62
     7
 10
-136.0888919465797
 20
203.5010372651801
 11
-136.2463961211645
 21
203.4667973881824
  0
ARC
  8
1
  6
CONTINUOUS
 62
     7
 10
170.4547427301534
 20
-10190.01655641224
 40
10398.00758868251
 50
91.6902497695907
 51
91.80556384289444
  0
LINE
  8
1
  6
CONTINUOUS
 62
     7
 10
-157.1637920004166
 20
202.8284780333409
 11
-157.2466666666656
 21
202.8002397997816
  0
ARC
  8
1
  6
CONTINUOUS
 62
     7
 10
1638.028376691092
 20
-58252.32357822217
 40
58484.12463933574
 50
91.7384586482178
 51
91.75896977931761
  0
POLYLINE
  8
1
  6
CONTINUOUS
 62
     7
 66
     1
  0
VERTEX
  8
1
  6
CONTINUOUS
 62
     7
 10
-157.1413612317212
 20
204.243208079983
  0
VERTEX
  8
1
  6
CONTINUOUS
 62
     7
 10
-157.2455507349568
 20
204.2143905708571
  0
VERTEX
  8
1
  6
CONTINUOUS
 62
     7
 10
-157.2466666666535
 20
204.211178798461
  0
SEQEND
  8
1
  6
CONTINUOUS
 62
     7
  0
LINE
  8
1
  6
CONTINUOUS
 62
     7
 10
-135.5151493383719
 20
196.9999999999997
 11
-136.0866666666667
 21
197.5499672545687
  0
LINE
  8
1
  6
CONTINUOUS
 62
     7
 10
-157.2443438827592
 20
205.3156977108618
 11
-157.1310465350314
 21
205.3439545769027
  0
ARC
  8
1
  6
CONTINUOUS
 62
     7
 10
-476.1884548318137
 20
10867.75801787431
 40
10667.18666223627
 50
271.7139823549393
 51
271.826751593087
  0
LINE
  8
1
  6
CONTINUOUS
 62
     7
 10
-136.1459733415387
 20
205.9925731755136
 11
-136.0866666666666
 21
206.0166339212354
  0
LINE
  8
1
  6
CONTINUOUS
 62
     7
 10
-157.2433251276142
 20
203.9053335871936
 11
-157.1327116507649
 21
203.9326730087735
  0
ARC
  8
1
  6
CONTINUOUS
 62
     7
 10
-688.4893296232524
 20
17825.00778899953
 40
17629.08472096188
 50
271.7272083983263
 51
271.7953731587763
  0
LINE
  8
1
  6
CONTINUOUS
 62
     7
 10
-136.1693083132048
 20
204.5772978647609
 11
-136.086666666667
 21
204.6054108894865
  0
LINE
  8
1
  6
CONTINUOUS
 62
     7
 10
-157.242224426399
 20
202.4949970694699
 11
-157.1235611573557
 21
202.5230398834246
  0
ARC
  8
1
  6
CONTINUOUS
 62
     7
 10
-388.6422542529466
 20
8011.529974881817
 40
7812.438173586123
 50
271.6981876912903
 51
271.8522151222967
  0
LINE
  8
1
  6
CONTINUOUS
 62
     7
 10
-136.1315804920222
 20
203.1736449143839
 11
-136.0866666666812
 21
203.1941229380084
  0
LINE
  8
1
  6
CONTINUOUS
 62
     7
 10
-157.2444910491972
 20
201.0819877638255
 11
-157.1273417685725
 21
201.1114800269277
  0
ARC
  8
1
  6
CONTINUOUS
 62
     7
 10
-560.4654255309478
 20
13663.40861704961
 40
13468.33790099217
 50
271.7161008069216
 51
271.8053186620633
  0
LINE
  8
1
  6
CONTINUOUS
 62
     7
 10
-136.1650861927645
 20
201.7558568072884
 11
-136.0866666666723
 21
201.7829334026777
  0
LINE
  8
1
  6
CONTINUOUS
 62
     7
 10
-157.2431338902583
 20
199.672313116073
 11
-157.1272296937167
 21
199.7002886479696
  0
ARC
  8
1
  6
CONTINUOUS
 62
     7
 10
-373.0768275287865
 20
7483.916893228979
 40
7287.416947812086
 50
271.6981067768368
 51
271.863329965251
  0
LINE
  8
1
  6
CONTINUOUS
 62
     7
 10
-136.1227440243435
 20
200.353305700592
 11
-136.0866666666745
 21
200.3718989253337
  0
LINE
  8
1
  6
CONTINUOUS
 62
     7
 10
-157.2423595686608
 20
198.2619313456904
 11
-157.1327273496394
 21
198.2882275926949
  0
ARC
  8
1
  6
CONTINUOUS
 62
     7
 10
-711.9916681466434
 20
18590.62965309448
 40
18400.70899602543
 50
271.7279712062223
 51
271.793276797425
  0
LINE
  8
1
  6
CONTINUOUS
 62
     7
 10
-136.1695459420687
 20
198.9326014357824
 11
-136.0866666666675
 21
198.9609646737435
  0
LINE
  8
1
  6
CONTINUOUS
 62
     7
 10
-136.0866666666666
 20
206.0166339212354
 11
-135.5151493383719
 21
205.4666666666664
  0
LINE
  8
1
  6
CONTINUOUS
 62
     7
 10
-136.0866666666666
 20
196.4500327454313
 11
-135.5151493383719
 21
196.9999999999997
  0
POLYLINE
  8
1
  6
CONTINUOUS
 62
     7
 66
     1
  0
VERTEX
  8
1
  6
CONTINUOUS
 62
     7
 10
-136.2902841440357
 20
212.1142857142857
  0
VERTEX
  8
1
  6
CONTINUOUS
 62
     7
 10
-136.2902842881313
 20
212.114020716895
  0
VERTEX
  8
1
  6
CONTINUOUS
 62
     7
 10
-136.2902847203638
 20
212.113755719795
  0
VERTEX
  8
1
  6
CONTINUOUS
 62
     7
 10
-136.2902854406521
 20
212.1134907232765
  0
VERTEX
  8
1
  6
CONTINUOUS
 62
     7
 10
-136.2902864489146
 20
212.1132257276301
  0
VERTEX
  8
1
  6
CONTINUOUS
 62
     7
 10
-136.2902877450701
 20
212.1129607331467
  0
VERTEX
  8
1
  6
CONTINUOUS
 62
     7
 10
-136.2902893290374
 20
212.112695740117
  0
VERTEX
  8
1
  6
CONTINUOUS
 62
     7
 10
-136.2902912007351
 20
212.1124307488317
  0
VERTEX
  8
1
  6
CONTINUOUS
 62
     7
 10
-136.290293360082
 20
212.1121657595815
  0
VERTEX
  8
1
  6
CONTINUOUS
 62
     7
 10
-136.2902958069965
 20
212.1119007726572
  0
VERTEX
  8
1
  6
CONTINUOUS
 62
     7
 10
-136.2902985413976
 20
212.1116357883494
  0
VERTEX
  8
1
  6
CONTINUOUS
 62
     7
 10
-136.2903015632038
 20
212.111370806949
  0
VERTEX
  8
1
  6
CONTINUOUS
 62
     7
 10
-136.2903048723339
 20
212.1111058287467
  0
VERTEX
  8
1
  6
CONTINUOUS
 62
     7
 10
-136.2903084687065
 20
212.1108408540331
  0
VERTEX
  8
1
  6
CONTINUOUS
 62
     7
 10
-136.2903123522403
 20
212.1105758830992
  0
VERTEX
  8
1
  6
CONTINUOUS
 62
     7
 10
-136.2903165228541
 20
212.1103109162354
  0
VERTEX
  8
1
  6
CONTINUOUS
 62
     7
 10
-136.2903209804665
 20
212.1100459537327
  0
VERTEX
  8
1
  6
CONTINUOUS
 62
     7
 10
-136.2903257249962
 20
212.1097809958817
  0
VERTEX
  8
1
  6
CONTINUOUS
 62
     7
 10
-136.2903307563618
 20
212.1095160429732
  0
VERTEX
  8
1
  6
CONTINUOUS
 62
     7
 10
-136.2903360744822
 20
212.1092510952978
  0
VERTEX
  8
1
  6
CONTINUOUS
 62
     7
 10
-136.2903416792759
 20
212.1089861531464
  0
VERTEX
  8
1
  6
CONTINUOUS
 62
     7
 10
-136.2903475706617
 20
212.1087212168096
  0
VERTEX
  8
1
  6
CONTINUOUS
 62
     7
 10
-136.2903537485581
 20
212.1084562865783
  0
VERTEX
  8
1
  6
CONTINUOUS
 62
     7
 10
-136.2903602128841
 20
212.1081913627431
  0
VERTEX
  8
1
  6
CONTINUOUS
 62
     7
 10
-136.2903669635581
 20
212.1079264455947
  0
SEQEND
  8
1
  6
CONTINUOUS
 62
     7
  0
POLYLINE
  8
1
  6
CONTINUOUS
 62
     7
 66
     1
  0
VERTEX
  8
1
  6
CONTINUOUS
 62
     7
 10
-136.2903669635581
 20
212.1079264455947
  0
VERTEX
  8
1
  6
CONTINUOUS
 62
     7
 10
-136.2906462256902
 20
212.1009772762036
  0
VERTEX
  8
1
  6
CONTINUOUS
 62
     7
 10
-136.2911211866125
 20
212.0940381679534
  0
VERTEX
  8
1
  6
CONTINUOUS
 62
     7
 10
-136.2917903765563
 20
212.0871143761089
  0
VERTEX
  8
1
  6
CONTINUOUS
 62
     7
 10
-136.2926523257536
 20
212.0802111559352
  0
VERTEX
  8
1
  6
CONTINUOUS
 62
     7
 10
-136.2937055644355
 20
212.0733337626975
  0
VERTEX
  8
1
  6
CONTINUOUS
 62
     7
 10
-136.2949486228338
 20
212.0664874516607
  0
VERTEX
  8
1
  6
CONTINUOUS
 62
     7
 10
-136.2963800311799
 20
212.05967747809
  0
VERTEX
  8
1
  6
CONTINUOUS
 62
     7
 10
-136.2979983197054
 20
212.0529090972503
  0
VERTEX
  8
1
  6
CONTINUOUS
 62
     7
 10
-136.2998020186418
 20
212.0461875644067
  0
VERTEX
  8
1
  6
CONTINUOUS
 62
     7
 10
-136.3017896582207
 20
212.0395181348243
  0
VERTEX
  8
1
  6
CONTINUOUS
 62
     7
 10
-136.3039597686736
 20
212.032906063768
  0
VERTEX
  8
1
  6
CONTINUOUS
 62
     7
 10
-136.306310880232
 20
212.026356606503
  0
VERTEX
  8
1
  6
CONTINUOUS
 62
     7
 10
-136.3088415231274
 20
212.0198750182943
  0
VERTEX
  8
1
  6
CONTINUOUS
 62
     7
 10
-136.3115502275915
 20
212.0134665544069
  0
VERTEX
  8
1
  6
CONTINUOUS
 62
     7
 10
-136.3144355238556
 20
212.0071364701059
  0
VERTEX
  8
1
  6
CONTINUOUS
 62
     7
 10
-136.3174959421515
 20
212.0008900206564
  0
VERTEX
  8
1
  6
CONTINUOUS
 62
     7
 10
-136.3207300127106
 20
211.9947324613233
  0
VERTEX
  8
1
  6
CONTINUOUS
 62
     7
 10
-136.3241362657644
 20
211.9886690473718
  0
VERTEX
  8
1
  6
CONTINUOUS
 62
     7
 10
-136.3277132180348
 20
211.982705025869
  0
VERTEX
  8
1
  6
CONTINUOUS
 62
     7
 10
-136.3314584806334
 20
211.9768450943442
  0
VERTEX
  8
1
  6
CONTINUOUS
 62
     7
 10
-136.3353682034216
 20
211.9710930636186
  0
VERTEX
  8
1
  6
CONTINUOUS
 62
     7
 10
-136.339438403586
 20
211.965452664004
  0
VERTEX
  8
1
  6
CONTINUOUS
 62
     7
 10
-136.3436650983131
 20
211.9599276258122
  0
VERTEX
  8
1
  6
CONTINUOUS
 62
     7
 10
-136.3480443047895
 20
211.9545216793554
  0
VERTEX
  8
1
  6
CONTINUOUS
 62
     7
 10
-136.3525720402016
 20
211.9492385549452
  0
VERTEX
  8
1
  6
CONTINUOUS
 62
     7
 10
-136.3572443217359
 20
211.9440819828936
  0
VERTEX
  8
1
  6
CONTINUOUS
 62
     7
 10
-136.3620571665791
 20
211.9390556935125
  0
VERTEX
  8
1
  6
CONTINUOUS
 62
     7
 10
-136.3670065919175
 20
211.9341634171138
  0
VERTEX
  8
1
  6
CONTINUOUS
 62
     7
 10
-136.3720886149378
 20
211.9294088840094
  0
VERTEX
  8
1
  6
CONTINUOUS
 62
     7
 10
-136.3772992528264
 20
211.9247958245112
  0
VERTEX
  8
1
  6
CONTINUOUS
 62
     7
 10
-136.3826345227699
 20
211.9203279689311
  0
VERTEX
  8
1
  6
CONTINUOUS
 62
     7
 10
-136.3880904419549
 20
211.916009047581
  0
VERTEX
  8
1
  6
CONTINUOUS
 62
     7
 10
-136.3936630275677
 20
211.9118427907728
  0
VERTEX
  8
1
  6
CONTINUOUS
 62
     7
 10
-136.3993482967949
 20
211.9078329288184
  0
VERTEX
  8
1
  6
CONTINUOUS
 62
     7
 10
-136.4051422668231
 20
211.9039831920296
  0
VERTEX
  8
1
  6
CONTINUOUS
 62
     7
 10
-136.4110409548388
 20
211.9002973107185
  0
VERTEX
  8
1
  6
CONTINUOUS
 62
     7
 10
-136.4170403780285
 20
211.8967790151968
  0
VERTEX
  8
1
  6
CONTINUOUS
 62
     7
 10
-136.4231365535787
 20
211.8934320357765
  0
VERTEX
  8
1
  6
CONTINUOUS
 62
     7
 10
-136.4625932723158
 20
211.8728835355152
  0
VERTEX
  8
1
  6
CONTINUOUS
 62
     7
 10
-136.5148622955129
 20
211.8456740042743
  0
VERTEX
  8
1
  6
CONTINUOUS
 62
     7
 10
-136.56713131871
 20
211.8184644730333
  0
VERTEX
  8
1
  6
CONTINUOUS
 62
     7
 10
-136.6194003419071
 20
211.7912549417923
  0
VERTEX
  8
1
  6
CONTINUOUS
 62
     7
 10
-136.6716693651042
 20
211.7640454105514
  0
VERTEX
  8
1
  6
CONTINUOUS
 62
     7
 10
-136.7239383883014
 20
211.7368358793105
  0
VERTEX
  8
1
  6
CONTINUOUS
 62
     7
 10
-136.7762074114985
 20
211.7096263480695
  0
VERTEX
  8
1
  6
CONTINUOUS
 62
     7
 10
-136.8284764346956
 20
211.6824168168286
  0
VERTEX
  8
1
  6
CONTINUOUS
 62
     7
 10
-136.8807454578927
 20
211.6552072855876
  0
VERTEX
  8
1
  6
CONTINUOUS
 62
     7
 10
-136.9330144810898
 20
211.6279977543467
  0
VERTEX
  8
1
  6
CONTINUOUS
 62
     7
 10
-136.9852835042869
 20
211.6007882231058
  0
VERTEX
  8
1
  6
CONTINUOUS
 62
     7
 10
-137.037552527484
 20
211.5735786918648
  0
VERTEX
  8
1
  6
CONTINUOUS
 62
     7
 10
-137.0898215506811
 20
211.5463691606238
  0
VERTEX
  8
1
  6
CONTINUOUS
 62
     7
 10
-137.1420905738782
 20
211.519159629383
  0
VERTEX
  8
1
  6
CONTINUOUS
 62
     7
 10
-137.1943595970753
 20
211.491950098142
  0
VERTEX
  8
1
  6
CONTINUOUS
 62
     7
 10
-137.2466286202724
 20
211.464740566901
  0
VERTEX
  8
1
  6
CONTINUOUS
 62
     7
 10
-137.2988976434695
 20
211.4375310356601
  0
VERTEX
  8
1
  6
CONTINUOUS
 62
     7
 10
-137.3511666666667
 20
211.4103215044192
  0
SEQEND
  8
1
  6
CONTINUOUS
 62
     7
  0
POLYLINE
  8
1
  6
CONTINUOUS
 62
     7
 66
     1
  0
VERTEX
  8
1
  6
CONTINUOUS
 62
     7
 10
-136.2902841440357
 20
223.0
  0
VERTEX
  8
1
  6
CONTINUOUS
 62
     7
 10
-136.2903864114066
 20
223.0070672965033
  0
VERTEX
  8
1
  6
CONTINUOUS
 62
     7
 10
-136.2906921848824
 20
223.0141290760565
  0
VERTEX
  8
1
  6
CONTINUOUS
 62
     7
 10
-136.2911999215077
 20
223.0211798217101
  0
VERTEX
  8
1
  6
CONTINUOUS
 62
     7
 10
-136.2919080783275
 20
223.028214016514
  0
VERTEX
  8
1
  6
CONTINUOUS
 62
     7
 10
-136.2928151123863
 20
223.0352261435184
  0
VERTEX
  8
1
  6
CONTINUOUS
 62
     7
 10
-136.2939194807288
 20
223.0422106857733
  0
VERTEX
  8
1
  6
CONTINUOUS
 62
     7
 10
-136.2952196403998
 20
223.0491621263291
  0
VERTEX
  8
1
  6
CONTINUOUS
 62
     7
 10
-136.2967140484441
 20
223.0560749482356
  0
VERTEX
  8
1
  6
CONTINUOUS
 62
     7
 10
-136.2984011619063
 20
223.0629436345431
  0
VERTEX
  8
1
  6
CONTINUOUS
 62
     7
 10
-136.3002794378311
 20
223.0697626683016
  0
VERTEX
  8
1
  6
CONTINUOUS
 62
     7
 10
-136.3023473332634
 20
223.0765265325614
  0
VERTEX
  8
1
  6
CONTINUOUS
 62
     7
 10
-136.3046033052477
 20
223.0832297103726
  0
VERTEX
  8
1
  6
CONTINUOUS
 62
     7
 10
-136.3070458108288
 20
223.0898666847851
  0
VERTEX
  8
1
  6
CONTINUOUS
 62
     7
 10
-136.3096733070515
 20
223.0964319388492
  0
VERTEX
  8
1
  6
CONTINUOUS
 62
     7
 10
-136.3124842509605
 20
223.1029199556149
  0
VERTEX
  8
1
  6
CONTINUOUS
 62
     7
 10
-136.3154770996003
 20
223.1093252181325
  0
VERTEX
  8
1
  6
CONTINUOUS
 62
     7
 10
-136.318650310016
 20
223.115642209452
  0
VERTEX
  8
1
  6
CONTINUOUS
 62
     7
 10
-136.322002339252
 20
223.1218654126234
  0
VERTEX
  8
1
  6
CONTINUOUS
 62
     7
 10
-136.3255316443532
 20
223.1279893106971
  0
VERTEX
  8
1
  6
CONTINUOUS
 62
     7
 10
-136.3292365191359
 20
223.1340084857724
  0
VERTEX
  8
1
  6
CONTINUOUS
 62
     7
 10
-136.3331136780264
 20
223.1399184783463
  0
VERTEX
  8
1
  6
CONTINUOUS
 62
     7
 10
-136.3371589496752
 20
223.1457153664179
  0
VERTEX
  8
1
  6
CONTINUOUS
 62
     7
 10
-136.3413681529452
 20
223.1513952339248
  0
VERTEX
  8
1
  6
CONTINUOUS
 62
     7
 10
-136.3457371066998
 20
223.1569541648054
  0
VERTEX
  8
1
  6
CONTINUOUS
 62
     7
 10
-136.350261629802
 20
223.1623882429975
  0
VERTEX
  8
1
  6
CONTINUOUS
 62
     7
 10
-136.3549375411152
 20
223.1676935524391
  0
VERTEX
  8
1
  6
CONTINUOUS
 62
     7
 10
-136.3597606595022
 20
223.1728661770682
  0
VERTEX
  8
1
  6
CONTINUOUS
 62
     7
 10
-136.3647268038264
 20
223.1779022008229
  0
VERTEX
  8
1
  6
CONTINUOUS
 62
     7
 10
-136.3698317929508
 20
223.1827977076411
  0
VERTEX
  8
1
  6
CONTINUOUS
 62
     7
 10
-136.3750714457387
 20
223.1875487814608
  0
VERTEX
  8
1
  6
CONTINUOUS
 62
     7
 10
-136.3804415810531
 20
223.19215150622
  0
VERTEX
  8
1
  6
CONTINUOUS
 62
     7
 10
-136.3859380177573
 20
223.1966019658567
  0
VERTEX
  8
1
  6
CONTINUOUS
 62
     7
 10
-136.3915565747143
 20
223.2008962443088
  0
VERTEX
  8
1
  6
CONTINUOUS
 62
     7
 10
-136.3972930707873
 20
223.2050304255145
  0
VERTEX
  8
1
  6
CONTINUOUS
 62
     7
 10
-136.4031433248396
 20
223.2090005934117
  0
VERTEX
  8
1
  6
CONTINUOUS
 62
     7
 10
-136.4091031557341
 20
223.2128028319383
  0
VERTEX
  8
1
  6
CONTINUOUS
 62
     7
 10
-136.4151683823341
 20
223.2164332250324
  0
VERTEX
  8
1
  6
CONTINUOUS
 62
     7
 10
-136.4213348235028
 20
223.219887856632
  0
VERTEX
  8
1
  6
CONTINUOUS
 62
     7
 10
-136.4480827451859
 20
223.2338484764606
  0
VERTEX
  8
1
  6
CONTINUOUS
 62
     7
 10
-136.5012053288024
 20
223.2615023431315
  0
VERTEX
  8
1
  6
CONTINUOUS
 62
     7
 10
-136.5543279124189
 20
223.2891562098025
  0
VERTEX
  8
1
  6
CONTINUOUS
 62
     7
 10
-136.6074504960354
 20
223.3168100764734
  0
VERTEX
  8
1
  6
CONTINUOUS
 62
     7
 10
-136.660573079652
 20
223.3444639431444
  0
VERTEX
  8
1
  6
CONTINUOUS
 62
     7
 10
-136.7136956632685
 20
223.3721178098153
  0
VERTEX
  8
1
  6
CONTINUOUS
 62
     7
 10
-136.766818246885
 20
223.3997716764862
  0
VERTEX
  8
1
  6
CONTINUOUS
 62
     7
 10
-136.8199408305015
 20
223.4274255431572
  0
VERTEX
  8
1
  6
CONTINUOUS
 62
     7
 10
-136.873063414118
 20
223.4550794098281
  0
VERTEX
  8
1
  6
CONTINUOUS
 62
     7
 10
-136.9261859977345
 20
223.482733276499
  0
VERTEX
  8
1
  6
CONTINUOUS
 62
     7
 10
-136.9793085813511
 20
223.51038714317
  0
VERTEX
  8
1
  6
CONTINUOUS
 62
     7
 10
-137.0324311649676
 20
223.5380410098409
  0
VERTEX
  8
1
  6
CONTINUOUS
 62
     7
 10
-137.0855537485841
 20
223.5656948765118
  0
VERTEX
  8
1
  6
CONTINUOUS
 62
     7
 10
-137.1386763322006
 20
223.5933487431828
  0
VERTEX
  8
1
  6
CONTINUOUS
 62
     7
 10
-137.1917989158171
 20
223.6210026098537
  0
VERTEX
  8
1
  6
CONTINUOUS
 62
     7
 10
-137.2449214994336
 20
223.6486564765246
  0
VERTEX
  8
1
  6
CONTINUOUS
 62
     7
 10
-137.2980440830501
 20
223.6763103431956
  0
VERTEX
  8
1
  6
CONTINUOUS
 62
     7
 10
-137.3511666666667
 20
223.7039642098665
  0
SEQEND
  8
1
  6
CONTINUOUS
 62
     7
  0
POLYLINE
  8
1
  6
CONTINUOUS
 62
     7
 66
     1
  0
VERTEX
  8
1
  6
CONTINUOUS
 62
     7
 10
-137.3511666666667
 20
212.8182499241523
  0
VERTEX
  8
1
  6
CONTINUOUS
 62
     7
 10
-137.2980440830501
 20
212.7905960574813
  0
VERTEX
  8
1
  6
CONTINUOUS
 62
     7
 10
-137.2449214994336
 20
212.7629421908104
  0
VERTEX
  8
1
  6
CONTINUOUS
 62
     7
 10
-137.1917989158171
 20
212.7352883241394
  0
VERTEX
  8
1
  6
CONTINUOUS
 62
     7
 10
-137.1386763322006
 20
212.7076344574685
  0
VERTEX
  8
1
  6
CONTINUOUS
 62
     7
 10
-137.0855537485841
 20
212.6799805907976
  0
VERTEX
  8
1
  6
CONTINUOUS
 62
     7
 10
-137.0324311649676
 20
212.6523267241266
  0
VERTEX
  8
1
  6
CONTINUOUS
 62
     7
 10
-136.9793085813511
 20
212.6246728574557
  0
VERTEX
  8
1
  6
CONTINUOUS
 62
     7
 10
-136.9261859977345
 20
212.5970189907847
  0
VERTEX
  8
1
  6
CONTINUOUS
 62
     7
 10
-136.873063414118
 20
212.5693651241138
  0
VERTEX
  8
1
  6
CONTINUOUS
 62
     7
 10
-136.8199408305015
 20
212.5417112574429
  0
VERTEX
  8
1
  6
CONTINUOUS
 62
     7
 10
-136.766818246885
 20
212.5140573907719
  0
VERTEX
  8
1
  6
CONTINUOUS
 62
     7
 10
-136.7136956632684
 20
212.486403524101
  0
VERTEX
  8
1
  6
CONTINUOUS
 62
     7
 10
-136.6605730796519
 20
212.45874965743
  0
VERTEX
  8
1
  6
CONTINUOUS
 62
     7
 10
-136.6074504960354
 20
212.4310957907591
  0
VERTEX
  8
1
  6
CONTINUOUS
 62
     7
 10
-136.5543279124189
 20
212.4034419240882
  0
VERTEX
  8
1
  6
CONTINUOUS
 62
     7
 10
-136.5012053288024
 20
212.3757880574173
  0
VERTEX
  8
1
  6
CONTINUOUS
 62
     7
 10
-136.4480827451858
 20
212.3481341907462
  0
VERTEX
  8
1
  6
CONTINUOUS
 62
     7
 10
-136.4213348235028
 20
212.3341735709177
  0
VERTEX
  8
1
  6
CONTINUOUS
 62
     7
 10
-136.4151683823341
 20
212.3307189393181
  0
VERTEX
  8
1
  6
CONTINUOUS
 62
     7
 10
-136.4091031557341
 20
212.327088546224
  0
VERTEX
  8
1
  6
CONTINUOUS
 62
     7
 10
-136.4031433248395
 20
212.3232863076974
  0
VERTEX
  8
1
  6
CONTINUOUS
 62
     7
 10
-136.3972930707873
 20
212.3193161398002
  0
VERTEX
  8
1
  6
CONTINUOUS
 62
     7
 10
-136.3915565747143
 20
212.3151819585946
  0
VERTEX
  8
1
  6
CONTINUOUS
 62
     7
 10
-136.3859380177572
 20
212.3108876801424
  0
VERTEX
  8
1
  6
CONTINUOUS
 62
     7
 10
-136.3804415810531
 20
212.3064372205057
  0
VERTEX
  8
1
  6
CONTINUOUS
 62
     7
 10
-136.3750714457387
 20
212.3018344957465
  0
VERTEX
  8
1
  6
CONTINUOUS
 62
     7
 10
-136.3698317929508
 20
212.2970834219268
  0
VERTEX
  8
1
  6
CONTINUOUS
 62
     7
 10
-136.3647268038264
 20
212.2921879151086
  0
VERTEX
  8
1
  6
CONTINUOUS
 62
     7
 10
-136.3597606595022
 20
212.287151891354
  0
VERTEX
  8
1
  6
CONTINUOUS
 62
     7
 10
-136.3549375411152
 20
212.2819792667248
  0
VERTEX
  8
1
  6
CONTINUOUS
 62
     7
 10
-136.3502616298021
 20
212.2766739572832
  0
VERTEX
  8
1
  6
CONTINUOUS
 62
     7
 10
-136.3457371066998
 20
212.2712398790911
  0
VERTEX
  8
1
  6
CONTINUOUS
 62
     7
 10
-136.3413681529452
 20
212.2656809482105
  0
VERTEX
  8
1
  6
CONTINUOUS
 62
     7
 10
-136.3371589496751
 20
212.2600010807035
  0
VERTEX
  8
1
  6
CONTINUOUS
 62
     7
 10
-136.3331136780265
 20
212.254204192632
  0
VERTEX
  8
1
  6
CONTINUOUS
 62
     7
 10
-136.3292365191359
 20
212.2482942000581
  0
VERTEX
  8
1
  6
CONTINUOUS
 62
     7
 10
-136.3255316443532
 20
212.2422750249828
  0
VERTEX
  8
1
  6
CONTINUOUS
 62
     7
 10
-136.322002339252
 20
212.2361511269092
  0
VERTEX
  8
1
  6
CONTINUOUS
 62
     7
 10
-136.318650310016
 20
212.2299279237377
  0
VERTEX
  8
1
  6
CONTINUOUS
 62
     7
 10
-136.3154770996004
 20
212.2236109324182
  0
VERTEX
  8
1
  6
CONTINUOUS
 62
     7
 10
-136.3124842509605
 20
212.2172056699007
  0
VERTEX
  8
1
  6
CONTINUOUS
 62
     7
 10
-136.3096733070515
 20
212.2107176531349
  0
VERTEX
  8
1
  6
CONTINUOUS
 62
     7
 10
-136.3070458108288
 20
212.2041523990708
  0
VERTEX
  8
1
  6
CONTINUOUS
 62
     7
 10
-136.3046033052477
 20
212.1975154246583
  0
VERTEX
  8
1
  6
CONTINUOUS
 62
     7
 10
-136.3023473332634
 20
212.1908122468472
  0
VERTEX
  8
1
  6
CONTINUOUS
 62
     7
 10
-136.3002794378311
 20
212.1840483825873
  0
VERTEX
  8
1
  6
CONTINUOUS
 62
     7
 10
-136.2984011619063
 20
212.1772293488288
  0
VERTEX
  8
1
  6
CONTINUOUS
 62
     7
 10
-136.2967140484441
 20
212.1703606625213
  0
VERTEX
  8
1
  6
CONTINUOUS
 62
     7
 10
-136.2952196403999
 20
212.1634478406148
  0
VERTEX
  8
1
  6
CONTINUOUS
 62
     7
 10
-136.2939194807288
 20
212.1564964000591
  0
VERTEX
  8
1
  6
CONTINUOUS
 62
     7
 10
-136.2928151123863
 20
212.1495118578041
  0
VERTEX
  8
1
  6
CONTINUOUS
 62
     7
 10
-136.2919080783274
 20
212.1424997307996
  0
VERTEX
  8
1
  6
CONTINUOUS
 62
     7
 10
-136.2911999215077
 20
212.1354655359958
  0
VERTEX
  8
1
  6
CONTINUOUS
 62
     7
 10
-136.2906921848824
 20
212.1284147903422
  0
VERTEX
  8
1
  6
CONTINUOUS
 62
     7
 10
-136.2903864114066
 20
212.1213530107889
  0
VERTEX
  8
1
  6
CONTINUOUS
 62
     7
 10
-136.2902841440357
 20
212.1142857142857
  0
SEQEND
  8
1
  6
CONTINUOUS
 62
     7
  0
LINE
  8
1
  6
CONTINUOUS
 62
     7
 10
-137.3511666666667
 20
223.7039642098665
 11
-137.4522177922391
 21
223.6611808309307
  0
ARC
  8
1
  6
CONTINUOUS
 62
     7
 10
-33.50288638094265
 20
-2246.116331908419
 40
2471.964082654484
 50
92.41007331636479
 51
92.83970258102072
  0
LINE
  8
1
  6
CONTINUOUS
 62
     7
 10
-136.0866666666666
 20
195.5
 11
-157.2466666666667
 21
195.5
  0
LINE
  8
1
  6
CONTINUOUS
 62
     7
 10
-136.0866666666666
 20
197.5499672545687
 11
-136.1745713161336
 21
197.4520835102098
  0
ARC
  8
1
  6
CONTINUOUS
 62
     7
 10
-141.3073124137783
 20
217.5155149841897
 40
20.70957058189611
 50
273.7000126966128
 51
284.3499629148773
  0
POLYLINE
  8
1
  6
CONTINUOUS
 62
     7
 66
     1
  0
VERTEX
  8
1
  6
CONTINUOUS
 62
     7
 10
-139.9708714415735
 20
196.8491113489572
  0
VERTEX
  8
1
  6
CONTINUOUS
 62
     7
 10
-140.0647966247085
 20
196.8115178832488
  0
VERTEX
  8
1
  6
CONTINUOUS
 62
     7
 10
-139.977695210246
 20
196.754648834158
  0
SEQEND
  8
1
  6
CONTINUOUS
 62
     7
  0
ARC
  8
1
  6
CONTINUOUS
 62
     7
 10
-142.6765217152011
 20
132.1729159012248
 40
64.63809939288562
 50
84.18952289111695
 51
87.60704084250666
  0
LINE
  8
1
  6
CONTINUOUS
 62
     7
 10
-136.1326756256711
 20
196.4789185096991
 11
-136.0866666666666
 21
196.4500327454313
  0
LINE
  8
1
  6
CONTINUOUS
 62
     7
 10
-155.9821666666514
 20
221.3889127024275
 11
-155.8311833824143
 21
221.4411258752824
  0
ARC
  8
1
  6
CONTINUOUS
 62
     7
 10
-1596.902013159035
 20
33228.33984678094
 40
33038.34209382421
 50
272.4999281141661
 51
272.5317748806698
  0
LINE
  8
1
  6
CONTINUOUS
 62
     7
 10
-155.9821666666523
 20
219.574721586012
 11
-155.8357213747216
 21
219.6259626435616
  0
ARC
  8
1
  6
CONTINUOUS
 62
     7
 10
-240.9782804315817
 20
2294.607578436471
 40
2076.72770512682
 50
272.3496951227925
 51
272.8598334831165
  0
LINE
  8
1
  6
CONTINUOUS
 62
     7
 10
-155.9821666666558
 20
217.760512171717
 11
-155.8402630471044
 21
217.8108170435846
  0
ARC
  8
1
  6
CONTINUOUS
 62
     7
 10
-251.200520727925
 20
2521.337730437107
 40
2305.499906630499
 50
272.3705485292112
 51
272.8300688729389
  0
LINE
  8
1
  6
CONTINUOUS
 62
     7
 10
-155.9821666666603
 20
215.9462251118958
 11
-155.8485115145457
 21
215.9950203352444
  0
ARC
  8
1
  6
CONTINUOUS
 62
     7
 10
-255.4618071323934
 20
2608.382242251946
 40
2394.460153824691
 50
272.384282316513
 51
272.8269544075883
  0
LINE
  8
1
  6
CONTINUOUS
 62
     7
 10
-155.9821666666638
 20
214.1318611167758
 11
-155.8508486564713
 21
214.1803898109983
  0
ARC
  8
1
  6
CONTINUOUS
 62
     7
 10
-254.1923492940664
 20
2573.44759325523
 40
2361.31590177918
 50
272.3868822583796
 51
272.8359038573319
  0
LINE
  8
1
  6
CONTINUOUS
 62
     7
 10
-155.9821666666577
 20
212.3174818253983
 11
-155.8696498129849
 21
212.3625475970823
  0
ARC
  8
1
  6
CONTINUOUS
 62
     7
 10
-288.1136021092011
 20
3312.948548456589
 40
3103.404906170781
 50
272.4422579496241
 51
272.7841787468714
  0
LINE
  8
1
  6
CONTINUOUS
 62
     7
 10
-137.3511666666734
 20
214.6324732109089
 11
-137.4632467293256
 21
214.5875167548708
  0
ARC
  8
1
  6
CONTINUOUS
 62
     7
 10
-4.476360820514724
 20
-2902.482406566642
 40
3119.905514386502
 50
92.44298954067573
 51
92.78311162459377
  0
LINE
  8
1
  6
CONTINUOUS
 62
     7
 10
-137.3511666666703
 20
216.4466621624981
 11
-137.4559885738257
 21
216.4033695469862
  0
ARC
  8
1
  6
CONTINUOUS
 62
     7
 10
6.13375302081387
 20
-3126.88984704433
 40
3346.375284691889
 50
92.4592617884181
 51
92.7765035811424
  0
LINE
  8
1
  6
CONTINUOUS
 62
     7
 10
-137.3511666666667
 20
218.2609063853553
 11
-137.4522131897575
 21
218.2185111633966
  0
ARC
  8
1
  6
CONTINUOUS
 62
     7
 10
-3226.053630613287
 20
69622.84696471786
 40
69473.31796806348
 50
272.5328695994729
 51
272.5480598380049
  0
LINE
  8
1
  6
CONTINUOUS
 62
     7
 10
-155.8528541672119
 20
217.4021013358345
 11
-155.9688728944772
 21
217.3692695484881
  0
LINE
  8
1
  6
CONTINUOUS
 62
     7
 10
-137.3511666666699
 20
220.0752352794017
 11
-137.4484454518713
 21
220.0336184184999
  0
ARC
  8
1
  6
CONTINUOUS
 62
     7
 10
-29.87700265082348
 20
-2332.358970825761
 40
2554.658400830788
 50
92.4133216735209
 51
92.82902979479016
  0
LINE
  8
1
  6
CONTINUOUS
 62
     7
 10
-137.3511666667049
 20
221.8896188611108
 11
-137.4559959311515
 21
221.8461991522725
  0
ARC
  8
1
  6
CONTINUOUS
 62
     7
 10
-34.71154879867355
 20
-2227.179797617563
 40
2451.180277799053
 50
92.40233182472119
 51
92.83544302071753
  0
LINE
  8
1
  6
CONTINUOUS
 62
     7
 10
-137.3511666666667
 20
224.5
 11
-155.9821666666667
 21
224.5
  0
POLYLINE
  8
1
  6
CONTINUOUS
 62
     7
 66
     1
  0
VERTEX
  8
1
  6
CONTINUOUS
 62
     7
 10
-137.3511666666667
 20
212.8182499241522
  0
VERTEX
  8
1
  6
CONTINUOUS
 62
     7
 10
-137.4237508664777
 20
212.730407696607
  0
VERTEX
  8
1
  6
CONTINUOUS
 62
     7
 10
-137.5525022919033
 20
212.6717882604977
  0
SEQEND
  8
1
  6
CONTINUOUS
 62
     7
  0
ARC
  8
1
  6
CONTINUOUS
 62
     7
 10
-151.837641517295
 20
295.9185692994098
 40
84.46355282623034
 50
275.0376501688383
 51
279.7371143860672
  0
POLYLINE
  8
1
  6
CONTINUOUS
 62
     7
 66
     1
  0
VERTEX
  8
1
  6
CONTINUOUS
 62
     7
 10
-144.4208679932531
 20
211.7812813319308
  0
VERTEX
  8
1
  6
CONTINUOUS
 62
     7
 10
-144.4021942002051
 20
211.6744808131553
  0
VERTEX
  8
1
  6
CONTINUOUS
 62
     7
 10
-144.2808821756787
 20
211.6442318464741
  0
SEQEND
  8
1
  6
CONTINUOUS
 62
     7
  0
ARC
  8
1
  6
CONTINUOUS
 62
     7
 10
-164.4926469307048
 20
-489.9049762293619
 40
701.8403000585996
 50
87.78371213483138
 51
88.34975428778081
  0
LINE
  8
1
  6
CONTINUOUS
 62
     7
 10
-161.3541471504122
 20
207.0
 11
-161.3541471504122
 21
210.0
  0
LINE
  8
1
  6
CONTINUOUS
 62
     7
 10
-159.2061078770321
 20
210.0
 11
-161.3541471504122
 21
210.0
  0
LINE
  8
1
  6
CONTINUOUS
 62
     7
 10
-159.2061078770321
 20
207.0
 11
-161.3541471504122
 21
207.0
  0
LINE
  8
1
  6
CONTINUOUS
 62
     7
 10
-131.9791861829212
 20
207.0
 11
-131.9791861829212
 21
207.3295454545455
  0
LINE
  8
1
  6
CONTINUOUS
 62
     7
 10
-131.9791861829212
 20
210.0
 11
-134.1272254563013
 21
210.0
  0
LINE
  8
1
  6
CONTINUOUS
 62
     7
 10
-131.9791861829212
 20
207.0
 11
-134.1272254563013
 21
207.0
  0
LINE
  8
1
  6
CONTINUOUS
 62
     7
 10
-163.5115437279427
 20
210.0
 11
-161.3541471504122
 21
210.0
  0
LINE
  8
1
  6
CONTINUOUS
 62
     7
 10
-163.5115437279427
 20
207.0
 11
-161.3541471504122
 21
207.0
  0
LINE
  8
1
  6
CONTINUOUS
 62
     7
 10
-131.9791861829212
 20
210.0
 11
-129.8217896053907
 21
210.0
  0
LINE
  8
1
  6
CONTINUOUS
 62
     7
 10
-131.9791861829212
 20
207.0
 11
-129.8217896053906
 21
207.0
  0
LINE
  8
1
  6
CONTINUOUS
 62
     7
 10
-163.6577274182792
 20
210.0
 11
-163.5115437279427
 21
210.0
  0
LINE
  8
1
  6
CONTINUOUS
 62
     7
 10
-163.5115437279427
 20
207.0
 11
-163.6577274182792
 21
207.0
  0
LINE
  8
1
  6
CONTINUOUS
 62
     7
 10
-129.8217896053907
 20
210.0
 11
-129.6756059150542
 21
210.0
  0
LINE
  8
1
  6
CONTINUOUS
 62
     7
 10
-129.6756059150542
 20
207.0
 11
-129.8217896053907
 21
207.0
  0
LINE
  8
1
  6
CONTINUOUS
 62
     7
 10
-129.6756059150542
 20
210.0
 11
-129.6666666666667
 21
210.0
  0
LINE
  8
1
  6
CONTINUOUS
 62
     7
 10
-129.6756059150542
 20
207.0
 11
-129.6666666666667
 21
207.0
  0
LINE
  8
1
  6
CONTINUOUS
 62
     7
 10
-163.6666666666667
 20
207.0
 11
-163.6577274182792
 21
207.0
  0
LINE
  8
1
  6
CONTINUOUS
 62
     7
 10
-163.6666666666667
 20
210.0
 11
-163.6577274182792
 21
210.0
  0
LINE
  8
1
  6
CONTINUOUS
 62
     7
 10
-136.2389707036011
 20
204.8635980453974
 11
-135.6256715577653
 21
205.3315018310596
  0
LINE
  8
1
  6
CONTINUOUS
 62
     7
 10
-135.6256715577652
 20
205.3315018310596
 11
-135.5151493383719
 21
205.4666666666664
  0
LINE
  8
1
  6
CONTINUOUS
 62
     7
 10
-136.1101163855513
 20
203.4832142061506
 11
-135.5626367329451
 21
203.9436487203702
  0
POLYLINE
  8
1
  6
CONTINUOUS
 62
     7
 66
     1
  0
VERTEX
  8
1
  6
CONTINUOUS
 62
     7
 10
-135.5626367329451
 20
203.9436487203702
  0
VERTEX
  8
1
  6
CONTINUOUS
 62
     7
 10
-135.5558927845107
 20
203.9506447518606
  0
VERTEX
  8
1
  6
CONTINUOUS
 62
     7
 10
-135.5496586677216
 20
203.9579590902594
  0
VERTEX
  8
1
  6
CONTINUOUS
 62
     7
 10
-135.5437926825896
 20
203.9657622857472
  0
VERTEX
  8
1
  6
CONTINUOUS
 62
     7
 10
-135.5383411354565
 20
203.9740411876303
  0
VERTEX
  8
1
  6
CONTINUOUS
 62
     7
 10
-135.5333529100101
 20
203.9827800504684
  0
VERTEX
  8
1
  6
CONTINUOUS
 62
     7
 10
-135.5288795335693
 20
203.9919604144781
  0
VERTEX
  8
1
  6
CONTINUOUS
 62
     7
 10
-135.5250350807124
 20
204.0013838671854
  0
VERTEX
  8
1
  6
CONTINUOUS
 62
     7
 10
-135.5217732329753
 20
204.0111802311643
  0
VERTEX
  8
1
  6
CONTINUOUS
 62
     7
 10
-135.519132027548
 20
204.0213150115131
  0
VERTEX
  8
1
  6
CONTINUOUS
 62
     7
 10
-135.5171507584119
 20
204.0317500512034
  0
VERTEX
  8
1
  6
CONTINUOUS
 62
     7
 10
-135.515853461261
 20
204.0426399323772
  0
VERTEX
  8
1
  6
CONTINUOUS
 62
     7
 10
-135.5153266214317
 20
204.0537491106564
  0
VERTEX
  8
1
  6
CONTINUOUS
 62
     7
 10
-135.5156137489403
 20
204.0650247333104
  0
VERTEX
  8
1
  6
CONTINUOUS
 62
     7
 10
-135.5167434025032
 20
204.0764094158815
  0
VERTEX
  8
1
  6
CONTINUOUS
 62
     7
 10
-135.5187367536067
 20
204.0878410866456
  0
VERTEX
  8
1
  6
CONTINUOUS
 62
     7
 10
-135.5215550796446
 20
204.0990496317949
  0
VERTEX
  8
1
  6
CONTINUOUS
 62
     7
 10
-135.525245188688
 20
204.1101708750472
  0
VERTEX
  8
1
  6
CONTINUOUS
 62
     7
 10
-135.5298252956206
 20
204.1211319188112
  0
VERTEX
  8
1
  6
CONTINUOUS
 62
     7
 10
-135.535309234698
 20
204.1318566423223
  0
VERTEX
  8
1
  6
CONTINUOUS
 62
     7
 10
-135.5426306739086
 20
204.1436648845219
  0
VERTEX
  8
1
  6
CONTINUOUS
 62
     7
 10
-135.5510918163596
 20
204.1549645891637
  0
VERTEX
  8
1
  6
CONTINUOUS
 62
     7
 10
-135.5606676232347
 20
204.1656387550289
  0
VERTEX
  8
1
  6
CONTINUOUS
 62
     7
 10
-135.5713280467592
 20
204.1755627170494
  0
VERTEX
  8
1
  6
CONTINUOUS
 62
     7
 10
-135.5715030409162
 20
204.1757111302218
  0
VERTEX
  8
1
  6
CONTINUOUS
 62
     7
 10
-135.5715906340634
 20
204.1757852558865
  0
VERTEX
  8
1
  6
CONTINUOUS
 62
     7
 10
-135.5716344546462
 20
204.17582229846
  0
VERTEX
  8
1
  6
CONTINUOUS
 62
     7
 10
-135.5716454122925
 20
204.1758315569917
  0
VERTEX
  8
1
  6
CONTINUOUS
 62
     7
 10
-135.5716513055012
 20
204.1758365201404
  0
VERTEX
  8
1
  6
CONTINUOUS
 62
     7
 10
-135.571679802684
 20
204.1758604509681
  0
VERTEX
  8
1
  6
CONTINUOUS
 62
     7
 10
-135.8366093694146
 20
204.3982792274543
  0
VERTEX
  8
1
  6
CONTINUOUS
 62
     7
 10
-136.0863635423238
 20
204.607853608653
  0
SEQEND
  8
1
  6
CONTINUOUS
 62
     7
  0
POLYLINE
  8
1
  6
CONTINUOUS
 62
     7
 66
     1
  0
VERTEX
  8
1
  6
CONTINUOUS
 62
     7
 10
-136.1124754987691
 20
202.0702417518544
  0
VERTEX
  8
1
  6
CONTINUOUS
 62
     7
 10
-135.7632731911869
 20
202.3633209274612
  0
VERTEX
  8
1
  6
CONTINUOUS
 62
     7
 10
-135.5783286020805
 20
202.5186262137447
  0
VERTEX
  8
1
  6
CONTINUOUS
 62
     7
 10
-135.5724380723363
 20
202.5235736667177
  0
VERTEX
  8
1
  6
CONTINUOUS
 62
     7
 10
-135.5717012832144
 20
202.5241924996012
  0
VERTEX
  8
1
  6
CONTINUOUS
 62
     7
 10
-135.571655230405
 20
202.5242311796171
  0
VERTEX
  8
1
  6
CONTINUOUS
 62
     7
 10
-135.5716490819657
 20
202.5242363557693
  0
VERTEX
  8
1
  6
CONTINUOUS
 62
     7
 10
-135.5716473709746
 20
202.5242378042582
  0
VERTEX
  8
1
  6
CONTINUOUS
 62
     7
 10
-135.5629954638214
 20
202.5321251924772
  0
VERTEX
  8
1
  6
CONTINUOUS
 62
     7
 10
-135.5548011053394
 20
202.5407842021519
  0
VERTEX
  8
1
  6
CONTINUOUS
 62
     7
 10
-135.5471426798347
 20
202.5501980429404
  0
VERTEX
  8
1
  6
CONTINUOUS
 62
     7
 10
-135.5401042632829
 20
202.5603441993897
  0
VERTEX
  8
1
  6
CONTINUOUS
 62
     7
 10
-135.5337758666974
 20
202.5711941115171
  0
VERTEX
  8
1
  6
CONTINUOUS
 62
     7
 10
-135.5283443641652
 20
202.5825013949254
  0
VERTEX
  8
1
  6
CONTINUOUS
 62
     7
 10
-135.5237742571632
 20
202.5944082017822
  0
VERTEX
  8
1
  6
CONTINUOUS
 62
     7
 10
-135.5201360160916
 20
202.6068532516479
  0
VERTEX
  8
1
  6
CONTINUOUS
 62
     7
 10
-135.5175017270174
 20
202.6197661454974
  0
VERTEX
  8
1
  6
CONTINUOUS
 62
     7
 10
-135.516142823734
 20
202.6306537547112
  0
VERTEX
  8
1
  6
CONTINUOUS
 62
     7
 10
-135.5155530254503
 20
202.6417545486853
  0
VERTEX
  8
1
  6
CONTINUOUS
 62
     7
 10
-135.5157745257589
 20
202.6530156746893
  0
VERTEX
  8
1
  6
CONTINUOUS
 62
     7
 10
-135.5168345317278
 20
202.6643797482654
  0
VERTEX
  8
1
  6
CONTINUOUS
 62
     7
 10
-135.5187528286111
 20
202.6757846976896
  0
VERTEX
  8
1
  6
CONTINUOUS
 62
     7
 10
-135.5214908043489
 20
202.6869610490697
  0
VERTEX
  8
1
  6
CONTINUOUS
 62
     7
 10
-135.5250926028191
 20
202.6980442025569
  0
VERTEX
  8
1
  6
CONTINUOUS
 62
     7
 10
-135.5295750344721
 20
202.7089612605597
  0
VERTEX
  8
1
  6
CONTINUOUS
 62
     7
 10
-135.5349505013874
 20
202.7196361023136
  0
VERTEX
  8
1
  6
CONTINUOUS
 62
     7
 10
-135.5406065534993
 20
202.7290693037637
  0
VERTEX
  8
1
  6
CONTINUOUS
 62
     7
 10
-135.5469836941295
 20
202.7381867112912
  0
VERTEX
  8
1
  6
CONTINUOUS
 62
     7
 10
-135.5540687255689
 20
202.746929578688
  0
VERTEX
  8
1
  6
CONTINUOUS
 62
     7
 10
-135.5618464124968
 20
202.7552360606668
  0
VERTEX
  8
1
  6
CONTINUOUS
 62
     7
 10
-135.5702994207808
 20
202.7630411327399
  0
VERTEX
  8
1
  6
CONTINUOUS
 62
     7
 10
-135.5704711152912
 20
202.7631881311026
  0
VERTEX
  8
1
  6
CONTINUOUS
 62
     7
 10
-135.5705570563416
 20
202.7632615486655
  0
VERTEX
  8
1
  6
CONTINUOUS
 62
     7
 10
-135.5706000503073
 20
202.7632982370137
  0
VERTEX
  8
1
  6
CONTINUOUS
 62
     7
 10
-135.57061080124
 20
202.763307406971
  0
VERTEX
  8
1
  6
CONTINUOUS
 62
     7
 10
-135.5706166368282
 20
202.7633123453175
  0
VERTEX
  8
1
  6
CONTINUOUS
 62
     7
 10
-135.5706450909623
 20
202.7633362566574
  0
VERTEX
  8
1
  6
CONTINUOUS
 62
     7
 10
-135.8351387599482
 20
202.9855614392071
  0
VERTEX
  8
1
  6
CONTINUOUS
 62
     7
 10
-136.0863881632368
 20
203.1965894409488
  0
SEQEND
  8
1
  6
CONTINUOUS
 62
     7
  0
LINE
  8
1
  6
CONTINUOUS
 62
     7
 10
-136.1117112375831
 20
200.6598567936452
 11
-135.5609876360788
 21
201.1232378019818
  0
POLYLINE
  8
1
  6
CONTINUOUS
 62
     7
 66
     1
  0
VERTEX
  8
1
  6
CONTINUOUS
 62
     7
 10
-135.5609876360788
 20
201.1232378019818
  0
VERTEX
  8
1
  6
CONTINUOUS
 62
     7
 10
-135.5162384039739
 20
201.2194455453295
  0
VERTEX
  8
1
  6
CONTINUOUS
 62
     7
 10
-135.5451380691996
 20
201.3246392449626
  0
VERTEX
  8
1
  6
CONTINUOUS
 62
     7
 10
-135.5713439869671
 20
201.3530489861972
  0
SEQEND
  8
1
  6
CONTINUOUS
 62
     7
  0
LINE
  8
1
  6
CONTINUOUS
 62
     7
 10
-135.5713439869671
 20
201.3530489861972
 11
-136.0866584970593
 21
201.7857809075302
  0
LINE
  8
1
  6
CONTINUOUS
 62
     7
 10
-136.1104976152704
 20
199.2498305545121
 11
-135.5630437249027
 21
199.7102090462813
  0
POLYLINE
  8
1
  6
CONTINUOUS
 62
     7
 66
     1
  0
VERTEX
  8
1
  6
CONTINUOUS
 62
     7
 10
-135.5630437249026
 20
199.7102090462813
  0
VERTEX
  8
1
  6
CONTINUOUS
 62
     7
 10
-135.5562119565199
 20
199.7172835959656
  0
VERTEX
  8
1
  6
CONTINUOUS
 62
     7
 10
-135.5499687205023
 20
199.7245998106658
  0
VERTEX
  8
1
  6
CONTINUOUS
 62
     7
 10
-135.5440935167746
 20
199.7324047528852
  0
VERTEX
  8
1
  6
CONTINUOUS
 62
     7
 10
-135.5386326317649
 20
199.7406852719298
  0
VERTEX
  8
1
  6
CONTINUOUS
 62
     7
 10
-135.5336349282751
 20
199.7494256223597
  0
VERTEX
  8
1
  6
CONTINUOUS
 62
     7
 10
-135.5291519118268
 20
199.7586073443912
  0
VERTEX
  8
1
  6
CONTINUOUS
 62
     7
 10
-135.5252978116537
 20
199.7680320047501
  0
VERTEX
  8
1
  6
CONTINUOUS
 62
     7
 10
-135.5220261167958
 20
199.7778294513969
  0
VERTEX
  8
1
  6
CONTINUOUS
 62
     7
 10
-135.5193748419514
 20
199.7879651894299
  0
VERTEX
  8
1
  6
CONTINUOUS
 62
     7
 10
-135.5173832579853
 20
199.7984010618206
  0
VERTEX
  8
1
  6
CONTINUOUS
 62
     7
 10
-135.5160751818424
 20
199.8092916624219
  0
VERTEX
  8
1
  6
CONTINUOUS
 62
     7
 10
-135.5155372585526
 20
199.8204014305587
  0
VERTEX
  8
1
  6
CONTINUOUS
 62
     7
 10
-135.5158129722244
 20
199.8316775135004
  0
VERTEX
  8
1
  6
CONTINUOUS
 62
     7
 10
-135.5169308555803
 20
199.8430625267894
  0
VERTEX
  8
1
  6
CONTINUOUS
 62
     7
 10
-135.5189120539103
 20
199.8544943987014
  0
VERTEX
  8
1
  6
CONTINUOUS
 62
     7
 10
-135.5217180462104
 20
199.8657030152869
  0
VERTEX
  8
1
  6
CONTINUOUS
 62
     7
 10
-135.5253954017359
 20
199.8768242049916
  0
VERTEX
  8
1
  6
CONTINUOUS
 62
     7
 10
-135.5299623100415
 20
199.8877850702243
  0
VERTEX
  8
1
  6
CONTINUOUS
 62
     7
 10
-135.5354325800775
 20
199.8985094902204
  0
VERTEX
  8
1
  6
CONTINUOUS
 62
     7
 10
-135.5427378834532
 20
199.910317235806
  0
VERTEX
  8
1
  6
CONTINUOUS
 62
     7
 10
-135.5511822135506
 20
199.9216162824397
  0
VERTEX
  8
1
  6
CONTINUOUS
 62
     7
 10
-135.5607404949982
 20
199.9322896289025
  0
VERTEX
  8
1
  6
CONTINUOUS
 62
     7
 10
-135.5713826436807
 20
199.9422126101263
  0
VERTEX
  8
1
  6
CONTINUOUS
 62
     7
 10
-135.5715573461545
 20
199.9423610066931
  0
VERTEX
  8
1
  6
CONTINUOUS
 62
     7
 10
-135.571644793388
 20
199.9424351240403
  0
VERTEX
  8
1
  6
CONTINUOUS
 62
     7
 10
-135.5716885409961
 20
199.9424721624513
  0
VERTEX
  8
1
  6
CONTINUOUS
 62
     7
 10
-135.5716994803968
 20
199.942481419942
  0
VERTEX
  8
1
  6
CONTINUOUS
 62
     7
 10
-135.5717053684829
 20
199.9424863827992
  0
VERTEX
  8
1
  6
CONTINUOUS
 62
     7
 10
-135.5717338615244
 20
199.9425103133978
  0
VERTEX
  8
1
  6
CONTINUOUS
 62
     7
 10
-135.8366246840781
 20
200.1649266747551
  0
VERTEX
  8
1
  6
CONTINUOUS
 62
     7
 10
-136.0863638358095
 20
200.3745166844196
  0
SEQEND
  8
1
  6
CONTINUOUS
 62
     7
  0
POLYLINE
  8
1
  6
CONTINUOUS
 62
     7
 66
     1
  0
VERTEX
  8
1
  6
CONTINUOUS
 62
     7
 10
-136.1125010283584
 20
197.8368861078022
  0
VERTEX
  8
1
  6
CONTINUOUS
 62
     7
 10
-135.7632412911943
 20
198.1299726596259
  0
VERTEX
  8
1
  6
CONTINUOUS
 62
     7
 10
-135.5782689919539
 20
198.2852804686073
  0
VERTEX
  8
1
  6
CONTINUOUS
 62
     7
 10
-135.5723776031412
 20
198.2902279878955
  0
VERTEX
  8
1
  6
CONTINUOUS
 62
     7
 10
-135.571640706659
 20
198.290846829015
  0
VERTEX
  8
1
  6
CONTINUOUS
 62
     7
 10
-135.5715946471398
 20
198.2908855095453
  0
VERTEX
  8
1
  6
CONTINUOUS
 62
     7
 10
-135.5715884950502
 20
198.2908906859856
  0
VERTEX
  8
1
  6
CONTINUOUS
 62
     7
 10
-135.5715867812081
 20
198.2908921347008
  0
VERTEX
  8
1
  6
CONTINUOUS
 62
     7
 10
-135.5629202961884
 20
198.2987805740757
  0
VERTEX
  8
1
  6
CONTINUOUS
 62
     7
 10
-135.5547116876392
 20
198.3074403947192
  0
VERTEX
  8
1
  6
CONTINUOUS
 62
     7
 10
-135.5470392953777
 20
198.3168548062897
  0
VERTEX
  8
1
  6
CONTINUOUS
 62
     7
 10
-135.5399871507277
 20
198.3270012933339
  0
VERTEX
  8
1
  6
CONTINUOUS
 62
     7
 10
-135.5336452199325
 20
198.3378512958693
  0
VERTEX
  8
1
  6
CONTINUOUS
 62
     7
 10
-135.5282005702145
 20
198.3491584342794
  0
VERTEX
  8
1
  6
CONTINUOUS
 62
     7
 10
-135.5236174171373
 20
198.3610648644525
  0
VERTEX
  8
1
  6
CONTINUOUS
 62
     7
 10
-135.5199661881382
 20
198.3735093059491
  0
VERTEX
  8
1
  6
CONTINUOUS
 62
     7
 10
-135.5173189262275
 20
198.386421359744
  0
VERTEX
  8
1
  6
CONTINUOUS
 62
     7
 10
-135.5159493611357
 20
198.3973081067778
  0
VERTEX
  8
1
  6
CONTINUOUS
 62
     7
 10
-135.5153488584453
 20
198.408407882637
  0
VERTEX
  8
1
  6
CONTINUOUS
 62
     7
 10
-135.5155595879943
 20
198.4196678345909
  0
VERTEX
  8
1
  6
CONTINUOUS
 62
     7
 10
-135.5166087328356
 20
198.4310305781821
  0
VERTEX
  8
1
  6
CONTINUOUS
 62
     7
 10
-135.5185160540589
 20
198.4424340416861
  0
VERTEX
  8
1
  6
CONTINUOUS
 62
     7
 10
-135.5212431152565
 20
198.4536087818974
  0
VERTEX
  8
1
  6
CONTINUOUS
 62
     7
 10
-135.5248338424952
 20
198.4646901738
  0
VERTEX
  8
1
  6
CONTINUOUS
 62
     7
 10
-135.5293050233621
 20
198.4756053198026
  0
VERTEX
  8
1
  6
CONTINUOUS
 62
     7
 10
-135.5346690370298
 20
198.4862780991407
  0
VERTEX
  8
1
  6
CONTINUOUS
 62
     7
 10
-135.5403144817714
 20
198.4957092951413
  0
VERTEX
  8
1
  6
CONTINUOUS
 62
     7
 10
-135.5466808107277
 20
198.5048245729088
  0
VERTEX
  8
1
  6
CONTINUOUS
 62
     7
 10
-135.5537548084438
 20
198.5135651862352
  0
VERTEX
  8
1
  6
CONTINUOUS
 62
     7
 10
-135.5615212217963
 20
198.5218692898331
  0
VERTEX
  8
1
  6
CONTINUOUS
 62
     7
 10
-135.5699626987906
 20
198.5296718592149
  0
VERTEX
  8
1
  6
CONTINUOUS
 62
     7
 10
-135.5701341653946
 20
198.5298188074593
  0
VERTEX
  8
1
  6
CONTINUOUS
 62
     7
 10
-135.5702199924523
 20
198.5298921999452
  0
VERTEX
  8
1
  6
CONTINUOUS
 62
     7
 10
-135.5702629294117
 20
198.5299288757505
  0
VERTEX
  8
1
  6
CONTINUOUS
 62
     7
 10
-135.5702736660919
 20
198.5299380425715
  0
VERTEX
  8
1
  6
CONTINUOUS
 62
     7
 10
-135.5702794977751
 20
198.5299429800399
  0
VERTEX
  8
1
  6
CONTINUOUS
 62
     7
 10
-135.5703079495663
 20
198.5299668906898
  0
VERTEX
  8
1
  6
CONTINUOUS
 62
     7
 10
-135.8347799443124
 20
198.7521853650955
  0
VERTEX
  8
1
  6
CONTINUOUS
 62
     7
 10
-136.0863922014718
 20
198.9635283914208
  0
SEQEND
  8
1
  6
CONTINUOUS
 62
     7
  0
LINE
  8
1
  6
CONTINUOUS
 62
     7
 10
-135.5151493383719
 20
196.9999999999997
 11
-136.2389707037945
 21
197.6030686214329
  0
POLYLINE
  8
1
  6
CONTINUOUS
 62
     7
 66
     1
  0
VERTEX
  8
1
  6
CONTINUOUS
 62
     7
 10
-157.2211452393155
 20
198.2797290874016
  0
VERTEX
  8
1
  6
CONTINUOUS
 62
     7
 10
-157.5703820867603
 20
197.986637474263
  0
VERTEX
  8
1
  6
CONTINUOUS
 62
     7
 10
-157.7553392043614
 20
197.8313274351081
  0
VERTEX
  8
1
  6
CONTINUOUS
 62
     7
 10
-157.761230078257
 20
197.8263798493548
  0
VERTEX
  8
1
  6
CONTINUOUS
 62
     7
 10
-157.7619669102016
 20
197.8257609999409
  0
VERTEX
  8
1
  6
CONTINUOUS
 62
     7
 10
-157.762012965686
 20
197.8257223188923
  0
VERTEX
  8
1
  6
CONTINUOUS
 62
     7
 10
-157.7620191152093
 20
197.8257171420117
  0
VERTEX
  8
1
  6
CONTINUOUS
 62
     7
 10
-157.7620208268174
 20
197.8257156930684
  0
VERTEX
  8
1
  6
CONTINUOUS
 62
     7
 10
-157.770675433346
 20
197.8178261043257
  0
VERTEX
  8
1
  6
CONTINUOUS
 62
     7
 10
-157.7788715467148
 20
197.809165196243
  0
VERTEX
  8
1
  6
CONTINUOUS
 62
     7
 10
-157.7865308482232
 20
197.799749759162
  0
VERTEX
  8
1
  6
CONTINUOUS
 62
     7
 10
-157.7935693287664
 20
197.7896023085357
  0
VERTEX
  8
1
  6
CONTINUOUS
 62
     7
 10
-157.79989704549
 20
197.7787514043469
  0
VERTEX
  8
1
  6
CONTINUOUS
 62
     7
 10
-157.8053272234689
 20
197.767443440664
  0
VERTEX
  8
1
  6
CONTINUOUS
 62
     7
 10
-157.8098954228454
 20
197.7555362449547
  0
VERTEX
  8
1
  6
CONTINUOUS
 62
     7
 10
-157.8135312424666
 20
197.7430910976584
  0
VERTEX
  8
1
  6
CONTINUOUS
 62
     7
 10
-157.8161626668367
 20
197.7301783978004
  0
VERTEX
  8
1
  6
CONTINUOUS
 62
     7
 10
-157.8175189393343
 20
197.7192911653467
  0
VERTEX
  8
1
  6
CONTINUOUS
 62
     7
 10
-157.8181058971004
 20
197.7081909442732
  0
VERTEX
  8
1
  6
CONTINUOUS
 62
     7
 10
-157.8178813874177
 20
197.6969305873104
  0
VERTEX
  8
1
  6
CONTINUOUS
 62
     7
 10
-157.8168182450767
 20
197.6855674789158
  0
VERTEX
  8
1
  6
CONTINUOUS
 62
     7
 10
-157.8148967274043
 20
197.6741636908137
  0
VERTEX
  8
1
  6
CONTINUOUS
 62
     7
 10
-157.8121555478973
 20
197.6629886709357
  0
VERTEX
  8
1
  6
CONTINUOUS
 62
     7
 10
-157.8085505470171
 20
197.6519070381487
  0
VERTEX
  8
1
  6
CONTINUOUS
 62
     7
 10
-157.8040649559513
 20
197.6409916900441
  0
VERTEX
  8
1
  6
CONTINUOUS
 62
     7
 10
-157.798686414726
 20
197.6303187473864
  0
VERTEX
  8
1
  6
CONTINUOUS
 62
     7
 10
-157.7930276777567
 20
197.6208874365674
  0
VERTEX
  8
1
  6
CONTINUOUS
 62
     7
 10
-157.7866479906878
 20
197.611772076033
  0
VERTEX
  8
1
  6
CONTINUOUS
 62
     7
 10
-157.7795605840349
 20
197.6030314119913
  0
VERTEX
  8
1
  6
CONTINUOUS
 62
     7
 10
-157.7717807261085
 20
197.5947272897297
  0
VERTEX
  8
1
  6
CONTINUOUS
 62
     7
 10
-157.7633257841963
 20
197.5869247337356
  0
VERTEX
  8
1
  6
CONTINUOUS
 62
     7
 10
-157.7631540545061
 20
197.5867777860718
  0
VERTEX
  8
1
  6
CONTINUOUS
 62
     7
 10
-157.7630680959045
 20
197.5867043938809
  0
VERTEX
  8
1
  6
CONTINUOUS
 62
     7
 10
-157.763025093173
 20
197.5866677182241
  0
VERTEX
  8
1
  6
CONTINUOUS
 62
     7
 10
-157.7630143400499
 20
197.5866585514404
  0
VERTEX
  8
1
  6
CONTINUOUS
 62
     7
 10
-157.763008503953
 20
197.5866536141326
  0
VERTEX
  8
1
  6
CONTINUOUS
 62
     7
 10
-157.762980048651
 20
197.5866297034909
  0
VERTEX
  8
1
  6
CONTINUOUS
 62
     7
 10
-157.498476596869
 20
197.3644114017033
  0
VERTEX
  8
1
  6
CONTINUOUS
 62
     7
 10
-157.2469421651999
 20
197.1531573218673
  0
SEQEND
  8
1
  6
CONTINUOUS
 62
     7
  0
LINE
  8
1
  6
CONTINUOUS
 62
     7
 10
-157.2217922815776
 20
199.6902262425891
 11
-157.7725388999678
 21
199.2268439949653
  0
POLYLINE
  8
1
  6
CONTINUOUS
 62
     7
 66
     1
  0
VERTEX
  8
1
  6
CONTINUOUS
 62
     7
 10
-157.7725388999678
 20
199.2268439949653
  0
VERTEX
  8
1
  6
CONTINUOUS
 62
     7
 10
-157.8172980528107
 20
199.1306333026752
  0
VERTEX
  8
1
  6
CONTINUOUS
 62
     7
 10
-157.7883933695463
 20
199.0254370257542
  0
VERTEX
  8
1
  6
CONTINUOUS
 62
     7
 10
-157.7621828363103
 20
198.9970263942158
  0
SEQEND
  8
1
  6
CONTINUOUS
 62
     7
  0
LINE
  8
1
  6
CONTINUOUS
 62
     7
 10
-157.7621828363103
 20
198.9970263942158
 11
-157.246674806298
 21
198.5641447220514
  0
LINE
  8
1
  6
CONTINUOUS
 62
     7
 10
-157.2229581108672
 20
201.1000713508329
 11
-157.770377402912
 21
200.639668099094
  0
POLYLINE
  8
1
  6
CONTINUOUS
 62
     7
 66
     1
  0
VERTEX
  8
1
  6
CONTINUOUS
 62
     7
 10
-157.770377402912
 20
200.639668099094
  0
VERTEX
  8
1
  6
CONTINUOUS
 62
     7
 10
-157.7771607817535
 20
200.632631331834
  0
VERTEX
  8
1
  6
CONTINUOUS
 62
     7
 10
-157.7833933410248
 20
200.6253162930876
  0
VERTEX
  8
1
  6
CONTINUOUS
 62
     7
 10
-157.7892577146398
 20
200.6175124698999
  0
VERTEX
  8
1
  6
CONTINUOUS
 62
     7
 10
-157.7947076149028
 20
200.6092330129644
  0
VERTEX
  8
1
  6
CONTINUOUS
 62
     7
 10
-157.7996941776639
 20
200.6004936677214
  0
VERTEX
  8
1
  6
CONTINUOUS
 62
     7
 10
-157.8041658960123
 20
200.5913128939544
  0
VERTEX
  8
1
  6
CONTINUOUS
 62
     7
 10
-157.8080087453005
 20
200.5818891095201
  0
VERTEX
  8
1
  6
CONTINUOUS
 62
     7
 10
-157.8112690347763
 20
200.5720924838902
  0
VERTEX
  8
1
  6
CONTINUOUS
 62
     7
 10
-157.8139087483991
 20
200.5619575119666
  0
VERTEX
  8
1
  6
CONTINUOUS
 62
     7
 10
-157.8158886139979
 20
200.5515223507776
  0
VERTEX
  8
1
  6
CONTINUOUS
 62
     7
 10
-157.8171845959779
 20
200.5406324178949
  0
VERTEX
  8
1
  6
CONTINUOUS
 62
     7
 10
-157.8177102597207
 20
200.5295232605544
  0
VERTEX
  8
1
  6
CONTINUOUS
 62
     7
 10
-157.8174221200622
 20
200.5182477314865
  0
VERTEX
  8
1
  6
CONTINUOUS
 62
     7
 10
-157.8162916432476
 20
200.5068632151489
  0
VERTEX
  8
1
  6
CONTINUOUS
 62
     7
 10
-157.8142976830113
 20
200.4954317832659
  0
VERTEX
  8
1
  6
CONTINUOUS
 62
     7
 10
-157.8114789919134
 20
200.4842235434451
  0
VERTEX
  8
1
  6
CONTINUOUS
 62
     7
 10
-157.8077887736324
 20
200.4731026755974
  0
VERTEX
  8
1
  6
CONTINUOUS
 62
     7
 10
-157.803208838132
 20
200.4621420773141
  0
VERTEX
  8
1
  6
CONTINUOUS
 62
     7
 10
-157.7977253761205
 20
200.4514178693597
  0
VERTEX
  8
1
  6
CONTINUOUS
 62
     7
 10
-157.7904048812743
 20
200.4396102980815
  0
VERTEX
  8
1
  6
CONTINUOUS
 62
     7
 10
-157.781945145705
 20
200.4283113548518
  0
VERTEX
  8
1
  6
CONTINUOUS
 62
     7
 10
-157.7723712442927
 20
200.4176380408895
  0
VERTEX
  8
1
  6
CONTINUOUS
 62
     7
 10
-157.7617132608196
 20
200.4077150212628
  0
VERTEX
  8
1
  6
CONTINUOUS
 62
     7
 10
-157.7615383092216
 20
200.4075666235333
  0
VERTEX
  8
1
  6
CONTINUOUS
 62
     7
 10
-157.7614507374062
 20
200.4074925055984
  0
VERTEX
  8
1
  6
CONTINUOUS
 62
     7
 10
-157.7614069275023
 20
200.4074554668919
  0
VERTEX
  8
1
  6
CONTINUOUS
 62
     7
 10
-157.7613959725271
 20
200.4074462093271
  0
VERTEX
  8
1
  6
CONTINUOUS
 62
     7
 10
-157.7613900803196
 20
200.4074412465993
  0
VERTEX
  8
1
  6
CONTINUOUS
 62
     7
 10
-157.761361584411
 20
200.4074173159844
  0
VERTEX
  8
1
  6
CONTINUOUS
 62
     7
 10
-157.4964447745642
 20
200.1850006672713
  0
VERTEX
  8
1
  6
CONTINUOUS
 62
     7
 10
-157.2469724800574
 20
199.9756535635629
  0
SEQEND
  8
1
  6
CONTINUOUS
 62
     7
  0
POLYLINE
  8
1
  6
CONTINUOUS
 62
     7
 66
     1
  0
VERTEX
  8
1
  6
CONTINUOUS
 62
     7
 10
-157.2205683171536
 20
202.5131648129055
  0
VERTEX
  8
1
  6
CONTINUOUS
 62
     7
 10
-157.5698062806775
 20
202.220083719849
  0
VERTEX
  8
1
  6
CONTINUOUS
 62
     7
 10
-157.7547694882589
 20
202.0647780132757
  0
VERTEX
  8
1
  6
CONTINUOUS
 62
     7
 10
-157.7606606112413
 20
202.0598305529526
  0
VERTEX
  8
1
  6
CONTINUOUS
 62
     7
 10
-157.7613974745711
 20
202.059211719175
  0
VERTEX
  8
1
  6
CONTINUOUS
 62
     7
 10
-157.7614435320188
 20
202.0591730391034
  0
VERTEX
  8
1
  6
CONTINUOUS
 62
     7
 10
-157.7614496836498
 20
202.0591678627698
  0
VERTEX
  8
1
  6
CONTINUOUS
 62
     7
 10
-157.7614513970741
 20
202.0591664142564
  0
VERTEX
  8
1
  6
CONTINUOUS
 62
     7
 10
-157.7701159379383
 20
202.0512789547444
  0
VERTEX
  8
1
  6
CONTINUOUS
 62
     7
 10
-157.7783230263053
 20
202.0426199847461
  0
VERTEX
  8
1
  6
CONTINUOUS
 62
     7
 10
-157.7859943023867
 20
202.0332062946035
  0
VERTEX
  8
1
  6
CONTINUOUS
 62
     7
 10
-157.7930457146868
 20
202.0230603997696
  0
VERTEX
  8
1
  6
CONTINUOUS
 62
     7
 10
-157.7993872765819
 20
202.012210860227
  0
VERTEX
  8
1
  6
CONTINUOUS
 62
     7
 10
-157.8048318978278
 20
202.0009040507651
  0
VERTEX
  8
1
  6
CONTINUOUS
 62
     7
 10
-157.809415333079
 20
201.9889978248963
  0
VERTEX
  8
1
  6
CONTINUOUS
 62
     7
 10
-157.813067134098
 20
201.9765534630602
  0
VERTEX
  8
1
  6
CONTINUOUS
 62
     7
 10
-157.8157152367533
 20
201.9636413642819
  0
VERTEX
  8
1
  6
CONTINUOUS
 62
     7
 10
-157.8170856772334
 20
201.9527544872699
  0
VERTEX
  8
1
  6
CONTINUOUS
 62
     7
 10
-157.8176872098227
 20
201.9416544975414
  0
VERTEX
  8
1
  6
CONTINUOUS
 62
     7
 10
-157.8174776525526
 20
201.9303942478271
  0
VERTEX
  8
1
  6
CONTINUOUS
 62
     7
 10
-157.8164298096925
 20
201.9190311225846
  0
VERTEX
  8
1
  6
CONTINUOUS
 62
     7
 10
-157.8145239071418
 20
201.9076271935379
  0
VERTEX
  8
1
  6
CONTINUOUS
 62
     7
 10
-157.8117983401416
 20
201.89645191444
  0
VERTEX
  8
1
  6
CONTINUOUS
 62
     7
 10
-157.8082091943873
 20
201.8853699027289
  0
VERTEX
  8
1
  6
CONTINUOUS
 62
     7
 10
-157.8037396695906
 20
201.8744540559961
  0
VERTEX
  8
1
  6
CONTINUOUS
 62
     7
 10
-157.7983773736753
 20
201.8637804950061
  0
VERTEX
  8
1
  6
CONTINUOUS
 62
     7
 10
-157.79273353272
 20
201.8543485181914
  0
VERTEX
  8
1
  6
CONTINUOUS
 62
     7
 10
-157.7863688370772
 20
201.8452323927323
  0
VERTEX
  8
1
  6
CONTINUOUS
 62
     7
 10
-157.7792964918105
 20
201.8364908648369
  0
VERTEX
  8
1
  6
CONTINUOUS
 62
     7
 10
-157.7715317395821
 20
201.8281857797926
  0
VERTEX
  8
1
  6
CONTINUOUS
 62
     7
 10
-157.7630919218619
 20
201.8203821620868
  0
VERTEX
  8
1
  6
CONTINUOUS
 62
     7
 10
-157.7629204875765
 20
201.8202351927015
  0
VERTEX
  8
1
  6
CONTINUOUS
 62
     7
 10
-157.7628346766761
 20
201.8201617896356
  0
VERTEX
  8
1
  6
CONTINUOUS
 62
     7
 10
-157.7627917477949
 20
201.8201251085379
  0
VERTEX
  8
1
  6
CONTINUOUS
 62
     7
 10
-157.7627810131343
 20
201.8201159403935
  0
VERTEX
  8
1
  6
CONTINUOUS
 62
     7
 10
-157.7627751822664
 20
201.8201110027047
  0
VERTEX
  8
1
  6
CONTINUOUS
 62
     7
 10
-157.7627467315747
 20
201.8200870917637
  0
VERTEX
  8
1
  6
CONTINUOUS
 62
     7
 10
-157.4982847219277
 20
201.5978657429607
  0
VERTEX
  8
1
  6
CONTINUOUS
 62
     7
 10
-157.2469439005008
 20
201.3867400911668
  0
SEQEND
  8
1
  6
CONTINUOUS
 62
     7
  0
LINE
  8
1
  6
CONTINUOUS
 62
     7
 10
-157.2217980794921
 20
203.9234025242754
 11
-157.7725407232224
 21
203.4600201252733
  0
POLYLINE
  8
1
  6
CONTINUOUS
 62
     7
 66
     1
  0
VERTEX
  8
1
  6
CONTINUOUS
 62
     7
 10
-157.7725407232224
 20
203.4600201252733
  0
VERTEX
  8
1
  6
CONTINUOUS
 62
     7
 10
-157.817298088977
 20
203.3638095843615
  0
VERTEX
  8
1
  6
CONTINUOUS
 62
     7
 10
-157.7883924273993
 20
203.2586133074405
  0
VERTEX
  8
1
  6
CONTINUOUS
 62
     7
 10
-157.7621805986165
 20
203.2302026759355
  0
SEQEND
  8
1
  6
CONTINUOUS
 62
     7
  0
LINE
  8
1
  6
CONTINUOUS
 62
     7
 10
-157.7621805986165
 20
203.2302026759355
 11
-157.2466748491346
 21
202.7973257271699
  0
LINE
  8
1
  6
CONTINUOUS
 62
     7
 10
-157.223109960134
 20
205.3335219866904
 11
-157.7706776694168
 21
204.8730684986069
  0
POLYLINE
  8
1
  6
CONTINUOUS
 62
     7
 66
     1
  0
VERTEX
  8
1
  6
CONTINUOUS
 62
     7
 10
-157.7706776694168
 20
204.8730684986069
  0
VERTEX
  8
1
  6
CONTINUOUS
 62
     7
 10
-157.7774125281394
 20
204.8660922440908
  0
VERTEX
  8
1
  6
CONTINUOUS
 62
     7
 10
-157.7836580294158
 20
204.8587777749303
  0
VERTEX
  8
1
  6
CONTINUOUS
 62
     7
 10
-157.7895357603105
 20
204.8509744042177
  0
VERTEX
  8
1
  6
CONTINUOUS
 62
     7
 10
-157.7949993996639
 20
204.8426952826467
  0
VERTEX
  8
1
  6
CONTINUOUS
 62
     7
 10
-157.8000000473497
 20
204.8339561556575
  0
VERTEX
  8
1
  6
CONTINUOUS
 62
     7
 10
-157.8044861579019
 20
204.8247754830336
  0
VERTEX
  8
1
  6
CONTINUOUS
 62
     7
 10
-157.8083434017741
 20
204.8153516839438
  0
VERTEX
  8
1
  6
CONTINUOUS
 62
     7
 10
-157.8116183015821
 20
204.805554930693
  0
VERTEX
  8
1
  6
CONTINUOUS
 62
     7
 10
-157.8142727978293
 20
204.7954197181829
  0
VERTEX
  8
1
  6
CONTINUOUS
 62
     7
 10
-157.8162675724128
 20
204.784984203442
  0
VERTEX
  8
1
  6
CONTINUOUS
 62
     7
 10
-157.8175788141911
 20
204.774093794514
  0
VERTEX
  8
1
  6
CONTINUOUS
 62
     7
 10
-157.8181197646536
 20
204.7629840440175
  0
VERTEX
  8
1
  6
CONTINUOUS
 62
     7
 10
-157.8178468821044
 20
204.751707804683
  0
VERTEX
  8
1
  6
CONTINUOUS
 62
     7
 10
-157.816731574121
 20
204.7403224609682
  0
VERTEX
  8
1
  6
CONTINUOUS
 62
     7
 10
-157.8147526334152
 20
204.7288900845972
  0
VERTEX
  8
1
  6
CONTINUOUS
 62
     7
 10
-157.8119484867709
 20
204.7176808031619
  0
VERTEX
  8
1
  6
CONTINUOUS
 62
     7
 10
-157.8082725448569
 20
204.7065587807341
  0
VERTEX
  8
1
  6
CONTINUOUS
 62
     7
 10
-157.803706552514
 20
204.6955969149052
  0
VERTEX
  8
1
  6
CONTINUOUS
 62
     7
 10
-157.7982366330948
 20
204.6848713264397
  0
VERTEX
  8
1
  6
CONTINUOUS
 62
     7
 10
-157.7909309538817
 20
204.6730620492766
  0
VERTEX
  8
1
  6
CONTINUOUS
 62
     7
 10
-157.7824853236495
 20
204.6617612542871
  0
VERTEX
  8
1
  6
CONTINUOUS
 62
     7
 10
-157.7729247096724
 20
204.65108594269
  0
VERTEX
  8
1
  6
CONTINUOUS
 62
     7
 10
-157.7622790846196
 20
204.6411607795538
  0
VERTEX
  8
1
  6
CONTINUOUS
 62
     7
 10
-157.7621043181442
 20
204.6410123471745
  0
VERTEX
  8
1
  6
CONTINUOUS
 62
     7
 10
-157.7620168387945
 20
204.6409382119013
  0
VERTEX
  8
1
  6
CONTINUOUS
 62
     7
 10
-157.7619730750995
 20
204.6409011645223
  0
VERTEX
  8
1
  6
CONTINUOUS
 62
     7
 10
-157.761962131674
 20
204.6408919047891
  0
VERTEX
  8
1
  6
CONTINUOUS
 62
     7
 10
-157.7619562425561
 20
204.6408869414541
  0
VERTEX
  8
1
  6
CONTINUOUS
 62
     7
 10
-157.7619277478571
 20
204.6408630103621
  0
VERTEX
  8
1
  6
CONTINUOUS
 62
     7
 10
-157.4970192893832
 20
204.4184417009185
  0
VERTEX
  8
1
  6
CONTINUOUS
 62
     7
 10
-157.2469666872034
 20
204.2086008826729
  0
SEQEND
  8
1
  6
CONTINUOUS
 62
     7
  0
LINE
  8
1
  6
CONTINUOUS
 62
     7
 10
-136.2902841440357
 20
212.1142857168663
 11
-136.4996076364816
 21
212.3720594362765
  0
LINE
  8
1
  6
CONTINUOUS
 62
     7
 10
-136.4996076364816
 20
212.3720594362765
 11
-137.5240614689934
 21
212.8864821291723
  0
LINE
  8
1
  6
CONTINUOUS
 62
     7
 10
-137.4053400818237
 20
213.1879534831134
 11
-136.4146991132122
 21
213.7060817368519
  0
POLYLINE
  8
1
  6
CONTINUOUS
 62
     7
 66
     1
  0
VERTEX
  8
1
  6
CONTINUOUS
 62
     7
 10
-136.4146991132122
 20
213.7060817368519
  0
VERTEX
  8
1
  6
CONTINUOUS
 62
     7
 10
-136.4022321537126
 20
213.7145397879831
  0
VERTEX
  8
1
  6
CONTINUOUS
 62
     7
 10
-136.3836086371819
 20
213.7291587848258
  0
VERTEX
  8
1
  6
CONTINUOUS
 62
     7
 10
-136.3660736260456
 20
213.7455364135673
  0
VERTEX
  8
1
  6
CONTINUOUS
 62
     7
 10
-136.349837171789
 20
213.7636225856821
  0
VERTEX
  8
1
  6
CONTINUOUS
 62
     7
 10
-136.3351249833094
 20
213.7833550795969
  0
VERTEX
  8
1
  6
CONTINUOUS
 62
     7
 10
-136.3246140818286
 20
213.8002761092142
  0
VERTEX
  8
1
  6
CONTINUOUS
 62
     7
 10
-136.3153409971002
 20
213.8181441160339
  0
VERTEX
  8
1
  6
CONTINUOUS
 62
     7
 10
-136.3073916405271
 20
213.8368769217455
  0
VERTEX
  8
1
  6
CONTINUOUS
 62
     7
 10
-136.3008534505749
 20
213.856382994501
  0
VERTEX
  8
1
  6
CONTINUOUS
 62
     7
 10
-136.2958170326064
 20
213.8765621158358
  0
VERTEX
  8
1
  6
CONTINUOUS
 62
     7
 10
-136.2923762307753
 20
213.8973050919932
  0
VERTEX
  8
1
  6
CONTINUOUS
 62
     7
 10
-136.2906282002366
 20
213.9184934615717
  0
VERTEX
  8
1
  6
CONTINUOUS
 62
     7
 10
-136.2906714656823
 20
213.9399991994949
  0
VERTEX
  8
1
  6
CONTINUOUS
 62
     7
 10
-136.2925681345436
 20
213.9616844173038
  0
VERTEX
  8
1
  6
CONTINUOUS
 62
     7
 10
-136.296344175099
 20
213.9834010597718
  0
VERTEX
  8
1
  6
CONTINUOUS
 62
     7
 10
-136.300942786452
 20
214.0014082178836
  0
VERTEX
  8
1
  6
CONTINUOUS
 62
     7
 10
-136.3068739287745
 20
214.0192298512746
  0
VERTEX
  8
1
  6
CONTINUOUS
 62
     7
 10
-136.3141482049412
 20
214.0367631844391
  0
VERTEX
  8
1
  6
CONTINUOUS
 62
     7
 10
-136.3227750162013
 20
214.0538999873696
  0
VERTEX
  8
1
  6
CONTINUOUS
 62
     7
 10
-136.3327619432819
 20
214.0705267996279
  0
VERTEX
  8
1
  6
CONTINUOUS
 62
     7
 10
-136.3440945857459
 20
214.0865370143885
  0
VERTEX
  8
1
  6
CONTINUOUS
 62
     7
 10
-136.3567300563004
 20
214.1018346769492
  0
VERTEX
  8
1
  6
CONTINUOUS
 62
     7
 10
-136.3706198135305
 20
214.1163204750042
  0
VERTEX
  8
1
  6
CONTINUOUS
 62
     7
 10
-136.385711114286
 20
214.1298907029837
  0
VERTEX
  8
1
  6
CONTINUOUS
 62
     7
 10
-136.3977839522882
 20
214.1394026168118
  0
VERTEX
  8
1
  6
CONTINUOUS
 62
     7
 10
-136.4104749779497
 20
214.1482914242547
  0
VERTEX
  8
1
  6
CONTINUOUS
 62
     7
 10
-136.4237570921201
 20
214.1565083185031
  0
VERTEX
  8
1
  6
CONTINUOUS
 62
     7
 10
-136.430610946201
 20
214.1603491372858
  0
VERTEX
  8
1
  6
CONTINUOUS
 62
     7
 10
-136.4314773846934
 20
214.1608162268744
  0
VERTEX
  8
1
  6
CONTINUOUS
 62
     7
 10
-136.4319114041739
 20
214.1610486722863
  0
VERTEX
  8
1
  6
CONTINUOUS
 62
     7
 10
-136.4319656940527
 20
214.1610776763131
  0
VERTEX
  8
1
  6
CONTINUOUS
 62
     7
 10
-136.4319792678217
 20
214.161084925525
  0
VERTEX
  8
1
  6
CONTINUOUS
 62
     7
 10
-136.4319830685701
 20
214.1610869551756
  0
VERTEX
  8
1
  6
CONTINUOUS
 62
     7
 10
-136.4319896060162
 20
214.1610903825843
  0
SEQEND
  8
1
  6
CONTINUOUS
 62
     7
  0
LINE
  8
1
  6
CONTINUOUS
 62
     7
 10
-136.4319950148474
 20
214.1610932089709
 11
-137.3499439234773
 21
214.6403954758778
  0
LINE
  8
1
  6
CONTINUOUS
 62
     7
 10
-137.4010945943952
 20
215.0045339371444
 11
-136.4128506239889
 21
215.521904042771
  0
POLYLINE
  8
1
  6
CONTINUOUS
 62
     7
 66
     1
  0
VERTEX
  8
1
  6
CONTINUOUS
 62
     7
 10
-136.4128506239889
 20
215.521904042771
  0
VERTEX
  8
1
  6
CONTINUOUS
 62
     7
 10
-136.4007203516237
 20
215.5302043563798
  0
VERTEX
  8
1
  6
CONTINUOUS
 62
     7
 10
-136.3859378473969
 20
215.5417002268447
  0
VERTEX
  8
1
  6
CONTINUOUS
 62
     7
 10
-136.3718106007101
 20
215.5543335984301
  0
VERTEX
  8
1
  6
CONTINUOUS
 62
     7
 10
-136.3584453149321
 20
215.5680806451738
  0
VERTEX
  8
1
  6
CONTINUOUS
 62
     7
 10
-136.3459550554909
 20
215.5829126659594
  0
VERTEX
  8
1
  6
CONTINUOUS
 62
     7
 10
-136.3344594454798
 20
215.5987958952688
  0
VERTEX
  8
1
  6
CONTINUOUS
 62
     7
 10
-136.3240842007553
 20
215.6156909095485
  0
VERTEX
  8
1
  6
CONTINUOUS
 62
     7
 10
-136.3149394351215
 20
215.6335391460998
  0
VERTEX
  8
1
  6
CONTINUOUS
 62
     7
 10
-136.3071128048178
 20
215.652258426612
  0
VERTEX
  8
1
  6
CONTINUOUS
 62
     7
 10
-136.3006935383145
 20
215.6717572192374
  0
VERTEX
  8
1
  6
CONTINUOUS
 62
     7
 10
-136.2957740743428
 20
215.6919353055111
  0
VERTEX
  8
1
  6
CONTINUOUS
 62
     7
 10
-136.2924501315057
 20
215.7126834916765
  0
VERTEX
  8
1
  6
CONTINUOUS
 62
     7
 10
-136.290820777799
 20
215.7338833163322
  0
VERTEX
  8
1
  6
CONTINUOUS
 62
     7
 10
-136.2909864860765
 20
215.7554067544017
  0
VERTEX
  8
1
  6
CONTINUOUS
 62
     7
 10
-136.293011345385
 20
215.7771159174261
  0
VERTEX
  8
1
  6
CONTINUOUS
 62
     7
 10
-136.296923337571
 20
215.7988627501786
  0
VERTEX
  8
1
  6
CONTINUOUS
 62
     7
 10
-136.3016426429057
 20
215.8168998373998
  0
VERTEX
  8
1
  6
CONTINUOUS
 62
     7
 10
-136.3077024810944
 20
215.8347557367539
  0
VERTEX
  8
1
  6
CONTINUOUS
 62
     7
 10
-136.3151146599475
 20
215.8523276727349
  0
VERTEX
  8
1
  6
CONTINUOUS
 62
     7
 10
-136.3238897942717
 20
215.8695074153355
  0
VERTEX
  8
1
  6
CONTINUOUS
 62
     7
 10
-136.3340366854011
 20
215.8861815041174
  0
VERTEX
  8
1
  6
CONTINUOUS
 62
     7
 10
-136.3455421617493
 20
215.9022433322552
  0
VERTEX
  8
1
  6
CONTINUOUS
 62
     7
 10
-136.3583645743411
 20
215.9175969450466
  0
VERTEX
  8
1
  6
CONTINUOUS
 62
     7
 10
-136.3724566267687
 20
215.9321430301861
  0
VERTEX
  8
1
  6
CONTINUOUS
 62
     7
 10
-136.3877668268515
 20
215.9457778821034
  0
VERTEX
  8
1
  6
CONTINUOUS
 62
     7
 10
-136.4000154915154
 20
215.955341109945
  0
VERTEX
  8
1
  6
CONTINUOUS
 62
     7
 10
-136.4128929225244
 20
215.9642836708816
  0
VERTEX
  8
1
  6
CONTINUOUS
 62
     7
 10
-136.4263725546389
 20
215.9725567581039
  0
VERTEX
  8
1
  6
CONTINUOUS
 62
     7
 10
-136.4333295022632
 20
215.9764265881786
  0
VERTEX
  8
1
  6
CONTINUOUS
 62
     7
 10
-136.4342090355455
 20
215.9768973470602
  0
VERTEX
  8
1
  6
CONTINUOUS
 62
     7
 10
-136.4346496199183
 20
215.9771316306919
  0
VERTEX
  8
1
  6
CONTINUOUS
 62
     7
 10
-136.43470473123
 20
215.9771608646638
  0
VERTEX
  8
1
  6
CONTINUOUS
 62
     7
 10
-136.4347185103857
 20
215.9771681713677
  0
VERTEX
  8
1
  6
CONTINUOUS
 62
     7
 10
-136.4347223686445
 20
215.9771702171165
  0
VERTEX
  8
1
  6
CONTINUOUS
 62
     7
 10
-136.4347289300932
 20
215.9771736516085
  0
SEQEND
  8
1
  6
CONTINUOUS
 62
     7
  0
LINE
  8
1
  6
CONTINUOUS
 62
     7
 10
-136.4347343221045
 20
215.9771764674149
 11
-137.3498257503684
 21
216.4546371645465
  0
LINE
  8
1
  6
CONTINUOUS
 62
     7
 10
-137.4042576528556
 20
216.8170664890618
 11
-136.4158300586348
 21
217.3340146489131
  0
POLYLINE
  8
1
  6
CONTINUOUS
 62
     7
 66
     1
  0
VERTEX
  8
1
  6
CONTINUOUS
 62
     7
 10
-136.4158300586348
 20
217.3340146489131
  0
VERTEX
  8
1
  6
CONTINUOUS
 62
     7
 10
-136.4010977143553
 20
217.3440279333322
  0
VERTEX
  8
1
  6
CONTINUOUS
 62
     7
 10
-136.3858831082334
 20
217.3559266181744
  0
VERTEX
  8
1
  6
CONTINUOUS
 62
     7
 10
-136.3715705524494
 20
217.3688176430106
  0
VERTEX
  8
1
  6
CONTINUOUS
 62
     7
 10
-136.3568452998838
 20
217.3841868191114
  0
VERTEX
  8
1
  6
CONTINUOUS
 62
     7
 10
-136.3434105094765
 20
217.4006057232879
  0
VERTEX
  8
1
  6
CONTINUOUS
 62
     7
 10
-136.3313619123398
 20
217.4179852572545
  0
VERTEX
  8
1
  6
CONTINUOUS
 62
     7
 10
-136.3207899884818
 20
217.4362331618487
  0
VERTEX
  8
1
  6
CONTINUOUS
 62
     7
 10
-136.3117472247685
 20
217.4552341516633
  0
VERTEX
  8
1
  6
CONTINUOUS
 62
     7
 10
-136.3042692483779
 20
217.4748627503537
  0
VERTEX
  8
1
  6
CONTINUOUS
 62
     7
 10
-136.2983915373615
 20
217.4949934362154
  0
VERTEX
  8
1
  6
CONTINUOUS
 62
     7
 10
-136.2941494921597
 20
217.5155006875444
  0
VERTEX
  8
1
  6
CONTINUOUS
 62
     7
 10
-136.2915784323862
 20
217.5362589826363
  0
VERTEX
  8
1
  6
CONTINUOUS
 62
     7
 10
-136.2907135936133
 20
217.557142799787
  0
VERTEX
  8
1
  6
CONTINUOUS
 62
     7
 10
-136.2915784230145
 20
217.5780266172922
  0
VERTEX
  8
1
  6
CONTINUOUS
 62
     7
 10
-136.2941494736148
 20
217.5987849134476
  0
VERTEX
  8
1
  6
CONTINUOUS
 62
     7
 10
-136.2983915098424
 20
217.6192921665489
  0
VERTEX
  8
1
  6
CONTINUOUS
 62
     7
 10
-136.3042692120837
 20
217.6394228548921
  0
VERTEX
  8
1
  6
CONTINUOUS
 62
     7
 10
-136.3117471798988
 20
217.6590514567727
  0
VERTEX
  8
1
  6
CONTINUOUS
 62
     7
 10
-136.3207899352365
 20
217.6780524504867
  0
VERTEX
  8
1
  6
CONTINUOUS
 62
     7
 10
-136.3313618509253
 20
217.6963003596854
  0
VERTEX
  8
1
  6
CONTINUOUS
 62
     7
 10
-136.3434104403223
 20
217.7136798988261
  0
VERTEX
  8
1
  6
CONTINUOUS
 62
     7
 10
-136.3568452235295
 20
217.73009880868
  0
VERTEX
  8
1
  6
CONTINUOUS
 62
     7
 10
-136.3715704694342
 20
217.7454679909615
  0
VERTEX
  8
1
  6
CONTINUOUS
 62
     7
 10
-136.3847581884785
 20
217.7574094876204
  0
VERTEX
  8
1
  6
CONTINUOUS
 62
     7
 10
-136.398720124748
 20
217.768508571481
  0
VERTEX
  8
1
  6
CONTINUOUS
 62
     7
 10
-136.4134008353245
 20
217.7787136810353
  0
VERTEX
  8
1
  6
CONTINUOUS
 62
     7
 10
-136.4248497083517
 20
217.7857498250928
  0
VERTEX
  8
1
  6
CONTINUOUS
 62
     7
 10
-136.4307067548409
 20
217.7890616505011
  0
VERTEX
  8
1
  6
CONTINUOUS
 62
     7
 10
-136.4336671512641
 20
217.7906648119596
  0
VERTEX
  8
1
  6
CONTINUOUS
 62
     7
 10
-136.4338528691775
 20
217.7907638303596
  0
VERTEX
  8
1
  6
CONTINUOUS
 62
     7
 10
-136.4339457585186
 20
217.790813287355
  0
VERTEX
  8
1
  6
CONTINUOUS
 62
     7
 10
-136.4339515647746
 20
217.7908163772613
  0
VERTEX
  8
1
  6
CONTINUOUS
 62
     7
 10
-136.4339548163125
 20
217.7908181075494
  0
VERTEX
  8
1
  6
CONTINUOUS
 62
     7
 10
-136.4339574247266
 20
217.7908194949676
  0
VERTEX
  8
1
  6
CONTINUOUS
 62
     7
 10
-136.6449834693177
 20
217.901036663621
  0
VERTEX
  8
1
  6
CONTINUOUS
 62
     7
 10
-137.3511364099936
 20
218.2695168178452
  0
SEQEND
  8
1
  6
CONTINUOUS
 62
     7
  0
LINE
  8
1
  6
CONTINUOUS
 62
     7
 10
-137.4051302327931
 20
218.6308143900282
 11
-136.4146278630457
 21
219.1489452337148
  0
POLYLINE
  8
1
  6
CONTINUOUS
 62
     7
 66
     1
  0
VERTEX
  8
1
  6
CONTINUOUS
 62
     7
 10
-136.4146278630457
 20
219.1489452337148
  0
VERTEX
  8
1
  6
CONTINUOUS
 62
     7
 10
-136.40218717033
 20
219.1573964074147
  0
VERTEX
  8
1
  6
CONTINUOUS
 62
     7
 10
-136.3872266322179
 20
219.168950012428
  0
VERTEX
  8
1
  6
CONTINUOUS
 62
     7
 10
-136.3729368863058
 20
219.1816350412407
  0
VERTEX
  8
1
  6
CONTINUOUS
 62
     7
 10
-136.3594231297978
 20
219.1954276678905
  0
VERTEX
  8
1
  6
CONTINUOUS
 62
     7
 10
-136.3467968737519
 20
219.2102991912609
  0
VERTEX
  8
1
  6
CONTINUOUS
 62
     7
 10
-136.3351761385852
 20
219.2262158458339
  0
VERTEX
  8
1
  6
CONTINUOUS
 62
     7
 10
-136.3246849894147
 20
219.2431382080561
  0
VERTEX
  8
1
  6
CONTINUOUS
 62
     7
 10
-136.315431842801
 20
219.2610077152286
  0
VERTEX
  8
1
  6
CONTINUOUS
 62
     7
 10
-136.307502611341
 20
219.2797421890409
  0
VERTEX
  8
1
  6
CONTINUOUS
 62
     7
 10
-136.3009847328899
 20
219.2992500976451
  0
VERTEX
  8
1
  6
CONTINUOUS
 62
     7
 10
-136.295968810303
 20
219.3194312225764
  0
VERTEX
  8
1
  6
CONTINUOUS
 62
     7
 10
-136.2925486832413
 20
219.3401763700783
  0
VERTEX
  8
1
  6
CONTINUOUS
 62
     7
 10
-136.2908215002943
 20
219.3613670787492
  0
VERTEX
  8
1
  6
CONTINUOUS
 62
     7
 10
-136.2908857774681
 20
219.3828753235128
  0
VERTEX
  8
1
  6
CONTINUOUS
 62
     7
 10
-136.2928036121791
 20
219.4045632159099
  0
VERTEX
  8
1
  6
CONTINUOUS
 62
     7
 10
-136.2966009616804
 20
219.4262827007141
  0
VERTEX
  8
1
  6
CONTINUOUS
 62
     7
 10
-136.3012174307712
 20
219.4442923555801
  0
VERTEX
  8
1
  6
CONTINUOUS
 62
     7
 10
-136.3071665133805
 20
219.4621166022171
  0
VERTEX
  8
1
  6
CONTINUOUS
 62
     7
 10
-136.3144588035038
 20
219.4796526651191
  0
VERTEX
  8
1
  6
CONTINUOUS
 62
     7
 10
-136.3231036927507
 20
219.4967923142787
  0
VERTEX
  8
1
  6
CONTINUOUS
 62
     7
 10
-136.3331087514709
 20
219.5134220892577
  0
VERTEX
  8
1
  6
CONTINUOUS
 62
     7
 10
-136.3444595688343
 20
219.5294353832306
  0
VERTEX
  8
1
  6
CONTINUOUS
 62
     7
 10
-136.3571132475743
 20
219.5447362414952
  0
VERTEX
  8
1
  6
CONTINUOUS
 62
     7
 10
-136.371021236089
 20
219.5592253517459
  0
VERTEX
  8
1
  6
CONTINUOUS
 62
     7
 10
-136.3861307808226
 20
219.5727990084125
  0
VERTEX
  8
1
  6
CONTINUOUS
 62
     7
 10
-136.3982173037802
 20
219.5823135702036
  0
VERTEX
  8
1
  6
CONTINUOUS
 62
     7
 10
-136.4109220110797
 20
219.591205091136
  0
VERTEX
  8
1
  6
CONTINUOUS
 62
     7
 10
-136.4242177990334
 20
219.5994247644006
  0
VERTEX
  8
1
  6
CONTINUOUS
 62
     7
 10
-136.4310784856383
 20
219.6032669972637
  0
VERTEX
  8
1
  6
CONTINUOUS
 62
     7
 10
-136.4319457779496
 20
219.6037342647643
  0
VERTEX
  8
1
  6
CONTINUOUS
 62
     7
 10
-136.4323802243179
 20
219.603966799228
  0
VERTEX
  8
1
  6
CONTINUOUS
 62
     7
 10
-136.4324345675566
 20
219.6039958143909
  0
VERTEX
  8
1
  6
CONTINUOUS
 62
     7
 10
-136.4324481546655
 20
219.6040030663868
  0
VERTEX
  8
1
  6
CONTINUOUS
 62
     7
 10
-136.4324519591491
 20
219.6040050968171
  0
VERTEX
  8
1
  6
CONTINUOUS
 62
     7
 10
-136.4324584980158
 20
219.6040085245688
  0
SEQEND
  8
1
  6
CONTINUOUS
 62
     7
  0
LINE
  8
1
  6
CONTINUOUS
 62
     7
 10
-136.4324639055835
 20
219.6040113502017
 11
-137.3499320897206
 21
220.0830548003951
  0
LINE
  8
1
  6
CONTINUOUS
 62
     7
 10
-137.4005601346602
 20
220.4474783428838
 11
-136.4124045474874
 21
220.9648191985151
  0
POLYLINE
  8
1
  6
CONTINUOUS
 62
     7
 66
     1
  0
VERTEX
  8
1
  6
CONTINUOUS
 62
     7
 10
-136.4124045474874
 20
220.9648191985151
  0
VERTEX
  8
1
  6
CONTINUOUS
 62
     7
 10
-136.4002981838843
 20
220.9731100716942
  0
VERTEX
  8
1
  6
CONTINUOUS
 62
     7
 10
-136.3855327859654
 20
220.9846027263597
  0
VERTEX
  8
1
  6
CONTINUOUS
 62
     7
 10
-136.3714229446278
 20
220.997233000917
  0
VERTEX
  8
1
  6
CONTINUOUS
 62
     7
 10
-136.3580753853413
 20
221.0109770694043
  0
VERTEX
  8
1
  6
CONTINUOUS
 62
     7
 10
-136.3456031936579
 20
221.0258062307048
  0
VERTEX
  8
1
  6
CONTINUOUS
 62
     7
 10
-136.3341260106
 20
221.0416867193006
  0
VERTEX
  8
1
  6
CONTINUOUS
 62
     7
 10
-136.3237695675115
 20
221.0585791116383
  0
VERTEX
  8
1
  6
CONTINUOUS
 62
     7
 10
-136.3146439903881
 20
221.0764248450188
  0
VERTEX
  8
1
  6
CONTINUOUS
 62
     7
 10
-136.3068369441474
 20
221.095141741132
  0
VERTEX
  8
1
  6
CONTINUOUS
 62
     7
 10
-136.3004376630569
 20
221.1146382681295
  0
VERTEX
  8
1
  6
CONTINUOUS
 62
     7
 10
-136.2955385886106
 20
221.134814207547
  0
VERTEX
  8
1
  6
CONTINUOUS
 62
     7
 10
-136.2922354389359
 20
221.1555603656277
  0
VERTEX
  8
1
  6
CONTINUOUS
 62
     7
 10
-136.2906272781076
 20
221.1767582809701
  0
VERTEX
  8
1
  6
CONTINUOUS
 62
     7
 10
-136.2908145713739
 20
221.1982799284978
  0
VERTEX
  8
1
  6
CONTINUOUS
 62
     7
 10
-136.2928613957604
 20
221.2199874197517
  0
VERTEX
  8
1
  6
CONTINUOUS
 62
     7
 10
-136.2967957169047
 20
221.2417326995053
  0
VERTEX
  8
1
  6
CONTINUOUS
 62
     7
 10
-136.30153389348
 20
221.259768583289
  0
VERTEX
  8
1
  6
CONTINUOUS
 62
     7
 10
-136.3076128284811
 20
221.2776233616856
  0
VERTEX
  8
1
  6
CONTINUOUS
 62
     7
 10
-136.3150443144743
 20
221.2951942591895
  0
VERTEX
  8
1
  6
CONTINUOUS
 62
     7
 10
-136.323838949167
 20
221.312373045793
  0
VERTEX
  8
1
  6
CONTINUOUS
 62
     7
 10
-136.3340055149054
 20
221.3290462610581
  0
VERTEX
  8
1
  6
CONTINUOUS
 62
     7
 10
-136.3455308191815
 20
221.3451072981593
  0
VERTEX
  8
1
  6
CONTINUOUS
 62
     7
 10
-136.3583731903467
 20
221.3604602023943
  0
VERTEX
  8
1
  6
CONTINUOUS
 62
     7
 10
-136.3724853077522
 20
221.3750056614575
  0
VERTEX
  8
1
  6
CONTINUOUS
 62
     7
 10
-136.3878156534338
 20
221.3886399697787
  0
VERTEX
  8
1
  6
CONTINUOUS
 62
     7
 10
-136.4000794638353
 20
221.3982028440509
  0
VERTEX
  8
1
  6
CONTINUOUS
 62
     7
 10
-136.4129720585304
 20
221.4071450978132
  0
VERTEX
  8
1
  6
CONTINUOUS
 62
     7
 10
-136.4264668597391
 20
221.4154179242562
  0
VERTEX
  8
1
  6
CONTINUOUS
 62
     7
 10
-136.4334313898938
 20
221.4192876413394
  0
VERTEX
  8
1
  6
CONTINUOUS
 62
     7
 10
-136.4343118707767
 20
221.4197583869126
  0
VERTEX
  8
1
  6
CONTINUOUS
 62
     7
 10
-136.4347529289279
 20
221.4199926639581
  0
VERTEX
  8
1
  6
CONTINUOUS
 62
     7
 10
-136.4348080994609
 20
221.4200218971099
  0
VERTEX
  8
1
  6
CONTINUOUS
 62
     7
 10
-136.4348218934219
 20
221.4200292036089
  0
VERTEX
  8
1
  6
CONTINUOUS
 62
     7
 10
-136.4348257558261
 20
221.4200312493004
  0
VERTEX
  8
1
  6
CONTINUOUS
 62
     7
 10
-136.4348323190497
 20
221.4200346837671
  0
SEQEND
  8
1
  6
CONTINUOUS
 62
     7
  0
LINE
  8
1
  6
CONTINUOUS
 62
     7
 10
-136.4348377098766
 20
221.4200374985897
 11
-137.3498217035486
 21
221.8973891772245
  0
LINE
  8
1
  6
CONTINUOUS
 62
     7
 10
-137.5240623103825
 20
222.2278031418396
 11
-136.4837783023288
 21
222.749428627953
  0
LINE
  8
1
  6
CONTINUOUS
 62
     7
 10
-136.4837783023287
 20
222.749428627953
 11
-136.2902841440357
 21
223.0000000025806
  0
LINE
  8
1
  6
CONTINUOUS
 62
     7
 10
-155.9323963867021
 20
222.831195046623
 11
-156.9206804187386
 21
222.3138627545786
  0
POLYLINE
  8
1
  6
CONTINUOUS
 62
     7
 66
     1
  0
VERTEX
  8
1
  6
CONTINUOUS
 62
     7
 10
-156.9206804187386
 20
222.3138627545786
  0
VERTEX
  8
1
  6
CONTINUOUS
 62
     7
 10
-156.9328260567144
 20
222.3055580888391
  0
VERTEX
  8
1
  6
CONTINUOUS
 62
     7
 10
-156.947615866175
 20
222.2940645750089
  0
VERTEX
  8
1
  6
CONTINUOUS
 62
     7
 10
-156.9617507236533
 20
222.2814333884544
  0
VERTEX
  8
1
  6
CONTINUOUS
 62
     7
 10
-156.9751238481365
 20
222.2676883551545
  0
VERTEX
  8
1
  6
CONTINUOUS
 62
     7
 10
-156.9876220922828
 20
222.252858176243
  0
VERTEX
  8
1
  6
CONTINUOUS
 62
     7
 10
-156.9991257467447
 20
222.236976617255
  0
VERTEX
  8
1
  6
CONTINUOUS
 62
     7
 10
-157.0095090050621
 20
222.2200831017786
  0
VERTEX
  8
1
  6
CONTINUOUS
 62
     7
 10
-157.0186616591905
 20
222.2022361926703
  0
VERTEX
  8
1
  6
CONTINUOUS
 62
     7
 10
-157.026495954903
 20
222.1835180682959
  0
VERTEX
  8
1
  6
CONTINUOUS
 62
     7
 10
-157.0329225615812
 20
222.1640202605292
  0
VERTEX
  8
1
  6
CONTINUOUS
 62
     7
 10
-157.0378489342458
 20
222.143842987861
  0
VERTEX
  8
1
  6
CONTINUOUS
 62
     7
 10
-157.0411792440166
 20
222.1230954440743
  0
VERTEX
  8
1
  6
CONTINUOUS
 62
     7
 10
-157.0428143086906
 20
222.1018960905973
  0
VERTEX
  8
1
  6
CONTINUOUS
 62
     7
 10
-157.0426535375239
 20
222.0803729525335
  0
VERTEX
  8
1
  6
CONTINUOUS
 62
     7
 10
-157.0406327213934
 20
222.0586639183694
  0
VERTEX
  8
1
  6
CONTINUOUS
 62
     7
 10
-157.0367237559107
 20
222.0369170433594
  0
VERTEX
  8
1
  6
CONTINUOUS
 62
     7
 10
-157.0320061058592
 20
222.0188797902289
  0
VERTEX
  8
1
  6
CONTINUOUS
 62
     7
 10
-157.0259470557592
 20
222.0010236061697
  0
VERTEX
  8
1
  6
CONTINUOUS
 62
     7
 10
-157.0185347223434
 20
221.9834512667043
  0
VERTEX
  8
1
  6
CONTINUOUS
 62
     7
 10
-157.0097584141388
 20
221.9662710018567
  0
VERTEX
  8
1
  6
CONTINUOUS
 62
     7
 10
-156.9996092520605
 20
221.9495962720669
  0
VERTEX
  8
1
  6
CONTINUOUS
 62
     7
 10
-156.9881003297169
 20
221.9335336840441
  0
VERTEX
  8
1
  6
CONTINUOUS
 62
     7
 10
-156.975273217809
 20
221.9181791924731
  0
VERTEX
  8
1
  6
CONTINUOUS
 62
     7
 10
-156.9611751543339
 20
221.9036321096721
  0
VERTEX
  8
1
  6
CONTINUOUS
 62
     7
 10
-156.9458576263811
 20
221.8899961412234
  0
VERTEX
  8
1
  6
CONTINUOUS
 62
     7
 10
-156.9336026053589
 20
221.8804319979826
  0
VERTEX
  8
1
  6
CONTINUOUS
 62
     7
 10
-156.9207180848164
 20
221.8714884547951
  0
VERTEX
  8
1
  6
CONTINUOUS
 62
     7
 10
-156.9072306351381
 20
221.8632143184754
  0
VERTEX
  8
1
  6
CONTINUOUS
 62
     7
 10
-156.9002695076348
 20
221.8593439387864
  0
VERTEX
  8
1
  6
CONTINUOUS
 62
     7
 10
-156.8993894392226
 20
221.858873110028
  0
VERTEX
  8
1
  6
CONTINUOUS
 62
     7
 10
-156.8989485862332
 20
221.8586387913601
  0
VERTEX
  8
1
  6
CONTINUOUS
 62
     7
 10
-156.8988934412951
 20
221.858609553004
  0
VERTEX
  8
1
  6
CONTINUOUS
 62
     7
 10
-156.8988796537311
 20
221.8586022452039
  0
VERTEX
  8
1
  6
CONTINUOUS
 62
     7
 10
-156.8988757931179
 20
221.8586001991482
  0
VERTEX
  8
1
  6
CONTINUOUS
 62
     7
 10
-156.8988684813423
 20
221.8585963741638
  0
SEQEND
  8
1
  6
CONTINUOUS
 62
     7
  0
LINE
  8
1
  6
CONTINUOUS
 62
     7
 10
-156.8988630897277
 20
221.8585935587899
 11
-155.9835045421997
 21
221.3810366111445
  0
LINE
  8
1
  6
CONTINUOUS
 62
     7
 10
-155.9291735719321
 20
221.0185646113837
 11
-156.9176502660621
 21
220.5016125261781
  0
POLYLINE
  8
1
  6
CONTINUOUS
 62
     7
 66
     1
  0
VERTEX
  8
1
  6
CONTINUOUS
 62
     7
 10
-156.9176502660621
 20
220.501612526178
  0
VERTEX
  8
1
  6
CONTINUOUS
 62
     7
 10
-156.9323880319679
 20
220.4915979580877
  0
VERTEX
  8
1
  6
CONTINUOUS
 62
     7
 10
-156.9476071377218
 20
220.4796986519972
  0
VERTEX
  8
1
  6
CONTINUOUS
 62
     7
 10
-156.9619239921778
 20
220.4668070063222
  0
VERTEX
  8
1
  6
CONTINUOUS
 62
     7
 10
-156.9766537484954
 20
220.4514371425429
  0
VERTEX
  8
1
  6
CONTINUOUS
 62
     7
 10
-156.9900927395689
 20
220.4350175511912
  0
VERTEX
  8
1
  6
CONTINUOUS
 62
     7
 10
-157.0021452046134
 20
220.4176373305526
  0
VERTEX
  8
1
  6
CONTINUOUS
 62
     7
 10
-157.0127206341282
 20
220.3993887398561
  0
VERTEX
  8
1
  6
CONTINUOUS
 62
     7
 10
-157.0217665125787
 20
220.3803870646444
  0
VERTEX
  8
1
  6
CONTINUOUS
 62
     7
 10
-157.0292471843537
 20
220.3607577812659
  0
VERTEX
  8
1
  6
CONTINUOUS
 62
     7
 10
-157.0351271431873
 20
220.3406264114249
  0
VERTEX
  8
1
  6
CONTINUOUS
 62
     7
 10
-157.0393709607
 20
220.3201184768257
  0
VERTEX
  8
1
  6
CONTINUOUS
 62
     7
 10
-157.0419432896664
 20
220.2993594991725
  0
VERTEX
  8
1
  6
CONTINUOUS
 62
     7
 10
-157.0428088672847
 20
220.2784750001695
  0
VERTEX
  8
1
  6
CONTINUOUS
 62
     7
 10
-157.0419442200013
 20
220.257590501521
  0
VERTEX
  8
1
  6
CONTINUOUS
 62
     7
 10
-157.0393727697575
 20
220.2368315249312
  0
VERTEX
  8
1
  6
CONTINUOUS
 62
     7
 10
-157.0351297276357
 20
220.2163235921044
  0
VERTEX
  8
1
  6
CONTINUOUS
 62
     7
 10
-157.02925038931
 20
220.1961922247448
  0
VERTEX
  8
1
  6
CONTINUOUS
 62
     7
 10
-157.0217701318499
 20
220.1765629445567
  0
VERTEX
  8
1
  6
CONTINUOUS
 62
     7
 10
-157.0127244105219
 20
220.1575612732443
  0
VERTEX
  8
1
  6
CONTINUOUS
 62
     7
 10
-157.0021488303208
 20
220.1393126871522
  0
VERTEX
  8
1
  6
CONTINUOUS
 62
     7
 10
-156.990095856825
 20
220.1219324716878
  0
VERTEX
  8
1
  6
CONTINUOUS
 62
     7
 10
-156.9766559499663
 20
220.1055128860135
  0
VERTEX
  8
1
  6
CONTINUOUS
 62
     7
 10
-156.961924821371
 20
220.0901430284149
  0
VERTEX
  8
1
  6
CONTINUOUS
 62
     7
 10
-156.9487316065245
 20
220.078200969376
  0
VERTEX
  8
1
  6
CONTINUOUS
 62
     7
 10
-156.9347636233379
 20
220.067101323485
  0
VERTEX
  8
1
  6
CONTINUOUS
 62
     7
 10
-156.9200763041273
 20
220.0568956522498
  0
VERTEX
  8
1
  6
CONTINUOUS
 62
     7
 10
-156.9086220997127
 20
220.0498590871609
  0
VERTEX
  8
1
  6
CONTINUOUS
 62
     7
 10
-156.9027622654785
 20
220.0465470513107
  0
VERTEX
  8
1
  6
CONTINUOUS
 62
     7
 10
-156.8998004444334
 20
220.0449437846497
  0
VERTEX
  8
1
  6
CONTINUOUS
 62
     7
 10
-156.8996146367981
 20
220.0448447596748
  0
VERTEX
  8
1
  6
CONTINUOUS
 62
     7
 10
-156.899521702566
 20
220.0447952993921
  0
VERTEX
  8
1
  6
CONTINUOUS
 62
     7
 10
-156.8995158935036
 20
220.0447922092804
  0
VERTEX
  8
1
  6
CONTINUOUS
 62
     7
 10
-156.8995126403941
 20
220.0447904788772
  0
VERTEX
  8
1
  6
CONTINUOUS
 62
     7
 10
-156.8995092815329
 20
220.0447887010115
  0
VERTEX
  8
1
  6
CONTINUOUS
 62
     7
 10
-156.6884674546901
 20
219.9345705844006
  0
VERTEX
  8
1
  6
CONTINUOUS
 62
     7
 10
-155.9821973204669
 20
219.5660577970996
  0
SEQEND
  8
1
  6
CONTINUOUS
 62
     7
  0
LINE
  8
1
  6
CONTINUOUS
 62
     7
 10
-155.927814982743
 20
219.2049686727912
 11
-156.91837819438
 21
218.686850313056
  0
POLYLINE
  8
1
  6
CONTINUOUS
 62
     7
 66
     1
  0
VERTEX
  8
1
  6
CONTINUOUS
 62
     7
 10
-156.91837819438
 20
218.686850313056
  0
VERTEX
  8
1
  6
CONTINUOUS
 62
     7
 10
-156.9308382745697
 20
218.6783949954044
  0
VERTEX
  8
1
  6
CONTINUOUS
 62
     7
 10
-156.9458137203431
 20
218.6668425732854
  0
VERTEX
  8
1
  6
CONTINUOUS
 62
     7
 10
-156.9601190385864
 20
218.6541587991097
  0
VERTEX
  8
1
  6
CONTINUOUS
 62
     7
 10
-156.9736490453756
 20
218.6403674988562
  0
VERTEX
  8
1
  6
CONTINUOUS
 62
     7
 10
-156.9862922417633
 20
218.6254973736585
  0
VERTEX
  8
1
  6
CONTINUOUS
 62
     7
 10
-156.9979306181343
 20
218.609582189052
  0
VERTEX
  8
1
  6
CONTINUOUS
 62
     7
 10
-157.0084401187335
 20
218.5926613686246
  0
VERTEX
  8
1
  6
CONTINUOUS
 62
     7
 10
-157.017712334546
 20
218.5747934752328
  0
VERTEX
  8
1
  6
CONTINUOUS
 62
     7
 10
-157.0256613582674
 20
218.5560606872426
  0
VERTEX
  8
1
  6
CONTINUOUS
 62
     7
 10
-157.0321997556753
 20
218.5365545365276
  0
VERTEX
  8
1
  6
CONTINUOUS
 62
     7
 10
-157.0372369258608
 20
218.5163752415785
  0
VERTEX
  8
1
  6
CONTINUOUS
 62
     7
 10
-157.0406790293062
 20
218.4956319961786
  0
VERTEX
  8
1
  6
CONTINUOUS
 62
     7
 10
-157.0424289156436
 20
218.4744432617559
  0
VERTEX
  8
1
  6
CONTINUOUS
 62
     7
 10
-157.0423880650905
 20
218.4529370634139
  0
VERTEX
  8
1
  6
CONTINUOUS
 62
     7
 10
-157.0404943744238
 20
218.4312512896393
  0
VERTEX
  8
1
  6
CONTINUOUS
 62
     7
 10
-157.036721878373
 20
218.4095339956862
  0
VERTEX
  8
1
  6
CONTINUOUS
 62
     7
 10
-157.0321266554662
 20
218.3915262217243
  0
VERTEX
  8
1
  6
CONTINUOUS
 62
     7
 10
-157.0261992985385
 20
218.3737039061861
  0
VERTEX
  8
1
  6
CONTINUOUS
 62
     7
 10
-157.01892920636
 20
218.3561698245942
  0
VERTEX
  8
1
  6
CONTINUOUS
 62
     7
 10
-157.010306979307
 20
218.3390322069726
  0
VERTEX
  8
1
  6
CONTINUOUS
 62
     7
 10
-157.0003250382694
 20
218.3224045137611
  0
VERTEX
  8
1
  6
CONTINUOUS
 62
     7
 10
-156.9889977849907
 20
218.3063933516692
  0
VERTEX
  8
1
  6
CONTINUOUS
 62
     7
 10
-156.9763681073111
 20
218.2910946753816
  0
VERTEX
  8
1
  6
CONTINUOUS
 62
     7
 10
-156.9624845471395
 20
218.2766077972163
  0
VERTEX
  8
1
  6
CONTINUOUS
 62
     7
 10
-156.947399848179
 20
218.2630364227559
  0
VERTEX
  8
1
  6
CONTINUOUS
 62
     7
 10
-156.9353322275123
 20
218.2535236055189
  0
VERTEX
  8
1
  6
CONTINUOUS
 62
     7
 10
-156.9226466475198
 20
218.2446338573459
  0
VERTEX
  8
1
  6
CONTINUOUS
 62
     7
 10
-156.9093702077088
 20
218.2364159850515
  0
VERTEX
  8
1
  6
CONTINUOUS
 62
     7
 10
-156.9025192766925
 20
218.2325746632541
  0
VERTEX
  8
1
  6
CONTINUOUS
 62
     7
 10
-156.9016532076132
 20
218.2321075101329
  0
VERTEX
  8
1
  6
CONTINUOUS
 62
     7
 10
-156.901219373175
 20
218.2318750329001
  0
VERTEX
  8
1
  6
CONTINUOUS
 62
     7
 10
-156.9011651064423
 20
218.231846024893
  0
VERTEX
  8
1
  6
CONTINUOUS
 62
     7
 10
-156.9011515384604
 20
218.2318387746861
  0
VERTEX
  8
1
  6
CONTINUOUS
 62
     7
 10
-156.9011477393324
 20
218.2318367447568
  0
VERTEX
  8
1
  6
CONTINUOUS
 62
     7
 10
-156.9011404533642
 20
218.2318329268681
  0
SEQEND
  8
1
  6
CONTINUOUS
 62
     7
  0
LINE
  8
1
  6
CONTINUOUS
 62
     7
 10
-156.9011350442171
 20
218.2318301000685
 11
-155.9833924642124
 21
217.7525915922774
  0
LINE
  8
1
  6
CONTINUOUS
 62
     7
 10
-155.932641542919
 20
217.3881788278187
 11
-156.9207089606354
 21
216.8708300258259
  0
POLYLINE
  8
1
  6
CONTINUOUS
 62
     7
 66
     1
  0
VERTEX
  8
1
  6
CONTINUOUS
 62
     7
 10
-156.9207089606354
 20
216.8708300258259
  0
VERTEX
  8
1
  6
CONTINUOUS
 62
     7
 10
-156.9328165503371
 20
216.8625339772125
  0
VERTEX
  8
1
  6
CONTINUOUS
 62
     7
 10
-156.9475751560674
 20
216.8510403807907
  0
VERTEX
  8
1
  6
CONTINUOUS
 62
     7
 10
-156.9616784571679
 20
216.8384092401339
  0
VERTEX
  8
1
  6
CONTINUOUS
 62
     7
 10
-156.9750197631174
 20
216.8246643812209
  0
VERTEX
  8
1
  6
CONTINUOUS
 62
     7
 10
-156.9874860233455
 20
216.8098345051854
  0
VERTEX
  8
1
  6
CONTINUOUS
 62
     7
 10
-156.998957631751
 20
216.7939533775628
  0
VERTEX
  8
1
  6
CONTINUOUS
 62
     7
 10
-157.0093088917597
 20
216.7770604219408
  0
VERTEX
  8
1
  6
CONTINUOUS
 62
     7
 10
-157.0184297115063
 20
216.7592142011763
  0
VERTEX
  8
1
  6
CONTINUOUS
 62
     7
 10
-157.026232458844
 20
216.7404968936348
  0
VERTEX
  8
1
  6
CONTINUOUS
 62
     7
 10
-157.0326279314769
 20
216.7210000311904
  0
VERTEX
  8
1
  6
CONTINUOUS
 62
     7
 10
-157.0375237190411
 20
216.7008238323335
  0
VERTEX
  8
1
  6
CONTINUOUS
 62
     7
 10
-157.0408241335621
 20
216.6800774908474
  0
VERTEX
  8
1
  6
CONTINUOUS
 62
     7
 10
-157.0424301399992
 20
216.6588794681601
  0
VERTEX
  8
1
  6
CONTINUOUS
 62
     7
 10
-157.0422413008793
 20
216.6373577893754
  0
VERTEX
  8
1
  6
CONTINUOUS
 62
     7
 10
-157.0401935647237
 20
216.6156503429796
  0
VERTEX
  8
1
  6
CONTINUOUS
 62
     7
 10
-157.0362589885284
 20
216.593905184227
  0
VERTEX
  8
1
  6
CONTINUOUS
 62
     7
 10
-157.0315211160485
 20
216.5758694594626
  0
VERTEX
  8
1
  6
CONTINUOUS
 62
     7
 10
-157.0254429665068
 20
216.558014892998
  0
VERTEX
  8
1
  6
CONTINUOUS
 62
     7
 10
-157.0180127572415
 20
216.5404442603559
  0
VERTEX
  8
1
  6
CONTINUOUS
 62
     7
 10
-157.0092198993958
 20
216.5232657915603
  0
VERTEX
  8
1
  6
CONTINUOUS
 62
     7
 10
-156.9990556183864
 20
216.506592947051
  0
VERTEX
  8
1
  6
CONTINUOUS
 62
     7
 10
-156.9875331129987
 20
216.4905323335373
  0
VERTEX
  8
1
  6
CONTINUOUS
 62
     7
 10
-156.9746940591413
 20
216.4751799057041
  0
VERTEX
  8
1
  6
CONTINUOUS
 62
     7
 10
-156.9605857804194
 20
216.4606349758695
  0
VERTEX
  8
1
  6
CONTINUOUS
 62
     7
 10
-156.945259796533
 20
216.4470012496158
  0
VERTEX
  8
1
  6
CONTINUOUS
 62
     7
 10
-156.9329996011246
 20
216.4374388465775
  0
VERTEX
  8
1
  6
CONTINUOUS
 62
     7
 10
-156.9201109157529
 20
216.4284970937836
  0
VERTEX
  8
1
  6
CONTINUOUS
 62
     7
 10
-156.90662031758
 20
216.4202247980488
  0
VERTEX
  8
1
  6
CONTINUOUS
 62
     7
 10
-156.8996579987882
 20
216.4163553574737
  0
VERTEX
  8
1
  6
CONTINUOUS
 62
     7
 10
-156.8987777994637
 20
216.4158846469869
  0
VERTEX
  8
1
  6
CONTINUOUS
 62
     7
 10
-156.8983368825195
 20
216.4156503875282
  0
VERTEX
  8
1
  6
CONTINUOUS
 62
     7
 10
-156.8982817296574
 20
216.4156211565768
  0
VERTEX
  8
1
  6
CONTINUOUS
 62
     7
 10
-156.8982679401149
 20
216.415613850628
  0
VERTEX
  8
1
  6
CONTINUOUS
 62
     7
 10
-156.8982640789478
 20
216.4156118050906
  0
VERTEX
  8
1
  6
CONTINUOUS
 62
     7
 10
-156.8982567672641
 20
216.4156079803343
  0
SEQEND
  8
1
  6
CONTINUOUS
 62
     7
  0
LINE
  8
1
  6
CONTINUOUS
 62
     7
 10
-156.898251376473
 20
216.415605165385
 11
-155.9835156279177
 21
215.9383567712049
  0
LINE
  8
1
  6
CONTINUOUS
 62
     7
 10
-155.9291292601403
 20
215.5759002106185
 11
-156.9176437681982
 21
215.0589489280193
  0
POLYLINE
  8
1
  6
CONTINUOUS
 62
     7
 66
     1
  0
VERTEX
  8
1
  6
CONTINUOUS
 62
     7
 10
-156.9176437681982
 20
215.0589489280193
  0
VERTEX
  8
1
  6
CONTINUOUS
 62
     7
 10
-156.9323851682069
 20
215.0489335573221
  0
VERTEX
  8
1
  6
CONTINUOUS
 62
     7
 10
-156.9476063853924
 20
215.0370342512315
  0
VERTEX
  8
1
  6
CONTINUOUS
 62
     7
 10
-156.9619249043978
 20
215.0241426055564
  0
VERTEX
  8
1
  6
CONTINUOUS
 62
     7
 10
-156.9766560263311
 20
215.0087727417771
  0
VERTEX
  8
1
  6
CONTINUOUS
 62
     7
 10
-156.9900959259882
 20
214.9923531504253
  0
VERTEX
  8
1
  6
CONTINUOUS
 62
     7
 10
-157.0021488917431
 20
214.9749729297867
  0
VERTEX
  8
1
  6
CONTINUOUS
 62
     7
 10
-157.0127244637737
 20
214.9567243390902
  0
VERTEX
  8
1
  6
CONTINUOUS
 62
     7
 10
-157.0217701767247
 20
214.9377226638784
  0
VERTEX
  8
1
  6
CONTINUOUS
 62
     7
 10
-157.029250425608
 20
214.9180933804998
  0
VERTEX
  8
1
  6
CONTINUOUS
 62
     7
 10
-157.0351297551575
 20
214.8979620106588
  0
VERTEX
  8
1
  6
CONTINUOUS
 62
     7
 10
-157.0393727883039
 20
214.8774540760596
  0
VERTEX
  8
1
  6
CONTINUOUS
 62
     7
 10
-157.0419442293733
 20
214.8566950984063
  0
VERTEX
  8
1
  6
CONTINUOUS
 62
     7
 10
-157.0428088672839
 20
214.8358105994033
  0
VERTEX
  8
1
  6
CONTINUOUS
 62
     7
 10
-157.0419432802927
 20
214.8149261007547
  0
VERTEX
  8
1
  6
CONTINUOUS
 62
     7
 10
-157.039370942152
 20
214.7941671241649
  0
VERTEX
  8
1
  6
CONTINUOUS
 62
     7
 10
-157.0351271156641
 20
214.773659191338
  0
VERTEX
  8
1
  6
CONTINUOUS
 62
     7
 10
-157.0292471480545
 20
214.7535278239784
  0
VERTEX
  8
1
  6
CONTINUOUS
 62
     7
 10
-157.0217664677031
 20
214.7338985437902
  0
VERTEX
  8
1
  6
CONTINUOUS
 62
     7
 10
-157.012720580876
 20
214.7148968724778
  0
VERTEX
  8
1
  6
CONTINUOUS
 62
     7
 10
-157.0021451431912
 20
214.6966482863856
  0
VERTEX
  8
1
  6
CONTINUOUS
 62
     7
 10
-156.9900926704063
 20
214.6792680709212
  0
VERTEX
  8
1
  6
CONTINUOUS
 62
     7
 10
-156.9766536721318
 20
214.6628484852468
  0
VERTEX
  8
1
  6
CONTINUOUS
 62
     7
 10
-156.9619239091528
 20
214.6474786276482
  0
VERTEX
  8
1
  6
CONTINUOUS
 62
     7
 10
-156.9487322165344
 20
214.6355365686093
  0
VERTEX
  8
1
  6
CONTINUOUS
 62
     7
 10
-156.934766134575
 20
214.6244369227182
  0
VERTEX
  8
1
  6
CONTINUOUS
 62
     7
 10
-156.9200811231661
 20
214.6142312514829
  0
VERTEX
  8
1
  6
CONTINUOUS
 62
     7
 10
-156.9086289328551
 20
214.607194686394
  0
VERTEX
  8
1
  6
CONTINUOUS
 62
     7
 10
-156.9027702007702
 20
214.6038826505438
  0
VERTEX
  8
1
  6
CONTINUOUS
 62
     7
 10
-156.8998089551964
 20
214.6022793838828
  0
VERTEX
  8
1
  6
CONTINUOUS
 62
     7
 10
-156.8996231840742
 20
214.6021803589079
  0
VERTEX
  8
1
  6
CONTINUOUS
 62
     7
 10
-156.8995302681227
 20
214.6021308986252
  0
VERTEX
  8
1
  6
CONTINUOUS
 62
     7
 10
-156.8995244602034
 20
214.6021278085134
  0
VERTEX
  8
1
  6
CONTINUOUS
 62
     7
 10
-156.899521207734
 20
214.6021260781103
  0
VERTEX
  8
1
  6
CONTINUOUS
 62
     7
 10
-156.8995178493751
 20
214.6021243002446
  0
VERTEX
  8
1
  6
CONTINUOUS
 62
     7
 10
-156.6884816479085
 20
214.4919061836336
  0
VERTEX
  8
1
  6
CONTINUOUS
 62
     7
 10
-155.9821967785538
 20
214.1233713733729
  0
SEQEND
  8
1
  6
CONTINUOUS
 62
     7
  0
LINE
  8
1
  6
CONTINUOUS
 62
     7
 10
-155.9283582808684
 20
213.761997976224
 11
-156.9189956278698
 21
213.2438474393707
  0
POLYLINE
  8
1
  6
CONTINUOUS
 62
     7
 66
     1
  0
VERTEX
  8
1
  6
CONTINUOUS
 62
     7
 10
-156.9189956278698
 20
213.2438474393707
  0
VERTEX
  8
1
  6
CONTINUOUS
 62
     7
 10
-156.9314478458737
 20
213.2353916664294
  0
VERTEX
  8
1
  6
CONTINUOUS
 62
     7
 10
-156.9500557374177
 20
213.2207704330011
  0
VERTEX
  8
1
  6
CONTINUOUS
 62
     7
 10
-156.967572840508
 20
213.2043906390456
  0
VERTEX
  8
1
  6
CONTINUOUS
 62
     7
 10
-156.9837890734737
 20
213.1863023731213
  0
VERTEX
  8
1
  6
CONTINUOUS
 62
     7
 10
-156.9984788032032
 20
213.1665678568353
  0
VERTEX
  8
1
  6
CONTINUOUS
 62
     7
 10
-157.0089701959438
 20
213.1496452607964
  0
VERTEX
  8
1
  6
CONTINUOUS
 62
     7
 10
-157.0182224645405
 20
213.1317757334722
  0
VERTEX
  8
1
  6
CONTINUOUS
 62
     7
 10
-157.0261497608324
 20
213.1130414532286
  0
VERTEX
  8
1
  6
CONTINUOUS
 62
     7
 10
-157.0326647138642
 20
213.0935339519391
  0
VERTEX
  8
1
  6
CONTINUOUS
 62
     7
 10
-157.0376767901568
 20
213.0733534480946
  0
VERTEX
  8
1
  6
CONTINUOUS
 62
     7
 10
-157.041092221903
 20
213.0526091354782
  0
VERTEX
  8
1
  6
CONTINUOUS
 62
     7
 10
-157.042813934835
 20
213.031419475518
  0
VERTEX
  8
1
  6
CONTINUOUS
 62
     7
 10
-157.0427434898314
 20
213.0099124933176
  0
VERTEX
  8
1
  6
CONTINUOUS
 62
     7
 10
-157.0408188701362
 20
212.9882260773635
  0
VERTEX
  8
1
  6
CONTINUOUS
 62
     7
 10
-157.0370142022094
 20
212.9665082829099
  0
VERTEX
  8
1
  6
CONTINUOUS
 62
     7
 10
-157.0323912888446
 20
212.9485002000912
  0
VERTEX
  8
1
  6
CONTINUOUS
 62
     7
 10
-157.0264355019302
 20
212.9306776740844
  0
VERTEX
  8
1
  6
CONTINUOUS
 62
     7
 10
-157.0191362992129
 20
212.9131434804121
  0
VERTEX
  8
1
  6
CONTINUOUS
 62
     7
 10
-157.0104843417053
 20
212.8960058490983
  0
VERTEX
  8
1
  6
CONTINUOUS
 62
     7
 10
-157.0004721125385
 20
212.8793782405829
  0
VERTEX
  8
1
  6
CONTINUOUS
 62
     7
 10
-156.9891140774544
 20
212.8633672615751
  0
VERTEX
  8
1
  6
CONTINUOUS
 62
     7
 10
-156.9764531897164
 20
212.8480688667599
  0
VERTEX
  8
1
  6
CONTINUOUS
 62
     7
 10
-156.9625380574641
 20
212.8335823684551
  0
VERTEX
  8
1
  6
CONTINUOUS
 62
     7
 10
-156.9474214912711
 20
212.8200114722434
  0
VERTEX
  8
1
  6
CONTINUOUS
 62
     7
 10
-156.9353298169986
 20
212.8104990782602
  0
VERTEX
  8
1
  6
CONTINUOUS
 62
     7
 10
-156.922620083825
 20
212.8016098086843
  0
VERTEX
  8
1
  6
CONTINUOUS
 62
     7
 10
-156.9093194198971
 20
212.7933924703305
  0
VERTEX
  8
1
  6
CONTINUOUS
 62
     7
 10
-156.9024563591847
 20
212.7895514362571
  0
VERTEX
  8
1
  6
CONTINUOUS
 62
     7
 10
-156.9015887733293
 20
212.7890843200742
  0
VERTEX
  8
1
  6
CONTINUOUS
 62
     7
 10
-156.9011541804645
 20
212.7888518613917
  0
VERTEX
  8
1
  6
CONTINUOUS
 62
     7
 10
-156.9010998189267
 20
212.7888228557072
  0
VERTEX
  8
1
  6
CONTINUOUS
 62
     7
 10
-156.9010862272434
 20
212.788815606081
  0
VERTEX
  8
1
  6
CONTINUOUS
 62
     7
 10
-156.901082421479
 20
212.7888135763143
  0
VERTEX
  8
1
  6
CONTINUOUS
 62
     7
 10
-156.9010751326267
 20
212.7888097584972
  0
SEQEND
  8
1
  6
CONTINUOUS
 62
     7
  0
LINE
  8
1
  6
CONTINUOUS
 62
     7
 10
-156.9010697254837
 20
212.7888069333695
 11
-155.9833969679913
 21
212.3097009451971
  0
LINE
  8
1
  6
CONTINUOUS
 62
     7
 10
-136.0866666666666
 20
206.0166339212354
 11
-136.0866666666666
 21
207.0
  0
LINE
  8
1
  6
CONTINUOUS
 62
     7
 10
-136.0866666666666
 20
204.6054103469559
 11
-136.0866666666666
 21
204.916699412098
  0
LINE
  8
1
  6
CONTINUOUS
 62
     7
 10
-136.0866666666666
 20
203.1941226297608
 11
-136.0866666666666
 21
203.5057099156569
  0
LINE
  8
1
  6
CONTINUOUS
 62
     7
 10
-136.0866666666666
 20
201.7829366057652
 11
-136.0866666666666
 21
202.0947607215801
  0
LINE
  8
1
  6
CONTINUOUS
 62
     7
 10
-136.0866666666666
 20
200.3719133801858
 11
-136.0866666666666
 21
200.6837097583303
  0
LINE
  8
1
  6
CONTINUOUS
 62
     7
 10
-136.0866666666666
 20
198.9609656535497
 11
-136.0866666666666
 21
199.2725420319604
  0
LINE
  8
1
  6
CONTINUOUS
 62
     7
 10
-136.0866666666666
 20
197.5499672545687
 11
-136.0866666666666
 21
197.8612565838581
  0
LINE
  8
1
  6
CONTINUOUS
 62
     7
 10
-136.0866666666666
 20
195.5
 11
-136.0866666666666
 21
196.4500327454313
  0
LINE
  8
1
  6
CONTINUOUS
 62
     7
 10
-157.2466666666667
 20
197.1556736040751
 11
-157.2466666666667
 21
195.5
  0
LINE
  8
1
  6
CONTINUOUS
 62
     7
 10
-157.2466666666667
 20
198.5668914248329
 11
-157.2466666666667
 21
198.2554821353091
  0
LINE
  8
1
  6
CONTINUOUS
 62
     7
 10
-157.2466666666667
 20
199.9781544501757
 11
-157.2466666666667
 21
199.6664204356012
  0
LINE
  8
1
  6
CONTINUOUS
 62
     7
 10
-157.2466666666667
 20
201.3892540306809
 11
-157.2466666666667
 21
201.0774200245311
  0
LINE
  8
1
  6
CONTINUOUS
 62
     7
 10
-157.2466666666667
 20
202.8002216790567
 11
-157.2466666666667
 21
202.4885360166106
  0
LINE
  8
1
  6
CONTINUOUS
 62
     7
 10
-157.2466666666667
 20
204.2112119031526
 11
-157.2466666666667
 21
203.8997785461644
  0
LINE
  8
1
  6
CONTINUOUS
 62
     7
 10
-157.2466666666667
 20
207.0
 11
-157.2466666666667
 21
205.3109930627911
  0
LINE
  8
1
  6
CONTINUOUS
 62
     7
 10
-137.3511666666667
 20
223.7039642098665
 11
-137.3511666666667
 21
224.5
  0
LINE
  8
1
  6
CONTINUOUS
 62
     7
 10
-137.3511666666667
 20
221.8896132378015
 11
-137.3511666666667
 21
222.2960357901335
  0
LINE
  8
1
  6
CONTINUOUS
 62
     7
 10
-137.3511666666667
 20
220.0752482408741
 11
-137.3511666666667
 21
220.4818118275941
  0
LINE
  8
1
  6
CONTINUOUS
 62
     7
 10
-137.3511666666667
 20
218.2609199279955
 11
-137.3511666666667
 21
218.6676180200142
  0
LINE
  8
1
  6
CONTINUOUS
 62
     7
 10
-137.3511666666667
 20
216.4466669991507
 11
-137.3511666666667
 21
216.8533654245455
  0
LINE
  8
1
  6
CONTINUOUS
 62
     7
 10
-137.3511666666667
 20
214.6324739540052
 11
-137.3511666666667
 21
215.0390379068947
  0
LINE
  8
1
  6
CONTINUOUS
 62
     7
 10
-137.3511666666667
 20
212.8182499241522
 11
-137.3511666666667
 21
213.2246714904527
  0
LINE
  8
1
  6
CONTINUOUS
 62
     7
 10
-137.3511666666667
 20
210.0
 11
-137.3511666666667
 21
211.4103215044192
  0
LINE
  8
1
  6
CONTINUOUS
 62
     7
 10
-155.9821666666667
 20
212.317511200399
 11
-155.9821666666667
 21
210.0000000000001
  0
LINE
  8
1
  6
CONTINUOUS
 62
     7
 10
-155.9821666666667
 20
214.1318559261566
 11
-155.9821666666667
 21
213.7253474278813
  0
LINE
  8
1
  6
CONTINUOUS
 62
     7
 10
-155.9821666666667
 20
215.946222796544
 11
-155.9821666666667
 21
215.5395740998032
  0
LINE
  8
1
  6
CONTINUOUS
 62
     7
 10
-155.9821666666667
 20
217.7605042370726
 11
-155.9821666666667
 21
217.3537805528331
  0
LINE
  8
1
  6
CONTINUOUS
 62
     7
 10
-155.9821666666667
 20
219.5747117684919
 11
-155.9821666666667
 21
219.1680613517263
  0
LINE
  8
1
  6
CONTINUOUS
 62
     7
 10
-155.9821666666667
 20
221.3889405346297
 11
-155.9821666666667
 21
220.9824294667842
  0
LINE
  8
1
  6
CONTINUOUS
 62
     7
 10
-155.9821666666667
 20
224.5
 11
-155.9821666666667
 21
222.7967765621937
  0
LINE
  8
1
  6
CONTINUOUS
 62
     7
 10
-129.6666666666667
 20
207.0
 11
-129.6666666666667
 21
210.0
  0
LINE
  8
1
  6
CONTINUOUS
 62
     7
 10
-163.6666666666667
 20
210.0
 11
-163.6666666666667
 21
207.0
  0
ENDBLK
  8
0
  0
BLOCK
  8
0
  2
D_FRAME_VIEW_1866
 70
     0
 10
0.0
 20
0.0
  0
CIRCLE
  8
1
  6
CONTINUOUS
 62
     7
 10
-146.6666666666667
 20
155.0
 40
10.58000000000001
  0
CIRCLE
  8
1
  6
CONTINUOUS
 62
     7
 10
-146.6666666666667
 20
155.0
 40
9.000000000000007
  0
LINE
  8
1
  6
CONTINUOUS
 62
     7
 10
-136.0866666666666
 20
155.0
 11
-135.5151493383719
 21
155.0
  0
LINE
  8
1
  6
CONTINUOUS
 62
     7
 10
-149.7126340072
 20
169.6874804837455
 11
-147.5552374296695
 21
171.844877061276
  0
ARC
  8
1
  6
CONTINUOUS
 62
     7
 10
-147.2016840390762
 20
171.4913236706827
 40
0.4999999999999841
 50
91.8581582782651
 51
134.9999999999999
  0
ARC
  8
1
  6
CONTINUOUS
 62
     7
 10
-146.6666666666667
 20
155.0
 40
17.0
 50
88.14184172173465
 51
91.85815827826514
  0
ARC
  8
1
  6
CONTINUOUS
 62
     7
 10
-146.1316492942572
 20
171.4913236706827
 40
0.4999999999999983
 50
44.99999999999977
 51
88.1418417217349
  0
LINE
  8
1
  6
CONTINUOUS
 62
     7
 10
-145.7780959036639
 20
171.844877061276
 11
-143.6206993261333
 21
169.6874804837455
  0
ARC
  8
1
  6
CONTINUOUS
 62
     7
 10
-146.6666666666667
 20
155.0
 40
14.99999999999999
 50
56.71621950857575
 51
78.28378049142417
  0
LINE
  8
1
  6
CONTINUOUS
 62
     7
 10
-138.434873779829
 20
167.5394412103653
 11
-135.3838542804681
 21
167.5394412103654
  0
ARC
  8
1
  6
CONTINUOUS
 62
     7
 10
-135.3838542804681
 20
167.0394412103654
 40
0.5000000000000067
 50
46.85815827826523
 51
89.99999999999982
  0
ARC
  8
1
  6
CONTINUOUS
 62
     7
 10
-146.6666666666667
 20
155.0
 40
17.00000000000001
 50
43.14184172173486
 51
46.85815827826514
  0
ARC
  8
1
  6
CONTINUOUS
 62
     7
 10
-134.6272254563013
 20
166.2828123861986
 40
0.5000000000000004
 50
359.9999999999998
 51
43.14184172173509
  0
LINE
  8
1
  6
CONTINUOUS
 62
     7
 10
-134.1272254563013
 20
166.2828123861986
 11
-134.1272254563013
 21
163.2317928868376
  0
ARC
  8
1
  6
CONTINUOUS
 62
     7
 10
-146.6666666666667
 20
155.0
 40
15.00000000000001
 50
11.71621950857575
 51
33.28378049142418
  0
LINE
  8
1
  6
CONTINUOUS
 62
     7
 10
-131.9791861829212
 20
158.0459673405333
 11
-129.8217896053907
 21
155.8885707630028
  0
ARC
  8
1
  6
CONTINUOUS
 62
     7
 10
-130.1753429959839
 20
155.5350173724095
 40
0.4999999999999841
 50
1.85815827826512
 51
44.99999999999996
  0
ARC
  8
1
  6
CONTINUOUS
 62
     7
 10
-146.6666666666667
 20
155.0
 40
17.0
 50
358.1418417217346
 51
1.858158278265137
  0
ARC
  8
1
  6
CONTINUOUS
 62
     7
 10
-130.1753429959839
 20
154.4649826275905
 40
0.4999999999999983
 50
314.9999999999998
 51
358.1418417217349
  0
LINE
  8
1
  6
CONTINUOUS
 62
     7
 10
-129.8217896053907
 20
154.1114292369972
 11
-131.9791861829212
 21
151.9540326594667
  0
ARC
  8
1
  6
CONTINUOUS
 62
     7
 10
-146.6666666666667
 20
155.0
 40
14.99999999999999
 50
326.7162195085758
 51
348.2837804914242
  0
LINE
  8
1
  6
CONTINUOUS
 62
     7
 10
-134.1272254563013
 20
146.7682071131624
 11
-134.1272254563013
 21
143.7171876138014
  0
ARC
  8
1
  6
CONTINUOUS
 62
     7
 10
-134.6272254563013
 20
143.7171876138014
 40
0.4999999999999877
 50
316.8581582782653
 51
359.9999999999998
  0
ARC
  8
1
  6
CONTINUOUS
 62
     7
 10
-146.6666666666667
 20
155.0
 40
17.00000000000001
 50
313.1418417217351
 51
316.8581582782651
  0
ARC
  8
1
  6
CONTINUOUS
 62
     7
 10
-135.3838542804681
 20
142.9605587896346
 40
0.5000000000000004
 50
269.9999999999998
 51
313.141841721735
  0
LINE
  8
1
  6
CONTINUOUS
 62
     7
 10
-135.3838542804681
 20
142.4605587896346
 11
-138.434873779829
 21
142.4605587896346
  0
ARC
  8
1
  6
CONTINUOUS
 62
     7
 10
-146.6666666666667
 20
155.0
 40
15.00000000000001
 50
281.7162195085758
 51
303.2837804914241
  0
LINE
  8
1
  6
CONTINUOUS
 62
     7
 10
-143.6206993261333
 20
140.3125195162545
 11
-145.7780959036639
 21
138.155122938724
  0
ARC
  8
1
  6
CONTINUOUS
 62
     7
 10
-146.1316492942571
 20
138.5086763293173
 40
0.4999999999999832
 50
271.8581582782651
 51
314.9999999999999
  0
ARC
  8
1
  6
CONTINUOUS
 62
     7
 10
-146.6666666666667
 20
155.0
 40
17.0
 50
268.1418417217347
 51
271.8581582782651
  0
ARC
  8
1
  6
CONTINUOUS
 62
     7
 10
-147.2016840390762
 20
138.5086763293173
 40
0.4999999999999983
 50
224.9999999999998
 51
268.1418417217349
  0
LINE
  8
1
  6
CONTINUOUS
 62
     7
 10
-147.5552374296695
 20
138.155122938724
 11
-149.7126340072
 21
140.3125195162545
  0
ARC
  8
1
  6
CONTINUOUS
 62
     7
 10
-146.6666666666667
 20
155.0
 40
14.99999999999999
 50
236.7162195085758
 51
258.2837804914242
  0
LINE
  8
1
  6
CONTINUOUS
 62
     7
 10
-154.8984595535043
 20
142.4605587896347
 11
-157.9494790528653
 21
142.4605587896346
  0
ARC
  8
1
  6
CONTINUOUS
 62
     7
 10
-157.9494790528653
 20
142.9605587896346
 40
0.4999999999999877
 50
226.8581582782653
 51
269.9999999999998
  0
ARC
  8
1
  6
CONTINUOUS
 62
     7
 10
-146.6666666666667
 20
155.0
 40
17.00000000000001
 50
223.1418417217349
 51
226.8581582782651
  0
ARC
  8
1
  6
CONTINUOUS
 62
     7
 10
-158.7061078770321
 20
143.7171876138014
 40
0.5000000000000004
 50
179.9999999999998
 51
223.141841721735
  0
LINE
  8
1
  6
CONTINUOUS
 62
     7
 10
-159.2061078770321
 20
143.7171876138014
 11
-159.2061078770321
 21
146.7682071131624
  0
ARC
  8
1
  6
CONTINUOUS
 62
     7
 10
-146.6666666666667
 20
155.0
 40
15.00000000000001
 50
191.7162195085758
 51
213.2837804914241
  0
LINE
  8
1
  6
CONTINUOUS
 62
     7
 10
-161.3541471504122
 20
151.9540326594667
 11
-163.5115437279427
 21
154.1114292369972
  0
ARC
  8
1
  6
CONTINUOUS
 62
     7
 10
-163.1579903373494
 20
154.4649826275904
 40
0.4999999999999832
 50
181.8581582782651
 51
225.0
  0
ARC
  8
1
  6
CONTINUOUS
 62
     7
 10
-146.6666666666667
 20
155.0
 40
17.0
 50
178.1418417217346
 51
181.8581582782651
  0
ARC
  8
1
  6
CONTINUOUS
 62
     7
 10
-163.1579903373494
 20
155.5350173724095
 40
0.4999999999999983
 50
134.9999999999998
 51
178.1418417217349
  0
LINE
  8
1
  6
CONTINUOUS
 62
     7
 10
-163.5115437279427
 20
155.8885707630028
 11
-161.3541471504122
 21
158.0459673405333
  0
ARC
  8
1
  6
CONTINUOUS
 62
     7
 10
-146.6666666666667
 20
155.0
 40
15.00000000000001
 50
146.7162195085758
 51
168.2837804914242
  0
LINE
  8
1
  6
CONTINUOUS
 62
     7
 10
-159.2061078770321
 20
163.2317928868376
 11
-159.2061078770321
 21
166.2828123861986
  0
ARC
  8
1
  6
CONTINUOUS
 62
     7
 10
-158.7061078770321
 20
166.2828123861986
 40
0.4999999999999877
 50
136.8581582782653
 51
180.0
  0
ARC
  8
1
  6
CONTINUOUS
 62
     7
 10
-146.6666666666667
 20
155.0
 40
17.00000000000001
 50
133.141841721735
 51
136.8581582782651
  0
ARC
  8
1
  6
CONTINUOUS
 62
     7
 10
-157.9494790528653
 20
167.0394412103654
 40
0.5000000000000004
 50
89.99999999999982
 51
133.1418417217351
  0
LINE
  8
1
  6
CONTINUOUS
 62
     7
 10
-157.9494790528653
 20
167.5394412103654
 11
-154.8984595535043
 21
167.5394412103654
  0
ARC
  8
1
  6
CONTINUOUS
 62
     7
 10
-146.6666666666667
 20
155.0
 40
15.00000000000001
 50
101.7162195085758
 51
123.2837804914242
  0
CIRCLE
  8
1
  6
CONTINUOUS
 62
     7
 10
-146.6666666666667
 20
155.0
 40
8.000000000000007
  0
ARC
  8
1
  6
CONTINUOUS
 62
     7
 10
-146.3572094264494
 20
154.4210273513214
 40
10.85750783013305
 50
3.056726375488397
 51
53.51305311726995
  0
LINE
  8
1
  6
CONTINUOUS
 62
     7
 10
-135.5151493383719
 20
154.9999999999995
 11
-135.5166014433937
 21
155.1791608645406
  0
ARC
  8
1
  6
CONTINUOUS
 62
     7
 10
-146.6772592470737
 20
155.0793449001119
 40
11.16239191334508
 50
359.5927247294162
 51
359.495056477896
  0
ENDBLK
  8
0
  0
ENDSEC
  0
SECTION
  2
ENTITIES
  0
POINT
  8
1
 62
     7
 10
-146.6666666666667
 20
195.0
 30
0.0
  0
LINE
  8
1
  6
CENTER
 62
     1
 10
-146.6666666666667
 20
226.5
 11
-146.6666666666667
 21
195.0
  0
LINE
  8
1
  6
CONTINUOUS
 62
     7
 10
-131.9791861829212
 20
207.3295454545455
 11
-131.9791861829212
 21
210.0
  0
INSERT
  8
1
  6
CONTINUOUS
 62
     7
  2
D_FRAME_VIEW_1491
 10
0.0
 20
0.0
 30
0.0
  0
TEXT
  8
1
  6
CONTINUOUS
 62
     7
 10
-157.1219967904631
 20
123.3284200325122
 40
3.0
  1
MFPN-16PG16K
  0
LINE
  8
1
  6
CONTINUOUS
 62
     2
 10
-157.0371212121212
 20
122.7704545454545
 11
-136.2962121212121
 21
122.7704545454545
  0
LINE
  8
1
  6
CENTER
 62
     1
 10
-163.6666666666667
 20
155.0
 11
-129.6666666666667
 21
155.0
  0
LINE
  8
1
  6
CENTER
 62
     1
 10
-146.6666666666667
 20
138.0
 11
-146.6666666666667
 21
172.0
  0
INSERT
  8
1
  6
CONTINUOUS
 62
     7
  2
D_FRAME_VIEW_1866
 10
0.0
 20
0.0
 30
0.0
  0
ENDSEC
  0
EOF
