  0
SECTION
  2
HEADER
  9
$ACADVER
  1
AC1004
  9
$INSBASE
 10
0.0
 20
0.0
  9
$EXTMIN
 10
-202.0
 20
158.6037878787879
  9
$EXTMAX
 10
-163.0
 20
267.3236859137199
  9
$LIMMIN
 10
0.0
 20
0.0
  9
$LIMMAX
 10
12.0
 20
9.0
  9
$ORTHOMODE
 70
     0
  9
$REGENMODE
 70
     1
  9
$FILLMODE
 70
     1
  9
$QTEXTMODE
 70
     0
  9
$DRAGMODE
 70
     2
  9
$LTSCALE
 40
1.0
  9
$OSMODE
 70
    37
  9
$ATTMODE
 70
     1
  9
$TEXTSIZE
 40
0.2
  9
$TRACEWID
 40
0.05
  9
$TEXTSTYLE
  7
STANDARD
  9
$CLAYER
  8
0
  9
$CELTYPE
  6
BYLAYER
  9
$CECOLOR
 62
   256
  9
$DIMSCALE
 40
1.0
  9
$DIMASZ
 40
3.0
  9
$DIMEXO
 40
0.0625
  9
$DIMDLI
 40
0.38
  9
$DIMRND
 40
0.0
  9
$DIMDLE
 40
0.0
  9
$DIMEXE
 40
1.5
  9
$DIMTP
 40
0.0
  9
$DIMTM
 40
0.0
  9
$DIMTXT
 40
3.0
  9
$DIMCEN
 40
0.09
  9
$DIMTSZ
 40
0.0
  9
$DIMTOL
 70
     0
  9
$DIMLIM
 70
     0
  9
$DIMTIH
 70
     1
  9
$DIMTOH
 70
     1
  9
$DIMSE1
 70
     0
  9
$DIMSE2
 70
     0
  9
$DIMTAD
 70
     1
  9
$DIMZIN
 70
     0
  9
$DIMBLK
  1

  9
$DIMASO
 70
     1
  9
$DIMSHO
 70
     1
  9
$DIMPOST
  1

  9
$DIMAPOST
  1

  9
$DIMALT
 70
     0
  9
$DIMALTD
 70
     2
  9
$DIMALTF
 40
25.4
  9
$DIMLFAC
 40
1.0
  9
$DIMTOFL
 70
     0
  9
$DIMTVP
 40
0.0
  9
$DIMTIX
 70
     0
  9
$DIMSOXD
 70
     0
  9
$DIMSAH
 70
     0
  9
$DIMBLK1
  1

  9
$DIMBLK2
  1

  9
$LUNITS
 70
     2
  9
$LUPREC
 70
     4
  9
$SKETCHINC
 40
0.1
  9
$FILLETRAD
 40
0.5
  9
$AUNITS
 70
     0
  9
$AUPREC
 70
     0
  9
$MENU
  1
.
  9
$ELEVATION
 40
0.0
  9
$THICKNESS
 40
0.0
  9
$LIMCHECK
 70
     0
  9
$CHAMFERA
 40
0.0
  9
$CHAMFERB
 40
0.0
  9
$SKPOLY
 70
     0
  9
$TDCREATE
 40
2459460.405764143
  9
$TDUPDATE
 40
2459460.405764502
  9
$TDINDWG
 40
0.0000000116
  9
$TDUSRTIMER
 40
0.0000000116
  9
$USRTIMER
 70
     1
  9
$ANGBASE
 50
0.0
  9
$ANGDIR
 70
     0
  9
$PDMODE
 70
     0
  9
$PDSIZE
 40
0.0
  9
$PLINEWID
 40
0.0
  9
$COORDS
 70
     1
  9
$SPLFRAME
 70
     0
  9
$SPLINETYPE
 70
     6
  9
$SPLINESEGS
 70
     8
  9
$ATTDIA
 70
     0
  9
$ATTREQ
 70
     1
  9
$SURFTAB1
 70
     6
  9
$SURFTAB2
 70
     6
  9
$SURFTYPE
 70
     6
  9
$SURFU
 70
     6
  9
$SURFV
 70
     6
  9
$UCSNAME
  2

  9
$UCSORG
 10
0.0
 20
0.0
 30
0.0
  9
$UCSXDIR
 10
1.0
 20
0.0
 30
0.0
  9
$UCSYDIR
 10
0.0
 20
1.0
 30
0.0
  9
$USERI1
 70
     0
  9
$USERI2
 70
     0
  9
$USERI3
 70
     0
  9
$USERI4
 70
     0
  9
$USERI5
 70
     0
  9
$USERR1
 40
0.0
  9
$USERR2
 40
0.0
  9
$USERR3
 40
0.0
  9
$USERR4
 40
0.0
  9
$USERR5
 40
0.0
  9
$WORLDVIEW
 70
     1
  0
ENDSEC
  0
SECTION
  2
TABLES
  0
TABLE
  2
LTYPE
 70
     2
  0
LTYPE
  2
CONTINUOUS
 70
     0
  3
Solid line
 72
    65
 73
     0
 40
0.0
  0
LTYPE
  2
CENTER
 70
     0
  3

 72
    65
 73
     0
 40
0.0
  0
ENDTAB
  0
TABLE
  2
LAYER
 70
     2
  0
LAYER
  2
0
 70
     0
 62
     7
  6
CONTINUOUS
  0
LAYER
  2
1
 70
     0
 62
     7
  6
CONTINUOUS
  0
ENDTAB
  0
TABLE
  2
STYLE
 70
     2
  0
STYLE
  2
STANDARD
 70
     0
 40
0.0
 41
1.0
 50
0.0
 71
     0
 42
0.2
  3
txt
  4

  0
STYLE
  2
ＭＳ_ゴシック
 70
     0
 40
0.0
 41
1.0
 50
0.0
 71
     0
 42
0.2
  3
ＭＳ ゴシック.shx
  4

  0
ENDTAB
  0
TABLE
  2
VIEW
 70
     0
  0
ENDTAB
  0
ENDSEC
  0
SECTION
  2
BLOCKS
  0
BLOCK
  8
0
  2
D_FRAME_VIEW_1491
 70
     0
 10
0.0
 20
0.0
  0
LINE
  8
1
  6
CONTINUOUS
 62
     7
 10
-183.0501334931184
 20
250.8236859137199
 11
-181.9498665068817
 21
250.8236859137199
  0
LINE
  8
1
  6
CONTINUOUS
 62
     7
 10
-183.0501334931184
 20
247.8236859137199
 11
-181.9498665068817
 21
247.8236859137199
  0
LINE
  8
1
  6
CONTINUOUS
 62
     7
 10
-183.3895808967087
 20
250.8236859137199
 11
-183.0501334931184
 21
250.8236859137199
  0
LINE
  8
1
  6
CONTINUOUS
 62
     7
 10
-183.0501334931184
 20
247.8236859137199
 11
-183.3895808967087
 21
247.8236859137199
  0
LINE
  8
1
  6
CONTINUOUS
 62
     7
 10
-181.9498665068816
 20
250.8236859137199
 11
-181.6104191032914
 21
250.8236859137199
  0
LINE
  8
1
  6
CONTINUOUS
 62
     7
 10
-181.6104191032914
 20
247.8236859137199
 11
-181.9498665068816
 21
247.8236859137199
  0
LINE
  8
1
  6
CONTINUOUS
 62
     7
 10
-185.4935026247349
 20
247.8236859137199
 11
-185.4935026247349
 21
250.8236859137199
  0
LINE
  8
1
  6
CONTINUOUS
 62
     7
 10
-185.4935026247349
 20
250.8236859137199
 11
-183.3895808967087
 21
250.8236859137199
  0
LINE
  8
1
  6
CONTINUOUS
 62
     7
 10
-185.4935026247349
 20
247.8236859137199
 11
-183.3895808967087
 21
247.8236859137199
  0
LINE
  8
1
  6
CONTINUOUS
 62
     7
 10
-179.5064973752651
 20
247.8236859137199
 11
-179.5064973752651
 21
250.8236859137199
  0
LINE
  8
1
  6
CONTINUOUS
 62
     7
 10
-181.6104191032914
 20
250.8236859137199
 11
-179.5064973752651
 21
250.8236859137199
  0
LINE
  8
1
  6
CONTINUOUS
 62
     7
 10
-181.6104191032914
 20
247.8236859137199
 11
-179.5064973752651
 21
247.8236859137199
  0
LINE
  8
1
  6
CONTINUOUS
 62
     7
 10
-172.4247421218543
 20
247.8236859137199
 11
-172.4247421218543
 21
250.8236859137199
  0
LINE
  8
1
  6
CONTINUOUS
 62
     7
 10
-172.4247421218543
 20
250.8236859137199
 11
-179.5064973752651
 21
250.8236859137199
  0
LINE
  8
1
  6
CONTINUOUS
 62
     7
 10
-172.4247421218543
 20
247.8236859137199
 11
-179.5064973752651
 21
247.8236859137199
  0
LINE
  8
1
  6
CONTINUOUS
 62
     7
 10
-192.5752578781457
 20
247.8236859137199
 11
-192.5752578781457
 21
250.8236859137199
  0
LINE
  8
1
  6
CONTINUOUS
 62
     7
 10
-185.4935026247349
 20
250.8236859137199
 11
-192.5752578781457
 21
250.8236859137199
  0
LINE
  8
1
  6
CONTINUOUS
 62
     7
 10
-185.4935026247349
 20
247.8236859137199
 11
-192.5752578781457
 21
247.8236859137199
  0
LINE
  8
1
  6
CONTINUOUS
 62
     7
 10
-195.8940907443049
 20
250.8236859137199
 11
-195.5506525200919
 21
250.8236859137199
  0
LINE
  8
1
  6
CONTINUOUS
 62
     7
 10
-195.550652520092
 20
247.8236859137199
 11
-195.8940907443049
 21
247.8236859137199
  0
LINE
  8
1
  6
CONTINUOUS
 62
     7
 10
-169.4493474799081
 20
250.8236859137199
 11
-169.1059092556951
 21
250.8236859137199
  0
LINE
  8
1
  6
CONTINUOUS
 62
     7
 10
-169.1059092556951
 20
247.8236859137199
 11
-169.4493474799081
 21
247.8236859137199
  0
LINE
  8
1
  6
CONTINUOUS
 62
     7
 10
-172.4247421218543
 20
250.8236859137199
 11
-169.4493474799081
 21
250.8236859137199
  0
LINE
  8
1
  6
CONTINUOUS
 62
     7
 10
-172.4247421218543
 20
247.8236859137199
 11
-169.4493474799081
 21
247.8236859137199
  0
LINE
  8
1
  6
CONTINUOUS
 62
     7
 10
-195.550652520092
 20
250.8236859137199
 11
-192.5752578781457
 21
250.8236859137199
  0
LINE
  8
1
  6
CONTINUOUS
 62
     7
 10
-195.550652520092
 20
247.8236859137199
 11
-192.5752578781457
 21
247.8236859137199
  0
LINE
  8
1
  6
CONTINUOUS
 62
     7
 10
-196.6720969913886
 20
250.8236859137199
 11
-195.8940907443049
 21
250.8236859137199
  0
LINE
  8
1
  6
CONTINUOUS
 62
     7
 10
-196.6720969913886
 20
247.8236859137199
 11
-195.8940907443049
 21
247.8236859137199
  0
LINE
  8
1
  6
CONTINUOUS
 62
     7
 10
-169.1059092556951
 20
250.8236859137199
 11
-168.3279030086115
 21
250.8236859137199
  0
LINE
  8
1
  6
CONTINUOUS
 62
     7
 10
-169.1059092556951
 20
247.8236859137199
 11
-168.3279030086115
 21
247.8236859137199
  0
POLYLINE
  8
1
  6
CONTINUOUS
 62
     7
 66
     1
  0
VERTEX
  8
1
  6
CONTINUOUS
 62
     7
 10
-169.3806174773691
 20
252.9379716280056
  0
VERTEX
  8
1
  6
CONTINUOUS
 62
     7
 10
-169.38071974474
 20
252.9309043315025
  0
VERTEX
  8
1
  6
CONTINUOUS
 62
     7
 10
-169.3810255182157
 20
252.9238425519491
  0
VERTEX
  8
1
  6
CONTINUOUS
 62
     7
 10
-169.3815332548411
 20
252.9167918062955
  0
VERTEX
  8
1
  6
CONTINUOUS
 62
     7
 10
-169.3822414116609
 20
252.9097576114917
  0
VERTEX
  8
1
  6
CONTINUOUS
 62
     7
 10
-169.3831484457196
 20
252.9027454844873
  0
VERTEX
  8
1
  6
CONTINUOUS
 62
     7
 10
-169.3842528140621
 20
252.8957609422322
  0
VERTEX
  8
1
  6
CONTINUOUS
 62
     7
 10
-169.3855529737332
 20
252.8888095016765
  0
VERTEX
  8
1
  6
CONTINUOUS
 62
     7
 10
-169.3870473817775
 20
252.88189667977
  0
VERTEX
  8
1
  6
CONTINUOUS
 62
     7
 10
-169.3887344952397
 20
252.8750279934625
  0
VERTEX
  8
1
  6
CONTINUOUS
 62
     7
 10
-169.3906127711645
 20
252.8682089597039
  0
VERTEX
  8
1
  6
CONTINUOUS
 62
     7
 10
-169.3926806665967
 20
252.8614450954442
  0
VERTEX
  8
1
  6
CONTINUOUS
 62
     7
 10
-169.3949366385811
 20
252.8547419176331
  0
VERTEX
  8
1
  6
CONTINUOUS
 62
     7
 10
-169.3973791441622
 20
252.8481049432206
  0
VERTEX
  8
1
  6
CONTINUOUS
 62
     7
 10
-169.4000066403849
 20
252.8415396891565
  0
VERTEX
  8
1
  6
CONTINUOUS
 62
     7
 10
-169.4028175842938
 20
252.8350516723907
  0
VERTEX
  8
1
  6
CONTINUOUS
 62
     7
 10
-169.4058104329337
 20
252.8286464098732
  0
VERTEX
  8
1
  6
CONTINUOUS
 62
     7
 10
-169.4089836433493
 20
252.8223294185537
  0
VERTEX
  8
1
  6
CONTINUOUS
 62
     7
 10
-169.4123356725854
 20
252.8161062153822
  0
VERTEX
  8
1
  6
CONTINUOUS
 62
     7
 10
-169.4158649776865
 20
252.8099823173085
  0
VERTEX
  8
1
  6
CONTINUOUS
 62
     7
 10
-169.4195698524693
 20
252.8039631422332
  0
VERTEX
  8
1
  6
CONTINUOUS
 62
     7
 10
-169.4234470113598
 20
252.7980531496593
  0
VERTEX
  8
1
  6
CONTINUOUS
 62
     7
 10
-169.4274922830085
 20
252.7922562615878
  0
VERTEX
  8
1
  6
CONTINUOUS
 62
     7
 10
-169.4317014862786
 20
252.7865763940808
  0
VERTEX
  8
1
  6
CONTINUOUS
 62
     7
 10
-169.4360704400332
 20
252.7810174632002
  0
VERTEX
  8
1
  6
CONTINUOUS
 62
     7
 10
-169.4405949631355
 20
252.7755833850082
  0
VERTEX
  8
1
  6
CONTINUOUS
 62
     7
 10
-169.4452708744486
 20
252.7702780755666
  0
VERTEX
  8
1
  6
CONTINUOUS
 62
     7
 10
-169.4500939928355
 20
252.7651054509374
  0
VERTEX
  8
1
  6
CONTINUOUS
 62
     7
 10
-169.4550601371597
 20
252.7600694271827
  0
VERTEX
  8
1
  6
CONTINUOUS
 62
     7
 10
-169.4601651262842
 20
252.7551739203645
  0
VERTEX
  8
1
  6
CONTINUOUS
 62
     7
 10
-169.465404779072
 20
252.7504228465449
  0
VERTEX
  8
1
  6
CONTINUOUS
 62
     7
 10
-169.4707749143865
 20
252.7458201217857
  0
VERTEX
  8
1
  6
CONTINUOUS
 62
     7
 10
-169.4762713510906
 20
252.741369662149
  0
VERTEX
  8
1
  6
CONTINUOUS
 62
     7
 10
-169.4818899080476
 20
252.7370753836968
  0
VERTEX
  8
1
  6
CONTINUOUS
 62
     7
 10
-169.4876264041206
 20
252.7329412024911
  0
VERTEX
  8
1
  6
CONTINUOUS
 62
     7
 10
-169.4934766581729
 20
252.728971034594
  0
VERTEX
  8
1
  6
CONTINUOUS
 62
     7
 10
-169.4994364890675
 20
252.7251687960674
  0
VERTEX
  8
1
  6
CONTINUOUS
 62
     7
 10
-169.5055017156674
 20
252.7215384029732
  0
VERTEX
  8
1
  6
CONTINUOUS
 62
     7
 10
-169.5116681568361
 20
252.7180837713737
  0
VERTEX
  8
1
  6
CONTINUOUS
 62
     7
 10
-169.5384160785192
 20
252.7041231515451
  0
VERTEX
  8
1
  6
CONTINUOUS
 62
     7
 10
-169.5915386621357
 20
252.6764692848741
  0
VERTEX
  8
1
  6
CONTINUOUS
 62
     7
 10
-169.6446612457522
 20
252.6488154182032
  0
VERTEX
  8
1
  6
CONTINUOUS
 62
     7
 10
-169.6977838293687
 20
252.6211615515322
  0
VERTEX
  8
1
  6
CONTINUOUS
 62
     7
 10
-169.7509064129852
 20
252.5935076848613
  0
VERTEX
  8
1
  6
CONTINUOUS
 62
     7
 10
-169.8040289966018
 20
252.5658538181904
  0
VERTEX
  8
1
  6
CONTINUOUS
 62
     7
 10
-169.8571515802183
 20
252.5381999515194
  0
VERTEX
  8
1
  6
CONTINUOUS
 62
     7
 10
-169.9102741638348
 20
252.5105460848485
  0
VERTEX
  8
1
  6
CONTINUOUS
 62
     7
 10
-169.9633967474514
 20
252.4828922181775
  0
VERTEX
  8
1
  6
CONTINUOUS
 62
     7
 10
-170.0165193310679
 20
252.4552383515066
  0
VERTEX
  8
1
  6
CONTINUOUS
 62
     7
 10
-170.0696419146844
 20
252.4275844848357
  0
VERTEX
  8
1
  6
CONTINUOUS
 62
     7
 10
-170.1227644983009
 20
252.3999306181647
  0
VERTEX
  8
1
  6
CONTINUOUS
 62
     7
 10
-170.1758870819174
 20
252.3722767514938
  0
VERTEX
  8
1
  6
CONTINUOUS
 62
     7
 10
-170.2290096655339
 20
252.3446228848228
  0
VERTEX
  8
1
  6
CONTINUOUS
 62
     7
 10
-170.2821322491505
 20
252.3169690181519
  0
VERTEX
  8
1
  6
CONTINUOUS
 62
     7
 10
-170.335254832767
 20
252.289315151481
  0
VERTEX
  8
1
  6
CONTINUOUS
 62
     7
 10
-170.3883774163835
 20
252.2616612848101
  0
VERTEX
  8
1
  6
CONTINUOUS
 62
     7
 10
-170.4415
 20
252.2340074181391
  0
SEQEND
  8
1
  6
CONTINUOUS
 62
     7
  0
POLYLINE
  8
1
  6
CONTINUOUS
 62
     7
 66
     1
  0
VERTEX
  8
1
  6
CONTINUOUS
 62
     7
 10
-169.3806174773691
 20
263.8236859137199
  0
VERTEX
  8
1
  6
CONTINUOUS
 62
     7
 10
-169.38071974474
 20
263.8307532102231
  0
VERTEX
  8
1
  6
CONTINUOUS
 62
     7
 10
-169.3810255182157
 20
263.8378149897763
  0
VERTEX
  8
1
  6
CONTINUOUS
 62
     7
 10
-169.3815332548411
 20
263.8448657354299
  0
VERTEX
  8
1
  6
CONTINUOUS
 62
     7
 10
-169.3822414116609
 20
263.8518999302339
  0
VERTEX
  8
1
  6
CONTINUOUS
 62
     7
 10
-169.3831484457197
 20
263.8589120572383
  0
VERTEX
  8
1
  6
CONTINUOUS
 62
     7
 10
-169.3842528140622
 20
263.8658965994932
  0
VERTEX
  8
1
  6
CONTINUOUS
 62
     7
 10
-169.3855529737332
 20
263.8728480400489
  0
VERTEX
  8
1
  6
CONTINUOUS
 62
     7
 10
-169.3870473817775
 20
263.8797608619554
  0
VERTEX
  8
1
  6
CONTINUOUS
 62
     7
 10
-169.3887344952396
 20
263.8866295482629
  0
VERTEX
  8
1
  6
CONTINUOUS
 62
     7
 10
-169.3906127711645
 20
263.8934485820215
  0
VERTEX
  8
1
  6
CONTINUOUS
 62
     7
 10
-169.3926806665967
 20
263.9002124462813
  0
VERTEX
  8
1
  6
CONTINUOUS
 62
     7
 10
-169.3949366385811
 20
263.9069156240924
  0
VERTEX
  8
1
  6
CONTINUOUS
 62
     7
 10
-169.3973791441622
 20
263.913552598505
  0
VERTEX
  8
1
  6
CONTINUOUS
 62
     7
 10
-169.4000066403849
 20
263.9201178525691
  0
VERTEX
  8
1
  6
CONTINUOUS
 62
     7
 10
-169.4028175842938
 20
263.9266058693348
  0
VERTEX
  8
1
  6
CONTINUOUS
 62
     7
 10
-169.4058104329337
 20
263.9330111318524
  0
VERTEX
  8
1
  6
CONTINUOUS
 62
     7
 10
-169.4089836433494
 20
263.9393281231719
  0
VERTEX
  8
1
  6
CONTINUOUS
 62
     7
 10
-169.4123356725854
 20
263.9455513263433
  0
VERTEX
  8
1
  6
CONTINUOUS
 62
     7
 10
-169.4158649776865
 20
263.951675224417
  0
VERTEX
  8
1
  6
CONTINUOUS
 62
     7
 10
-169.4195698524693
 20
263.9576943994923
  0
VERTEX
  8
1
  6
CONTINUOUS
 62
     7
 10
-169.4234470113598
 20
263.9636043920662
  0
VERTEX
  8
1
  6
CONTINUOUS
 62
     7
 10
-169.4274922830086
 20
263.9694012801377
  0
VERTEX
  8
1
  6
CONTINUOUS
 62
     7
 10
-169.4317014862786
 20
263.9750811476447
  0
VERTEX
  8
1
  6
CONTINUOUS
 62
     7
 10
-169.4360704400332
 20
263.9806400785253
  0
VERTEX
  8
1
  6
CONTINUOUS
 62
     7
 10
-169.4405949631354
 20
263.9860741567173
  0
VERTEX
  8
1
  6
CONTINUOUS
 62
     7
 10
-169.4452708744485
 20
263.991379466159
  0
VERTEX
  8
1
  6
CONTINUOUS
 62
     7
 10
-169.4500939928355
 20
263.9965520907881
  0
VERTEX
  8
1
  6
CONTINUOUS
 62
     7
 10
-169.4550601371597
 20
264.0015881145428
  0
VERTEX
  8
1
  6
CONTINUOUS
 62
     7
 10
-169.4601651262842
 20
264.006483621361
  0
VERTEX
  8
1
  6
CONTINUOUS
 62
     7
 10
-169.4654047790721
 20
264.0112346951807
  0
VERTEX
  8
1
  6
CONTINUOUS
 62
     7
 10
-169.4707749143864
 20
264.0158374199399
  0
VERTEX
  8
1
  6
CONTINUOUS
 62
     7
 10
-169.4762713510906
 20
264.0202878795766
  0
VERTEX
  8
1
  6
CONTINUOUS
 62
     7
 10
-169.4818899080476
 20
264.0245821580287
  0
VERTEX
  8
1
  6
CONTINUOUS
 62
     7
 10
-169.4876264041207
 20
264.0287163392344
  0
VERTEX
  8
1
  6
CONTINUOUS
 62
     7
 10
-169.4934766581729
 20
264.0326865071316
  0
VERTEX
  8
1
  6
CONTINUOUS
 62
     7
 10
-169.4994364890674
 20
264.0364887456582
  0
VERTEX
  8
1
  6
CONTINUOUS
 62
     7
 10
-169.5055017156675
 20
264.0401191387523
  0
VERTEX
  8
1
  6
CONTINUOUS
 62
     7
 10
-169.5116681568361
 20
264.0435737703518
  0
VERTEX
  8
1
  6
CONTINUOUS
 62
     7
 10
-169.5384160785192
 20
264.0575343901805
  0
VERTEX
  8
1
  6
CONTINUOUS
 62
     7
 10
-169.5915386621357
 20
264.0851882568514
  0
VERTEX
  8
1
  6
CONTINUOUS
 62
     7
 10
-169.6446612457522
 20
264.1128421235223
  0
VERTEX
  8
1
  6
CONTINUOUS
 62
     7
 10
-169.6977838293687
 20
264.1404959901933
  0
VERTEX
  8
1
  6
CONTINUOUS
 62
     7
 10
-169.7509064129853
 20
264.1681498568643
  0
VERTEX
  8
1
  6
CONTINUOUS
 62
     7
 10
-169.8040289966017
 20
264.1958037235352
  0
VERTEX
  8
1
  6
CONTINUOUS
 62
     7
 10
-169.8571515802183
 20
264.2234575902061
  0
VERTEX
  8
1
  6
CONTINUOUS
 62
     7
 10
-169.9102741638348
 20
264.2511114568771
  0
VERTEX
  8
1
  6
CONTINUOUS
 62
     7
 10
-169.9633967474514
 20
264.278765323548
  0
VERTEX
  8
1
  6
CONTINUOUS
 62
     7
 10
-170.0165193310679
 20
264.3064191902189
  0
VERTEX
  8
1
  6
CONTINUOUS
 62
     7
 10
-170.0696419146844
 20
264.3340730568898
  0
VERTEX
  8
1
  6
CONTINUOUS
 62
     7
 10
-170.122764498301
 20
264.3617269235609
  0
VERTEX
  8
1
  6
CONTINUOUS
 62
     7
 10
-170.1758870819174
 20
264.3893807902318
  0
VERTEX
  8
1
  6
CONTINUOUS
 62
     7
 10
-170.229009665534
 20
264.4170346569027
  0
VERTEX
  8
1
  6
CONTINUOUS
 62
     7
 10
-170.2821322491505
 20
264.4446885235737
  0
VERTEX
  8
1
  6
CONTINUOUS
 62
     7
 10
-170.335254832767
 20
264.4723423902446
  0
VERTEX
  8
1
  6
CONTINUOUS
 62
     7
 10
-170.3883774163835
 20
264.4999962569156
  0
VERTEX
  8
1
  6
CONTINUOUS
 62
     7
 10
-170.4415
 20
264.5276501235865
  0
SEQEND
  8
1
  6
CONTINUOUS
 62
     7
  0
POLYLINE
  8
1
  6
CONTINUOUS
 62
     7
 66
     1
  0
VERTEX
  8
1
  6
CONTINUOUS
 62
     7
 10
-170.4415
 20
253.6419358378722
  0
VERTEX
  8
1
  6
CONTINUOUS
 62
     7
 10
-170.3883774163835
 20
253.6142819712012
  0
VERTEX
  8
1
  6
CONTINUOUS
 62
     7
 10
-170.335254832767
 20
253.5866281045303
  0
VERTEX
  8
1
  6
CONTINUOUS
 62
     7
 10
-170.2821322491505
 20
253.5589742378593
  0
VERTEX
  8
1
  6
CONTINUOUS
 62
     7
 10
-170.2290096655339
 20
253.5313203711884
  0
VERTEX
  8
1
  6
CONTINUOUS
 62
     7
 10
-170.1758870819174
 20
253.5036665045174
  0
VERTEX
  8
1
  6
CONTINUOUS
 62
     7
 10
-170.1227644983009
 20
253.4760126378465
  0
VERTEX
  8
1
  6
CONTINUOUS
 62
     7
 10
-170.0696419146844
 20
253.4483587711756
  0
VERTEX
  8
1
  6
CONTINUOUS
 62
     7
 10
-170.0165193310679
 20
253.4207049045046
  0
VERTEX
  8
1
  6
CONTINUOUS
 62
     7
 10
-169.9633967474514
 20
253.3930510378337
  0
VERTEX
  8
1
  6
CONTINUOUS
 62
     7
 10
-169.9102741638348
 20
253.3653971711627
  0
VERTEX
  8
1
  6
CONTINUOUS
 62
     7
 10
-169.8571515802184
 20
253.3377433044919
  0
VERTEX
  8
1
  6
CONTINUOUS
 62
     7
 10
-169.8040289966018
 20
253.3100894378209
  0
VERTEX
  8
1
  6
CONTINUOUS
 62
     7
 10
-169.7509064129853
 20
253.2824355711499
  0
VERTEX
  8
1
  6
CONTINUOUS
 62
     7
 10
-169.6977838293687
 20
253.254781704479
  0
VERTEX
  8
1
  6
CONTINUOUS
 62
     7
 10
-169.6446612457522
 20
253.2271278378081
  0
VERTEX
  8
1
  6
CONTINUOUS
 62
     7
 10
-169.5915386621357
 20
253.1994739711371
  0
VERTEX
  8
1
  6
CONTINUOUS
 62
     7
 10
-169.5384160785192
 20
253.1718201044662
  0
VERTEX
  8
1
  6
CONTINUOUS
 62
     7
 10
-169.5116681568362
 20
253.1578594846376
  0
VERTEX
  8
1
  6
CONTINUOUS
 62
     7
 10
-169.5055017156675
 20
253.154404853038
  0
VERTEX
  8
1
  6
CONTINUOUS
 62
     7
 10
-169.4994364890674
 20
253.1507744599439
  0
VERTEX
  8
1
  6
CONTINUOUS
 62
     7
 10
-169.4934766581729
 20
253.1469722214173
  0
VERTEX
  8
1
  6
CONTINUOUS
 62
     7
 10
-169.4876264041207
 20
253.1430020535201
  0
VERTEX
  8
1
  6
CONTINUOUS
 62
     7
 10
-169.4818899080476
 20
253.1388678723144
  0
VERTEX
  8
1
  6
CONTINUOUS
 62
     7
 10
-169.4762713510906
 20
253.1345735938622
  0
VERTEX
  8
1
  6
CONTINUOUS
 62
     7
 10
-169.4707749143865
 20
253.1301231342256
  0
VERTEX
  8
1
  6
CONTINUOUS
 62
     7
 10
-169.465404779072
 20
253.1255204094663
  0
VERTEX
  8
1
  6
CONTINUOUS
 62
     7
 10
-169.4601651262842
 20
253.1207693356467
  0
VERTEX
  8
1
  6
CONTINUOUS
 62
     7
 10
-169.4550601371598
 20
253.1158738288286
  0
VERTEX
  8
1
  6
CONTINUOUS
 62
     7
 10
-169.4500939928355
 20
253.1108378050738
  0
VERTEX
  8
1
  6
CONTINUOUS
 62
     7
 10
-169.4452708744485
 20
253.1056651804447
  0
VERTEX
  8
1
  6
CONTINUOUS
 62
     7
 10
-169.4405949631355
 20
253.100359871003
  0
VERTEX
  8
1
  6
CONTINUOUS
 62
     7
 10
-169.4360704400332
 20
253.094925792811
  0
VERTEX
  8
1
  6
CONTINUOUS
 62
     7
 10
-169.4317014862786
 20
253.0893668619304
  0
VERTEX
  8
1
  6
CONTINUOUS
 62
     7
 10
-169.4274922830085
 20
253.0836869944234
  0
VERTEX
  8
1
  6
CONTINUOUS
 62
     7
 10
-169.4234470113598
 20
253.0778901063519
  0
VERTEX
  8
1
  6
CONTINUOUS
 62
     7
 10
-169.4195698524693
 20
253.071980113778
  0
VERTEX
  8
1
  6
CONTINUOUS
 62
     7
 10
-169.4158649776865
 20
253.0659609387027
  0
VERTEX
  8
1
  6
CONTINUOUS
 62
     7
 10
-169.4123356725854
 20
253.059837040629
  0
VERTEX
  8
1
  6
CONTINUOUS
 62
     7
 10
-169.4089836433494
 20
253.0536138374576
  0
VERTEX
  8
1
  6
CONTINUOUS
 62
     7
 10
-169.4058104329337
 20
253.0472968461381
  0
VERTEX
  8
1
  6
CONTINUOUS
 62
     7
 10
-169.4028175842938
 20
253.0408915836205
  0
VERTEX
  8
1
  6
CONTINUOUS
 62
     7
 10
-169.4000066403849
 20
253.0344035668547
  0
VERTEX
  8
1
  6
CONTINUOUS
 62
     7
 10
-169.3973791441622
 20
253.0278383127906
  0
VERTEX
  8
1
  6
CONTINUOUS
 62
     7
 10
-169.3949366385811
 20
253.0212013383781
  0
VERTEX
  8
1
  6
CONTINUOUS
 62
     7
 10
-169.3926806665967
 20
253.014498160567
  0
VERTEX
  8
1
  6
CONTINUOUS
 62
     7
 10
-169.3906127711645
 20
253.0077342963073
  0
VERTEX
  8
1
  6
CONTINUOUS
 62
     7
 10
-169.3887344952397
 20
253.0009152625487
  0
VERTEX
  8
1
  6
CONTINUOUS
 62
     7
 10
-169.3870473817775
 20
252.9940465762412
  0
VERTEX
  8
1
  6
CONTINUOUS
 62
     7
 10
-169.3855529737332
 20
252.9871337543346
  0
VERTEX
  8
1
  6
CONTINUOUS
 62
     7
 10
-169.3842528140622
 20
252.980182313779
  0
VERTEX
  8
1
  6
CONTINUOUS
 62
     7
 10
-169.3831484457196
 20
252.9731977715239
  0
VERTEX
  8
1
  6
CONTINUOUS
 62
     7
 10
-169.3822414116609
 20
252.9661856445196
  0
VERTEX
  8
1
  6
CONTINUOUS
 62
     7
 10
-169.3815332548411
 20
252.9591514497157
  0
VERTEX
  8
1
  6
CONTINUOUS
 62
     7
 10
-169.3810255182157
 20
252.9521007040621
  0
VERTEX
  8
1
  6
CONTINUOUS
 62
     7
 10
-169.38071974474
 20
252.9450389245088
  0
VERTEX
  8
1
  6
CONTINUOUS
 62
     7
 10
-169.3806174773691
 20
252.9379716280056
  0
SEQEND
  8
1
  6
CONTINUOUS
 62
     7
  0
LINE
  8
1
  6
CONTINUOUS
 62
     7
 10
-170.4415
 20
264.5276501235865
 11
-170.5722528808211
 21
264.4848332968012
  0
ARC
  8
1
  6
CONTINUOUS
 62
     7
 10
-5.484558542441037
 20
-4716.114831300104
 40
4983.334924105019
 50
91.8984393484796
 51
92.17427663172857
  0
LINE
  8
1
  6
CONTINUOUS
 62
     7
 10
-196.8087098890453
 20
247.8236859137199
 11
-196.8087098890453
 21
250.8236859137199
  0
LINE
  8
1
  6
CONTINUOUS
 62
     7
 10
-196.8087098890453
 20
250.8236859137199
 11
-196.6720969913886
 21
250.8236859137199
  0
LINE
  8
1
  6
CONTINUOUS
 62
     7
 10
-196.6720969913886
 20
247.8236859137199
 11
-196.8087098890453
 21
247.8236859137199
  0
LINE
  8
1
  6
CONTINUOUS
 62
     7
 10
-168.1912901109547
 20
250.8236859137199
 11
-168.1912901109547
 21
247.8236859137199
  0
LINE
  8
1
  6
CONTINUOUS
 62
     7
 10
-168.3279030086114
 20
250.8236859137199
 11
-168.1912901109547
 21
250.8236859137199
  0
LINE
  8
1
  6
CONTINUOUS
 62
     7
 10
-168.1912901109547
 20
247.8236859137199
 11
-168.3279030086114
 21
247.8236859137199
  0
LINE
  8
1
  6
CONTINUOUS
 62
     7
 10
-170.8208574218687
 20
238.8096651368276
 11
-170.9749647492086
 21
238.7791065516336
  0
ARC
  8
1
  6
CONTINUOUS
 62
     7
 10
26.6742892797612
 20
-6828.0416805072
 40
7069.584235584511
 50
91.60206647004257
 51
91.78977052467965
  0
LINE
  8
1
  6
CONTINUOUS
 62
     7
 10
-194.1251476009672
 20
238.093675732319
 11
-194.188
 21
238.0688072566238
  0
LINE
  8
1
  6
CONTINUOUS
 62
     7
 10
-170.8172254502822
 20
240.3119069337096
 11
-170.9681415149006
 21
240.2798495767507
  0
ARC
  8
1
  6
CONTINUOUS
 62
     7
 10
57.34331470004553
 20
-7866.129806036121
 40
8109.62413590498
 50
91.61326977551614
 51
91.77690729254763
  0
LINE
  8
1
  6
CONTINUOUS
 62
     7
 10
-194.1191939179475
 20
239.5947286623122
 11
-194.1879999999947
 21
239.5689373257534
  0
LINE
  8
1
  6
CONTINUOUS
 62
     7
 10
-170.8194311978584
 20
241.8105257789215
 11
-170.968478772473
 21
241.7796788588005
  0
ARC
  8
1
  6
CONTINUOUS
 62
     7
 10
72.88118258107038
 20
-8400.274504126946
 40
8645.493806544751
 50
91.61626506334353
 51
91.76972859912178
  0
LINE
  8
1
  6
CONTINUOUS
 62
     7
 10
-194.1148344106558
 20
241.0955426835845
 11
-194.1879999999923
 21
241.0690450459739
  0
LINE
  8
1
  6
CONTINUOUS
 62
     7
 10
-170.8208278126351
 20
243.3096375500783
 11
-170.9620635997676
 21
243.2805615723266
  0
ARC
  8
1
  6
CONTINUOUS
 62
     7
 10
93.75706720382712
 20
-9096.769944129093
 40
9343.801135901103
 50
91.62346334808792
 51
91.76549864258449
  0
LINE
  8
1
  6
CONTINUOUS
 62
     7
 10
-194.1150579827941
 20
242.5956289067593
 11
-194.1879999999895
 21
242.569046022907
  0
LINE
  8
1
  6
CONTINUOUS
 62
     7
 10
-170.8171395227448
 20
244.8117278929933
 11
-170.9601678335025
 21
244.7809079436159
  0
ARC
  8
1
  6
CONTINUOUS
 62
     7
 10
103.7676552610883
 20
-9437.00932424178
 40
9685.6872485551
 50
91.62537317171204
 51
91.7623883363665
  0
LINE
  8
1
  6
CONTINUOUS
 62
     7
 10
-194.1120617777946
 20
244.0962505879703
 11
-194.1879999999823
 21
244.0689392738242
  0
ARC
  8
1
  6
CONTINUOUS
 62
     7
 10
129.3757307318739
 20
-10307.97513865336
 40
10558.52844296904
 50
91.62999454274104
 51
91.75566263431341
  0
LINE
  8
1
  6
CONTINUOUS
 62
     7
 10
-194.1090577159989
 20
245.5967909176359
 11
-194.1879999999823
 21
245.5688079589041
  0
POLYLINE
  8
1
  6
CONTINUOUS
 62
     7
 66
     1
  0
VERTEX
  8
1
  6
CONTINUOUS
 62
     7
 10
-170.1874806443234
 20
237.8236859137199
  0
VERTEX
  8
1
  6
CONTINUOUS
 62
     7
 10
-170.1875681258381
 20
237.8302284256608
  0
VERTEX
  8
1
  6
CONTINUOUS
 62
     7
 10
-170.1878297871507
 20
237.8367665530108
  0
VERTEX
  8
1
  6
CONTINUOUS
 62
     7
 10
-170.1882644534134
 20
237.843295911179
  0
VERTEX
  8
1
  6
CONTINUOUS
 62
     7
 10
-170.1888709497787
 20
237.8498121155745
  0
VERTEX
  8
1
  6
CONTINUOUS
 62
     7
 10
-170.1896481013991
 20
237.8563107816065
  0
VERTEX
  8
1
  6
CONTINUOUS
 62
     7
 10
-170.1905947334269
 20
237.862787524684
  0
VERTEX
  8
1
  6
CONTINUOUS
 62
     7
 10
-170.1917096710146
 20
237.8692379602161
  0
VERTEX
  8
1
  6
CONTINUOUS
 62
     7
 10
-170.1929917393145
 20
237.875657703612
  0
VERTEX
  8
1
  6
CONTINUOUS
 62
     7
 10
-170.1944397634791
 20
237.8820423702809
  0
VERTEX
  8
1
  6
CONTINUOUS
 62
     7
 10
-170.1960525686607
 20
237.8883875756317
  0
VERTEX
  8
1
  6
CONTINUOUS
 62
     7
 10
-170.1978289800119
 20
237.8946889350735
  0
VERTEX
  8
1
  6
CONTINUOUS
 62
     7
 10
-170.1997678226849
 20
237.9009420640156
  0
VERTEX
  8
1
  6
CONTINUOUS
 62
     7
 10
-170.2018679218323
 20
237.9071425778669
  0
VERTEX
  8
1
  6
CONTINUOUS
 62
     7
 10
-170.2041281026063
 20
237.9132860920367
  0
VERTEX
  8
1
  6
CONTINUOUS
 62
     7
 10
-170.2065471901596
 20
237.919368221934
  0
VERTEX
  8
1
  6
CONTINUOUS
 62
     7
 10
-170.2091240096444
 20
237.925384582968
  0
VERTEX
  8
1
  6
CONTINUOUS
 62
     7
 10
-170.2118573862131
 20
237.9313307905476
  0
VERTEX
  8
1
  6
CONTINUOUS
 62
     7
 10
-170.2147461450182
 20
237.9372024600822
  0
VERTEX
  8
1
  6
CONTINUOUS
 62
     7
 10
-170.2177891112121
 20
237.9429952069806
  0
VERTEX
  8
1
  6
CONTINUOUS
 62
     7
 10
-170.2209851099472
 20
237.9487046466521
  0
VERTEX
  8
1
  6
CONTINUOUS
 62
     7
 10
-170.2243326238519
 20
237.9543265922622
  0
VERTEX
  8
1
  6
CONTINUOUS
 62
     7
 10
-170.2278287789796
 20
237.9598576401951
  0
VERTEX
  8
1
  6
CONTINUOUS
 62
     7
 10
-170.2314703655873
 20
237.9652945807076
  0
VERTEX
  8
1
  6
CONTINUOUS
 62
     7
 10
-170.2352541739313
 20
237.9706342040562
  0
VERTEX
  8
1
  6
CONTINUOUS
 62
     7
 10
-170.2391769942685
 20
237.9758733004978
  0
VERTEX
  8
1
  6
CONTINUOUS
 62
     7
 10
-170.2432356168556
 20
237.981008660289
  0
VERTEX
  8
1
  6
CONTINUOUS
 62
     7
 10
-170.2474268319492
 20
237.9860370736865
  0
VERTEX
  8
1
  6
CONTINUOUS
 62
     7
 10
-170.2517474298062
 20
237.9909553309471
  0
VERTEX
  8
1
  6
CONTINUOUS
 62
     7
 10
-170.2561942006831
 20
237.9957602223273
  0
VERTEX
  8
1
  6
CONTINUOUS
 62
     7
 10
-170.2607639348367
 20
238.000448538084
  0
VERTEX
  8
1
  6
CONTINUOUS
 62
     7
 10
-170.2654534225236
 20
238.0050170684738
  0
VERTEX
  8
1
  6
CONTINUOUS
 62
     7
 10
-170.2702594540006
 20
238.0094626037533
  0
VERTEX
  8
1
  6
CONTINUOUS
 62
     7
 10
-170.2751788195244
 20
238.0137819341794
  0
VERTEX
  8
1
  6
CONTINUOUS
 62
     7
 10
-170.2802083093516
 20
238.0179718500087
  0
VERTEX
  8
1
  6
CONTINUOUS
 62
     7
 10
-170.285344713739
 20
238.0220291414979
  0
VERTEX
  8
1
  6
CONTINUOUS
 62
     7
 10
-170.2905848229432
 20
238.0259505989037
  0
VERTEX
  8
1
  6
CONTINUOUS
 62
     7
 10
-170.295925427221
 20
238.0297330124827
  0
VERTEX
  8
1
  6
CONTINUOUS
 62
     7
 10
-170.301363316829
 20
238.0333731724918
  0
VERTEX
  8
1
  6
CONTINUOUS
 62
     7
 10
-170.3068952820239
 20
238.0368678691875
  0
VERTEX
  8
1
  6
CONTINUOUS
 62
     7
 10
-170.3126869808486
 20
238.0403113931144
  0
VERTEX
  8
1
  6
CONTINUOUS
 62
     7
 10
-170.3438940445456
 20
238.0583287997405
  0
VERTEX
  8
1
  6
CONTINUOUS
 62
     7
 10
-170.3751011082425
 20
238.0763462063665
  0
VERTEX
  8
1
  6
CONTINUOUS
 62
     7
 10
-170.4063081719395
 20
238.0943636129926
  0
VERTEX
  8
1
  6
CONTINUOUS
 62
     7
 10
-170.4375152356365
 20
238.1123810196187
  0
VERTEX
  8
1
  6
CONTINUOUS
 62
     7
 10
-170.4687222993334
 20
238.1303984262447
  0
VERTEX
  8
1
  6
CONTINUOUS
 62
     7
 10
-170.4999293630304
 20
238.1484158328708
  0
VERTEX
  8
1
  6
CONTINUOUS
 62
     7
 10
-170.5311364267273
 20
238.1664332394968
  0
VERTEX
  8
1
  6
CONTINUOUS
 62
     7
 10
-170.5623434904243
 20
238.1844506461229
  0
VERTEX
  8
1
  6
CONTINUOUS
 62
     7
 10
-170.5935505541212
 20
238.2024680527489
  0
VERTEX
  8
1
  6
CONTINUOUS
 62
     7
 10
-170.6247576178182
 20
238.220485459375
  0
VERTEX
  8
1
  6
CONTINUOUS
 62
     7
 10
-170.6559646815152
 20
238.2385028660011
  0
VERTEX
  8
1
  6
CONTINUOUS
 62
     7
 10
-170.6871717452122
 20
238.2565202726271
  0
VERTEX
  8
1
  6
CONTINUOUS
 62
     7
 10
-170.7183788089092
 20
238.2745376792532
  0
VERTEX
  8
1
  6
CONTINUOUS
 62
     7
 10
-170.7495858726061
 20
238.2925550858793
  0
VERTEX
  8
1
  6
CONTINUOUS
 62
     7
 10
-170.780792936303
 20
238.3105724925053
  0
VERTEX
  8
1
  6
CONTINUOUS
 62
     7
 10
-170.812
 20
238.3285898991313
  0
SEQEND
  8
1
  6
CONTINUOUS
 62
     7
  0
LINE
  8
1
  6
CONTINUOUS
 62
     7
 10
-194.1827411160122
 20
246.5856653161483
 11
-194.073854689218
 21
246.6117057978706
  0
ARC
  8
1
  6
CONTINUOUS
 62
     7
 10
-1955.019760812576
 20
60161.62782974033
 40
59940.88827850801
 50
271.683480010156
 51
271.705628273558
  0
POLYLINE
  8
1
  6
CONTINUOUS
 62
     7
 66
     1
  0
VERTEX
  8
1
  6
CONTINUOUS
 62
     7
 10
-170.9132310135964
 20
247.2968937538533
  0
VERTEX
  8
1
  6
CONTINUOUS
 62
     7
 10
-170.8120190678565
 20
247.3281584677468
  0
VERTEX
  8
1
  6
CONTINUOUS
 62
     7
 10
-170.812
 20
247.3285898991314
  0
SEQEND
  8
1
  6
CONTINUOUS
 62
     7
  0
LINE
  8
1
  6
CONTINUOUS
 62
     7
 10
-194.1806935199853
 20
245.0868012167244
 11
-194.0449658338339
 21
245.1157750135048
  0
ARC
  8
1
  6
CONTINUOUS
 62
     7
 10
-432.4845050335443
 20
8645.52690858012
 40
8403.794418404328
 50
271.6258623449452
 51
271.7839674258234
  0
LINE
  8
1
  6
CONTINUOUS
 62
     7
 10
-170.865353062932
 20
245.8057199854716
 11
-170.8120000000014
 21
245.8285051715795
  0
LINE
  8
1
  6
CONTINUOUS
 62
     7
 10
-194.1790293897926
 20
243.5876661363421
 11
-194.051097061171
 21
243.6150956312758
  0
ARC
  8
1
  6
CONTINUOUS
 62
     7
 10
-575.1517975619564
 20
13517.00184754163
 40
13278.85663789288
 50
271.6446039734288
 51
271.7445634150168
  0
LINE
  8
1
  6
CONTINUOUS
 62
     7
 10
-170.8946545520581
 20
244.3001718451192
 11
-170.8120000000182
 21
244.3283708039475
  0
LINE
  8
1
  6
CONTINUOUS
 62
     7
 10
-194.1829323701746
 20
242.0853990541295
 11
-194.0529148447964
 21
242.1148623614289
  0
ARC
  8
1
  6
CONTINUOUS
 62
     7
 10
-603.6033564930267
 20
14483.89127001948
 40
14247.66390711052
 50
271.6471994759916
 51
271.7403563805701
  0
LINE
  8
1
  6
CONTINUOUS
 62
     7
 10
-170.8978375136821
 20
242.7995722659493
 11
-170.8120000000142
 21
242.8283109936736
  0
LINE
  8
1
  6
CONTINUOUS
 62
     7
 10
-194.1803939012663
 20
240.5871317654502
 11
-194.0548025465986
 21
240.6145732015359
  0
ARC
  8
1
  6
CONTINUOUS
 62
     7
 10
-669.5481274100594
 20
16720.32281770671
 40
16486.56658391921
 50
271.652711554769
 51
271.7332130589498
  0
LINE
  8
1
  6
CONTINUOUS
 62
     7
 10
-170.9010207779388
 20
241.298914906856
 11
-170.8120000000141
 21
241.3283689533802
  0
LINE
  8
1
  6
CONTINUOUS
 62
     7
 10
-194.1792204106255
 20
239.0878409333726
 11
-194.0607961573726
 21
239.1136221596392
  0
ARC
  8
1
  6
CONTINUOUS
 62
     7
 10
-727.1381148179776
 20
18647.4868337252
 40
18416.09013129428
 50
271.6587314234768
 51
271.7308182605643
  0
LINE
  8
1
  6
CONTINUOUS
 62
     7
 10
-170.9006805628535
 20
239.7988843740317
 11
-170.8120000000025
 21
239.828503296459
  0
POLYLINE
  8
1
  6
CONTINUOUS
 62
     7
 66
     1
  0
VERTEX
  8
1
  6
CONTINUOUS
 62
     7
 10
-170.812
 20
247.3285898991314
  0
VERTEX
  8
1
  6
CONTINUOUS
 62
     7
 10
-170.780792936303
 20
247.3105724925053
  0
VERTEX
  8
1
  6
CONTINUOUS
 62
     7
 10
-170.7495858726061
 20
247.2925550858793
  0
VERTEX
  8
1
  6
CONTINUOUS
 62
     7
 10
-170.7183788089091
 20
247.2745376792532
  0
VERTEX
  8
1
  6
CONTINUOUS
 62
     7
 10
-170.6871717452122
 20
247.2565202726271
  0
VERTEX
  8
1
  6
CONTINUOUS
 62
     7
 10
-170.6559646815152
 20
247.2385028660011
  0
VERTEX
  8
1
  6
CONTINUOUS
 62
     7
 10
-170.6247576178182
 20
247.220485459375
  0
VERTEX
  8
1
  6
CONTINUOUS
 62
     7
 10
-170.5935505541213
 20
247.202468052749
  0
VERTEX
  8
1
  6
CONTINUOUS
 62
     7
 10
-170.5623434904243
 20
247.1844506461229
  0
VERTEX
  8
1
  6
CONTINUOUS
 62
     7
 10
-170.5311364267273
 20
247.1664332394968
  0
VERTEX
  8
1
  6
CONTINUOUS
 62
     7
 10
-170.4999293630303
 20
247.1484158328707
  0
VERTEX
  8
1
  6
CONTINUOUS
 62
     7
 10
-170.4687222993334
 20
247.1303984262447
  0
VERTEX
  8
1
  6
CONTINUOUS
 62
     7
 10
-170.4375152356365
 20
247.1123810196187
  0
VERTEX
  8
1
  6
CONTINUOUS
 62
     7
 10
-170.4063081719395
 20
247.0943636129926
  0
VERTEX
  8
1
  6
CONTINUOUS
 62
     7
 10
-170.3751011082425
 20
247.0763462063665
  0
VERTEX
  8
1
  6
CONTINUOUS
 62
     7
 10
-170.3438940445456
 20
247.0583287997405
  0
VERTEX
  8
1
  6
CONTINUOUS
 62
     7
 10
-170.3126869808486
 20
247.0403113931144
  0
VERTEX
  8
1
  6
CONTINUOUS
 62
     7
 10
-170.3068952820239
 20
247.0368678691875
  0
VERTEX
  8
1
  6
CONTINUOUS
 62
     7
 10
-170.301363316829
 20
247.0333731724918
  0
VERTEX
  8
1
  6
CONTINUOUS
 62
     7
 10
-170.295925427221
 20
247.0297330124828
  0
VERTEX
  8
1
  6
CONTINUOUS
 62
     7
 10
-170.2905848229432
 20
247.0259505989036
  0
VERTEX
  8
1
  6
CONTINUOUS
 62
     7
 10
-170.285344713739
 20
247.0220291414979
  0
VERTEX
  8
1
  6
CONTINUOUS
 62
     7
 10
-170.2802083093516
 20
247.0179718500087
  0
VERTEX
  8
1
  6
CONTINUOUS
 62
     7
 10
-170.2751788195244
 20
247.0137819341794
  0
VERTEX
  8
1
  6
CONTINUOUS
 62
     7
 10
-170.2702594540006
 20
247.0094626037533
  0
VERTEX
  8
1
  6
CONTINUOUS
 62
     7
 10
-170.2654534225236
 20
247.0050170684738
  0
VERTEX
  8
1
  6
CONTINUOUS
 62
     7
 10
-170.2607639348366
 20
247.000448538084
  0
VERTEX
  8
1
  6
CONTINUOUS
 62
     7
 10
-170.2561942006831
 20
246.9957602223273
  0
VERTEX
  8
1
  6
CONTINUOUS
 62
     7
 10
-170.2517474298062
 20
246.9909553309471
  0
VERTEX
  8
1
  6
CONTINUOUS
 62
     7
 10
-170.2474268319493
 20
246.9860370736866
  0
VERTEX
  8
1
  6
CONTINUOUS
 62
     7
 10
-170.2432356168556
 20
246.981008660289
  0
VERTEX
  8
1
  6
CONTINUOUS
 62
     7
 10
-170.2391769942685
 20
246.9758733004978
  0
VERTEX
  8
1
  6
CONTINUOUS
 62
     7
 10
-170.2352541739313
 20
246.9706342040562
  0
VERTEX
  8
1
  6
CONTINUOUS
 62
     7
 10
-170.2314703655872
 20
246.9652945807076
  0
VERTEX
  8
1
  6
CONTINUOUS
 62
     7
 10
-170.2278287789796
 20
246.9598576401951
  0
VERTEX
  8
1
  6
CONTINUOUS
 62
     7
 10
-170.2243326238519
 20
246.9543265922622
  0
VERTEX
  8
1
  6
CONTINUOUS
 62
     7
 10
-170.2209851099472
 20
246.9487046466522
  0
VERTEX
  8
1
  6
CONTINUOUS
 62
     7
 10
-170.2177891112121
 20
246.9429952069806
  0
VERTEX
  8
1
  6
CONTINUOUS
 62
     7
 10
-170.2147461450182
 20
246.9372024600821
  0
VERTEX
  8
1
  6
CONTINUOUS
 62
     7
 10
-170.2118573862131
 20
246.9313307905476
  0
VERTEX
  8
1
  6
CONTINUOUS
 62
     7
 10
-170.2091240096444
 20
246.9253845829679
  0
VERTEX
  8
1
  6
CONTINUOUS
 62
     7
 10
-170.2065471901596
 20
246.919368221934
  0
VERTEX
  8
1
  6
CONTINUOUS
 62
     7
 10
-170.2041281026064
 20
246.9132860920367
  0
VERTEX
  8
1
  6
CONTINUOUS
 62
     7
 10
-170.2018679218323
 20
246.9071425778669
  0
VERTEX
  8
1
  6
CONTINUOUS
 62
     7
 10
-170.1997678226849
 20
246.9009420640156
  0
VERTEX
  8
1
  6
CONTINUOUS
 62
     7
 10
-170.1978289800119
 20
246.8946889350735
  0
VERTEX
  8
1
  6
CONTINUOUS
 62
     7
 10
-170.1960525686607
 20
246.8883875756316
  0
VERTEX
  8
1
  6
CONTINUOUS
 62
     7
 10
-170.1944397634791
 20
246.8820423702809
  0
VERTEX
  8
1
  6
CONTINUOUS
 62
     7
 10
-170.1929917393146
 20
246.8756577036121
  0
VERTEX
  8
1
  6
CONTINUOUS
 62
     7
 10
-170.1917096710146
 20
246.8692379602162
  0
VERTEX
  8
1
  6
CONTINUOUS
 62
     7
 10
-170.1905947334269
 20
246.862787524684
  0
VERTEX
  8
1
  6
CONTINUOUS
 62
     7
 10
-170.1896481013991
 20
246.8563107816065
  0
VERTEX
  8
1
  6
CONTINUOUS
 62
     7
 10
-170.1888709497788
 20
246.8498121155745
  0
VERTEX
  8
1
  6
CONTINUOUS
 62
     7
 10
-170.1882644534134
 20
246.843295911179
  0
VERTEX
  8
1
  6
CONTINUOUS
 62
     7
 10
-170.1878297871506
 20
246.8367665530108
  0
VERTEX
  8
1
  6
CONTINUOUS
 62
     7
 10
-170.1875681258381
 20
246.8302284256608
  0
VERTEX
  8
1
  6
CONTINUOUS
 62
     7
 10
-170.1874806443234
 20
246.8236859137199
  0
SEQEND
  8
1
  6
CONTINUOUS
 62
     7
  0
POLYLINE
  8
1
  6
CONTINUOUS
 62
     7
 66
     1
  0
VERTEX
  8
1
  6
CONTINUOUS
 62
     7
 10
-170.812
 20
237.3187819283085
  0
VERTEX
  8
1
  6
CONTINUOUS
 62
     7
 10
-170.7807929363031
 20
237.3367993349345
  0
VERTEX
  8
1
  6
CONTINUOUS
 62
     7
 10
-170.7495858726061
 20
237.3548167415605
  0
VERTEX
  8
1
  6
CONTINUOUS
 62
     7
 10
-170.7183788089091
 20
237.3728341481866
  0
VERTEX
  8
1
  6
CONTINUOUS
 62
     7
 10
-170.6871717452122
 20
237.3908515548127
  0
VERTEX
  8
1
  6
CONTINUOUS
 62
     7
 10
-170.6559646815152
 20
237.4088689614387
  0
VERTEX
  8
1
  6
CONTINUOUS
 62
     7
 10
-170.6247576178182
 20
237.4268863680648
  0
VERTEX
  8
1
  6
CONTINUOUS
 62
     7
 10
-170.5935505541212
 20
237.4449037746909
  0
VERTEX
  8
1
  6
CONTINUOUS
 62
     7
 10
-170.5623434904243
 20
237.4629211813169
  0
VERTEX
  8
1
  6
CONTINUOUS
 62
     7
 10
-170.5311364267273
 20
237.480938587943
  0
VERTEX
  8
1
  6
CONTINUOUS
 62
     7
 10
-170.4999293630304
 20
237.4989559945691
  0
VERTEX
  8
1
  6
CONTINUOUS
 62
     7
 10
-170.4687222993334
 20
237.5169734011951
  0
VERTEX
  8
1
  6
CONTINUOUS
 62
     7
 10
-170.4375152356364
 20
237.5349908078211
  0
VERTEX
  8
1
  6
CONTINUOUS
 62
     7
 10
-170.4063081719395
 20
237.5530082144472
  0
VERTEX
  8
1
  6
CONTINUOUS
 62
     7
 10
-170.3751011082425
 20
237.5710256210733
  0
VERTEX
  8
1
  6
CONTINUOUS
 62
     7
 10
-170.3438940445456
 20
237.5890430276993
  0
VERTEX
  8
1
  6
CONTINUOUS
 62
     7
 10
-170.3126869808486
 20
237.6070604343254
  0
VERTEX
  8
1
  6
CONTINUOUS
 62
     7
 10
-170.306895282024
 20
237.6105039582523
  0
VERTEX
  8
1
  6
CONTINUOUS
 62
     7
 10
-170.301363316829
 20
237.613998654948
  0
VERTEX
  8
1
  6
CONTINUOUS
 62
     7
 10
-170.295925427221
 20
237.6176388149571
  0
VERTEX
  8
1
  6
CONTINUOUS
 62
     7
 10
-170.2905848229432
 20
237.6214212285361
  0
VERTEX
  8
1
  6
CONTINUOUS
 62
     7
 10
-170.285344713739
 20
237.6253426859419
  0
VERTEX
  8
1
  6
CONTINUOUS
 62
     7
 10
-170.2802083093516
 20
237.6293999774311
  0
VERTEX
  8
1
  6
CONTINUOUS
 62
     7
 10
-170.2751788195244
 20
237.6335898932604
  0
VERTEX
  8
1
  6
CONTINUOUS
 62
     7
 10
-170.2702594540006
 20
237.6379092236865
  0
VERTEX
  8
1
  6
CONTINUOUS
 62
     7
 10
-170.2654534225236
 20
237.6423547589661
  0
VERTEX
  8
1
  6
CONTINUOUS
 62
     7
 10
-170.2607639348367
 20
237.6469232893559
  0
VERTEX
  8
1
  6
CONTINUOUS
 62
     7
 10
-170.2561942006831
 20
237.6516116051125
  0
VERTEX
  8
1
  6
CONTINUOUS
 62
     7
 10
-170.2517474298062
 20
237.6564164964928
  0
VERTEX
  8
1
  6
CONTINUOUS
 62
     7
 10
-170.2474268319492
 20
237.6613347537533
  0
VERTEX
  8
1
  6
CONTINUOUS
 62
     7
 10
-170.2432356168556
 20
237.6663631671508
  0
VERTEX
  8
1
  6
CONTINUOUS
 62
     7
 10
-170.2391769942685
 20
237.671498526942
  0
VERTEX
  8
1
  6
CONTINUOUS
 62
     7
 10
-170.2352541739313
 20
237.6767376233836
  0
VERTEX
  8
1
  6
CONTINUOUS
 62
     7
 10
-170.2314703655872
 20
237.6820772467322
  0
VERTEX
  8
1
  6
CONTINUOUS
 62
     7
 10
-170.2278287789797
 20
237.6875141872447
  0
VERTEX
  8
1
  6
CONTINUOUS
 62
     7
 10
-170.2243326238519
 20
237.6930452351776
  0
VERTEX
  8
1
  6
CONTINUOUS
 62
     7
 10
-170.2209851099472
 20
237.6986671807876
  0
VERTEX
  8
1
  6
CONTINUOUS
 62
     7
 10
-170.2177891112121
 20
237.7043766204592
  0
VERTEX
  8
1
  6
CONTINUOUS
 62
     7
 10
-170.2147461450182
 20
237.7101693673577
  0
VERTEX
  8
1
  6
CONTINUOUS
 62
     7
 10
-170.2118573862131
 20
237.7160410368922
  0
VERTEX
  8
1
  6
CONTINUOUS
 62
     7
 10
-170.2091240096444
 20
237.7219872444719
  0
VERTEX
  8
1
  6
CONTINUOUS
 62
     7
 10
-170.2065471901596
 20
237.7280036055058
  0
VERTEX
  8
1
  6
CONTINUOUS
 62
     7
 10
-170.2041281026063
 20
237.7340857354031
  0
VERTEX
  8
1
  6
CONTINUOUS
 62
     7
 10
-170.2018679218323
 20
237.7402292495729
  0
VERTEX
  8
1
  6
CONTINUOUS
 62
     7
 10
-170.1997678226849
 20
237.7464297634243
  0
VERTEX
  8
1
  6
CONTINUOUS
 62
     7
 10
-170.1978289800118
 20
237.7526828923664
  0
VERTEX
  8
1
  6
CONTINUOUS
 62
     7
 10
-170.1960525686607
 20
237.7589842518082
  0
VERTEX
  8
1
  6
CONTINUOUS
 62
     7
 10
-170.1944397634791
 20
237.7653294571589
  0
VERTEX
  8
1
  6
CONTINUOUS
 62
     7
 10
-170.1929917393145
 20
237.7717141238277
  0
VERTEX
  8
1
  6
CONTINUOUS
 62
     7
 10
-170.1917096710146
 20
237.7781338672237
  0
VERTEX
  8
1
  6
CONTINUOUS
 62
     7
 10
-170.1905947334269
 20
237.7845843027558
  0
VERTEX
  8
1
  6
CONTINUOUS
 62
     7
 10
-170.1896481013991
 20
237.7910610458334
  0
VERTEX
  8
1
  6
CONTINUOUS
 62
     7
 10
-170.1888709497787
 20
237.7975597118653
  0
VERTEX
  8
1
  6
CONTINUOUS
 62
     7
 10
-170.1882644534134
 20
237.8040759162608
  0
VERTEX
  8
1
  6
CONTINUOUS
 62
     7
 10
-170.1878297871506
 20
237.810605274429
  0
VERTEX
  8
1
  6
CONTINUOUS
 62
     7
 10
-170.1875681258381
 20
237.817143401779
  0
VERTEX
  8
1
  6
CONTINUOUS
 62
     7
 10
-170.1874806443234
 20
237.8236859137199
  0
SEQEND
  8
1
  6
CONTINUOUS
 62
     7
  0
LINE
  8
1
  6
CONTINUOUS
 62
     7
 10
-194.5584999999995
 20
262.2126036748372
 11
-194.4276633178229
 21
262.2553995375214
  0
ARC
  8
1
  6
CONTINUOUS
 62
     7
 10
3570.92546700144
 20
-109162.8850073507
 40
109489.9047276196
 50
91.95831357934873
 51
91.97078799676024
  0
LINE
  8
1
  6
CONTINUOUS
 62
     7
 10
-194.558499999999
 20
260.3984402917855
 11
-194.4345464167445
 21
260.4399405363711
  0
ARC
  8
1
  6
CONTINUOUS
 62
     7
 10
-365.3691713090369
 20
5398.458825617773
 40
5140.861475418317
 50
271.9054468128766
 51
272.1729152162096
  0
LINE
  8
1
  6
CONTINUOUS
 62
     7
 10
-194.5584999999915
 20
258.5842538552646
 11
-194.4349969021096
 21
258.6254407290451
  0
ARC
  8
1
  6
CONTINUOUS
 62
     7
 10
-385.0152893367368
 20
5962.580502170586
 40
5707.138003483799
 50
271.9136521373154
 51
272.1545369346307
  0
LINE
  8
1
  6
CONTINUOUS
 62
     7
 10
-194.5584999999878
 20
256.7699669675154
 11
-194.4396599897685
 21
256.8103237795935
  0
ARC
  8
1
  6
CONTINUOUS
 62
     7
 10
-324.2640443088458
 20
4244.078201403941
 40
3989.3808415215
 50
271.8648765594401
 51
272.2095662909497
  0
LINE
  8
1
  6
CONTINUOUS
 62
     7
 10
-194.5584999999847
 20
254.9555808953157
 11
-194.4442860260623
 21
254.9952555543285
  0
ARC
  8
1
  6
CONTINUOUS
 62
     7
 10
-320.9652083613351
 20
4138.265238367155
 40
3885.330526892621
 50
271.8660951980419
 51
272.2201379609309
  0
LINE
  8
1
  6
CONTINUOUS
 62
     7
 10
-194.5584999999998
 20
253.1411736859062
 11
-194.4286668039315
 21
253.1837426209042
  0
ARC
  8
1
  6
CONTINUOUS
 62
     7
 10
-374.6335077727715
 20
5670.39618377466
 40
5420.208890559445
 50
271.9052549660049
 51
272.1588239660969
  0
LINE
  8
1
  6
CONTINUOUS
 62
     7
 10
-170.4415000000137
 20
255.4561401557606
 11
-170.5490769522128
 21
255.4173838690946
  0
ARC
  8
1
  6
CONTINUOUS
 62
     7
 10
-22.2768831477618
 20
-4247.11572401033
 40
4504.973810246397
 50
91.88611650599442
 51
92.19148675788243
  0
LINE
  8
1
  6
CONTINUOUS
 62
     7
 10
-170.4415000000154
 20
257.2703006893384
 11
-170.5447304346411
 21
257.2325445227794
  0
ARC
  8
1
  6
CONTINUOUS
 62
     7
 10
-18.47777223885205
 20
-4344.830938198892
 40
4604.575187655778
 50
91.89254798061909
 51
92.19138279531037
  0
LINE
  8
1
  6
CONTINUOUS
 62
     7
 10
-170.4415000000048
 20
259.0845329484076
 11
-170.5404287485526
 21
259.0477121921187
  0
ARC
  8
1
  6
CONTINUOUS
 62
     7
 10
-24.77223009990981
 20
-4152.378513025587
 40
4413.833901301204
 50
91.89255456774093
 51
92.20440732958879
  0
LINE
  8
1
  6
CONTINUOUS
 62
     7
 10
-170.4415000000006
 20
260.8988748598431
 11
-170.5399421553338
 21
260.8621534645405
  0
ARC
  8
1
  6
CONTINUOUS
 62
     7
 10
-3.105447890345892
 20
-4769.980290800261
 40
5033.627917207034
 50
91.90619171127152
 51
92.17959241363118
  0
LINE
  8
1
  6
CONTINUOUS
 62
     7
 10
-170.4415000000007
 20
262.7132858655052
 11
-170.606277723935
 21
262.6653878239984
  0
ARC
  8
1
  6
CONTINUOUS
 62
     7
 10
-47.01556350094757
 20
-3573.334318016165
 40
3837.990152130144
 50
91.84535406110203
 51
92.2029595266975
  0
LINE
  8
1
  6
CONTINUOUS
 62
     7
 10
-170.4415
 20
265.3236859137199
 11
-194.5585
 21
265.3236859137199
  0
LINE
  8
1
  6
CONTINUOUS
 62
     7
 10
-170.4415
 20
253.6419358378722
 11
-170.5352419266803
 21
253.5542082601309
  0
ARC
  8
1
  6
CONTINUOUS
 62
     7
 10
-184.5734171470709
 20
344.8427538227622
 40
92.36162035423044
 50
273.1186586292379
 51
278.7423508087079
  0
POLYLINE
  8
1
  6
CONTINUOUS
 62
     7
 66
     1
  0
VERTEX
  8
1
  6
CONTINUOUS
 62
     7
 10
-179.5485766537461
 20
252.6179204400142
  0
VERTEX
  8
1
  6
CONTINUOUS
 62
     7
 10
-179.6444821524627
 20
252.5792833850205
  0
VERTEX
  8
1
  6
CONTINUOUS
 62
     7
 10
-179.5662601429783
 20
252.4983980795168
  0
SEQEND
  8
1
  6
CONTINUOUS
 62
     7
  0
ARC
  8
1
  6
CONTINUOUS
 62
     7
 10
-89.63615287761523
 20
3198.612603950176
 40
2947.486444112282
 50
268.2515897985904
 51
268.4290392567056
  0
LINE
  8
1
  6
CONTINUOUS
 62
     7
 10
-170.812
 20
236.3236859137199
 11
-194.188
 21
236.3236859137199
  0
LINE
  8
1
  6
CONTINUOUS
 62
     7
 10
-170.812
 20
238.3285898991313
 11
-170.9027974403734
 21
238.2529670472356
  0
ARC
  8
1
  6
CONTINUOUS
 62
     7
 10
-179.5095854626811
 20
288.9949150611623
 40
51.46670854357186
 50
274.0533070994275
 51
279.6268159688648
  0
POLYLINE
  8
1
  6
CONTINUOUS
 62
     7
 66
     1
  0
VERTEX
  8
1
  6
CONTINUOUS
 62
     7
 10
-175.871683740047
 20
237.6569392599542
  0
VERTEX
  8
1
  6
CONTINUOUS
 62
     7
 10
-175.9719756756787
 20
237.6203033240342
  0
VERTEX
  8
1
  6
CONTINUOUS
 62
     7
 10
-175.8932908769333
 20
237.5335090015013
  0
SEQEND
  8
1
  6
CONTINUOUS
 62
     7
  0
ARC
  8
1
  6
CONTINUOUS
 62
     7
 10
-151.2777401758921
 20
759.8056156081979
 40
522.8518706820435
 50
267.3015517950506
 51
267.8588750491689
  0
LINE
  8
1
  6
CONTINUOUS
 62
     7
 10
-165.2579310395851
 20
247.8236859137199
 11
-165.2579310395851
 21
248.1522516702672
  0
LINE
  8
1
  6
CONTINUOUS
 62
     7
 10
-165.2579310395851
 20
250.8236859137199
 11
-168.1912901109547
 21
250.8236859137199
  0
LINE
  8
1
  6
CONTINUOUS
 62
     7
 10
-165.2579310395851
 20
247.8236859137199
 11
-168.1912901109548
 21
247.8236859137199
  0
LINE
  8
1
  6
CONTINUOUS
 62
     7
 10
-199.742068960415
 20
247.8236859137199
 11
-199.742068960415
 21
250.8236859137199
  0
LINE
  8
1
  6
CONTINUOUS
 62
     7
 10
-196.8087098890453
 20
250.8236859137199
 11
-199.742068960415
 21
250.8236859137199
  0
LINE
  8
1
  6
CONTINUOUS
 62
     7
 10
-196.8087098890453
 20
247.8236859137199
 11
-199.742068960415
 21
247.8236859137199
  0
LINE
  8
1
  6
CONTINUOUS
 62
     7
 10
-165.2579310395851
 20
250.8236859137199
 11
-163.1540093115587
 21
250.8236859137199
  0
LINE
  8
1
  6
CONTINUOUS
 62
     7
 10
-165.2579310395851
 20
247.8236859137199
 11
-163.1540093115587
 21
247.8236859137199
  0
LINE
  8
1
  6
CONTINUOUS
 62
     7
 10
-201.8459906884413
 20
250.8236859137199
 11
-199.742068960415
 21
250.8236859137199
  0
LINE
  8
1
  6
CONTINUOUS
 62
     7
 10
-201.8459906884413
 20
247.8236859137199
 11
-199.742068960415
 21
247.8236859137199
  0
LINE
  8
1
  6
CONTINUOUS
 62
     7
 10
-201.9922382793704
 20
250.8236859137199
 11
-201.8459906884413
 21
250.8236859137199
  0
LINE
  8
1
  6
CONTINUOUS
 62
     7
 10
-201.8459906884413
 20
247.8236859137199
 11
-201.9922382793703
 21
247.8236859137199
  0
LINE
  8
1
  6
CONTINUOUS
 62
     7
 10
-163.1540093115588
 20
250.8236859137199
 11
-163.0077617206297
 21
250.8236859137199
  0
LINE
  8
1
  6
CONTINUOUS
 62
     7
 10
-163.0077617206297
 20
247.8236859137199
 11
-163.1540093115587
 21
247.8236859137199
  0
LINE
  8
1
  6
CONTINUOUS
 62
     7
 10
-202.0
 20
247.8236859137199
 11
-201.9922382793704
 21
247.8236859137199
  0
LINE
  8
1
  6
CONTINUOUS
 62
     7
 10
-202.0
 20
250.8236859137199
 11
-201.9922382793704
 21
250.8236859137199
  0
LINE
  8
1
  6
CONTINUOUS
 62
     7
 10
-163.0077617206297
 20
250.8236859137199
 11
-163.0
 21
250.8236859137199
  0
LINE
  8
1
  6
CONTINUOUS
 62
     7
 10
-163.0077617206297
 20
247.8236859137199
 11
-163.0
 21
247.8236859137199
  0
POLYLINE
  8
1
  6
CONTINUOUS
 62
     7
 66
     1
  0
VERTEX
  8
1
  6
CONTINUOUS
 62
     7
 10
-169.3806174773691
 20
252.937971628054
  0
VERTEX
  8
1
  6
CONTINUOUS
 62
     7
 10
-169.3856911888566
 20
252.9826593008216
  0
VERTEX
  8
1
  6
CONTINUOUS
 62
     7
 10
-169.400712707292
 20
253.0263428026727
  0
VERTEX
  8
1
  6
CONTINUOUS
 62
     7
 10
-169.4253750908391
 20
253.068017962692
  0
VERTEX
  8
1
  6
CONTINUOUS
 62
     7
 10
-169.4593449828247
 20
253.1066909820786
  0
VERTEX
  8
1
  6
CONTINUOUS
 62
     7
 10
-169.5020234178306
 20
253.1415246537927
  0
VERTEX
  8
1
  6
CONTINUOUS
 62
     7
 10
-169.5663923718636
 20
253.1785773332344
  0
VERTEX
  8
1
  6
CONTINUOUS
 62
     7
 10
-169.5842286437295
 20
253.1865652276223
  0
VERTEX
  8
1
  6
CONTINUOUS
 62
     7
 10
-169.5933913284998
 20
253.1903529286843
  0
VERTEX
  8
1
  6
CONTINUOUS
 62
     7
 10
-169.5980324511371
 20
253.1921940280952
  0
VERTEX
  8
1
  6
CONTINUOUS
 62
     7
 10
-169.5983238314227
 20
253.1923079176202
  0
VERTEX
  8
1
  6
CONTINUOUS
 62
     7
 10
-169.5984695791579
 20
253.192364810178
  0
VERTEX
  8
1
  6
CONTINUOUS
 62
     7
 10
-169.5984878003236
 20
253.1923719192999
  0
VERTEX
  8
1
  6
CONTINUOUS
 62
     7
 10
-169.5984935177725
 20
253.1923747441825
  0
VERTEX
  8
1
  6
CONTINUOUS
 62
     7
 10
-169.5984989481217
 20
253.1923774552135
  0
VERTEX
  8
1
  6
CONTINUOUS
 62
     7
 10
-169.6045084698507
 20
253.1953774222121
  0
SEQEND
  8
1
  6
CONTINUOUS
 62
     7
  0
LINE
  8
1
  6
CONTINUOUS
 62
     7
 10
-169.6045084698507
 20
253.1953774222121
 11
-170.6432809407775
 21
253.708502314986
  0
LINE
  8
1
  6
CONTINUOUS
 62
     7
 10
-170.4924279363819
 20
254.015345902336
 11
-169.5034696724811
 21
254.5320976290348
  0
POLYLINE
  8
1
  6
CONTINUOUS
 62
     7
 66
     1
  0
VERTEX
  8
1
  6
CONTINUOUS
 62
     7
 10
-169.5034696724811
 20
254.5320976290348
  0
VERTEX
  8
1
  6
CONTINUOUS
 62
     7
 10
-169.4913098190431
 20
254.5403318228629
  0
VERTEX
  8
1
  6
CONTINUOUS
 62
     7
 10
-169.4729339457531
 20
254.5547359751612
  0
VERTEX
  8
1
  6
CONTINUOUS
 62
     7
 10
-169.4556247123123
 20
254.5708954251206
  0
VERTEX
  8
1
  6
CONTINUOUS
 62
     7
 10
-169.4395906010818
 20
254.5887600843496
  0
VERTEX
  8
1
  6
CONTINUOUS
 62
     7
 10
-169.4250557263507
 20
254.6082677314409
  0
VERTEX
  8
1
  6
CONTINUOUS
 62
     7
 10
-169.4146675722255
 20
254.6250064832727
  0
VERTEX
  8
1
  6
CONTINUOUS
 62
     7
 10
-169.4054993552643
 20
254.6426900786259
  0
VERTEX
  8
1
  6
CONTINUOUS
 62
     7
 10
-169.3976361595919
 20
254.6612363393523
  0
VERTEX
  8
1
  6
CONTINUOUS
 62
     7
 10
-169.3911646046377
 20
254.6805537338383
  0
VERTEX
  8
1
  6
CONTINUOUS
 62
     7
 10
-169.3861744885481
 20
254.700542043877
  0
VERTEX
  8
1
  6
CONTINUOUS
 62
     7
 10
-169.382758863918
 20
254.7210920759936
  0
VERTEX
  8
1
  6
CONTINUOUS
 62
     7
 10
-169.3810141141681
 20
254.7420853690931
  0
VERTEX
  8
1
  6
CONTINUOUS
 62
     7
 10
-169.381038016572
 20
254.7633938984314
  0
VERTEX
  8
1
  6
CONTINUOUS
 62
     7
 10
-169.3828919601199
 20
254.7848797759083
  0
VERTEX
  8
1
  6
CONTINUOUS
 62
     7
 10
-169.3866012274202
 20
254.8063949466831
  0
VERTEX
  8
1
  6
CONTINUOUS
 62
     7
 10
-169.391125353949
 20
254.8242325838921
  0
VERTEX
  8
1
  6
CONTINUOUS
 62
     7
 10
-169.3969645022356
 20
254.8418832168107
  0
VERTEX
  8
1
  6
CONTINUOUS
 62
     7
 10
-169.4041289373203
 20
254.859244070202
  0
VERTEX
  8
1
  6
CONTINUOUS
 62
     7
 10
-169.4126277424486
 20
254.8762069143428
  0
VERTEX
  8
1
  6
CONTINUOUS
 62
     7
 10
-169.4224682009904
 20
254.8926582890835
  0
VERTEX
  8
1
  6
CONTINUOUS
 62
     7
 10
-169.4336356344005
 20
254.9084915877993
  0
VERTEX
  8
1
  6
CONTINUOUS
 62
     7
 10
-169.4460868933839
 20
254.9236108560178
  0
VERTEX
  8
1
  6
CONTINUOUS
 62
     7
 10
-169.4597731905453
 20
254.9379167816899
  0
VERTEX
  8
1
  6
CONTINUOUS
 62
     7
 10
-169.4746415515487
 20
254.9513056595139
  0
VERTEX
  8
1
  6
CONTINUOUS
 62
     7
 10
-169.4865342696049
 20
254.9606805911053
  0
VERTEX
  8
1
  6
CONTINUOUS
 62
     7
 10
-169.4990340074274
 20
254.9694315853448
  0
VERTEX
  8
1
  6
CONTINUOUS
 62
     7
 10
-169.5121135812255
 20
254.9775098355497
  0
VERTEX
  8
1
  6
CONTINUOUS
 62
     7
 10
-169.5188619196721
 20
254.9812810207863
  0
VERTEX
  8
1
  6
CONTINUOUS
 62
     7
 10
-169.5197149689629
 20
254.9817393915801
  0
VERTEX
  8
1
  6
CONTINUOUS
 62
     7
 10
-169.5201422771739
 20
254.9819674763778
  0
VERTEX
  8
1
  6
CONTINUOUS
 62
     7
 10
-169.5201957273624
 20
254.9819959352709
  0
VERTEX
  8
1
  6
CONTINUOUS
 62
     7
 10
-169.5202090911817
 20
254.9820030481973
  0
VERTEX
  8
1
  6
CONTINUOUS
 62
     7
 10
-169.5202128331423
 20
254.9820050396879
  0
VERTEX
  8
1
  6
CONTINUOUS
 62
     7
 10
-169.5202180891569
 20
254.9820077956625
  0
SEQEND
  8
1
  6
CONTINUOUS
 62
     7
  0
LINE
  8
1
  6
CONTINUOUS
 62
     7
 10
-169.5202235262904
 20
254.9820106347446
 11
-170.4403667369957
 21
255.4621434357212
  0
LINE
  8
1
  6
CONTINUOUS
 62
     7
 10
-170.4877158761888
 20
255.8321995928328
 11
-169.5014654859113
 21
256.3481110509336
  0
POLYLINE
  8
1
  6
CONTINUOUS
 62
     7
 66
     1
  0
VERTEX
  8
1
  6
CONTINUOUS
 62
     7
 10
-169.5014654859113
 20
256.3481110509337
  0
VERTEX
  8
1
  6
CONTINUOUS
 62
     7
 10
-169.4896817484537
 20
256.356165959242
  0
VERTEX
  8
1
  6
CONTINUOUS
 62
     7
 10
-169.4751176504608
 20
256.3674834840311
  0
VERTEX
  8
1
  6
CONTINUOUS
 62
     7
 10
-169.4611935515873
 20
256.3799370360251
  0
VERTEX
  8
1
  6
CONTINUOUS
 62
     7
 10
-169.4480154988708
 20
256.3935027893256
  0
VERTEX
  8
1
  6
CONTINUOUS
 62
     7
 10
-169.4356958928012
 20
256.4081520428927
  0
VERTEX
  8
1
  6
CONTINUOUS
 62
     7
 10
-169.4243536855562
 20
256.4238510312986
  0
VERTEX
  8
1
  6
CONTINUOUS
 62
     7
 10
-169.4141139191268
 20
256.4405603310691
  0
VERTEX
  8
1
  6
CONTINUOUS
 62
     7
 10
-169.4050860331195
 20
256.458221379442
  0
VERTEX
  8
1
  6
CONTINUOUS
 62
     7
 10
-169.3973570154488
 20
256.476751998269
  0
VERTEX
  8
1
  6
CONTINUOUS
 62
     7
 10
-169.391015437897
 20
256.4960606559367
  0
VERTEX
  8
1
  6
CONTINUOUS
 62
     7
 10
-169.3861530979856
 20
256.516047134238
  0
VERTEX
  8
1
  6
CONTINUOUS
 62
     7
 10
-169.3828650927561
 20
256.5366022396982
  0
VERTEX
  8
1
  6
CONTINUOUS
 62
     7
 10
-169.3812498928468
 20
256.5576075112223
  0
VERTEX
  8
1
  6
CONTINUOUS
 62
     7
 10
-169.3814074028952
 20
256.5789349240663
  0
VERTEX
  8
1
  6
CONTINUOUS
 62
     7
 10
-169.3834011778865
 20
256.6004465901298
  0
VERTEX
  8
1
  6
CONTINUOUS
 62
     7
 10
-169.3872587037791
 20
256.6219944545723
  0
VERTEX
  8
1
  6
CONTINUOUS
 62
     7
 10
-169.3919144297807
 20
256.639864611219
  0
VERTEX
  8
1
  6
CONTINUOUS
 62
     7
 10
-169.3978938942566
 20
256.6575525587703
  0
VERTEX
  8
1
  6
CONTINUOUS
 62
     7
 10
-169.4052086870892
 20
256.6749555219896
  0
VERTEX
  8
1
  6
CONTINUOUS
 62
     7
 10
-169.4138692285219
 20
256.6919652711535
  0
VERTEX
  8
1
  6
CONTINUOUS
 62
     7
 10
-169.4238841497283
 20
256.7084683461125
  0
VERTEX
  8
1
  6
CONTINUOUS
 62
     7
 10
-169.435240131844
 20
256.7243581402415
  0
VERTEX
  8
1
  6
CONTINUOUS
 62
     7
 10
-169.4478953981995
 20
256.7395386990685
  0
VERTEX
  8
1
  6
CONTINUOUS
 62
     7
 10
-169.4618025445301
 20
256.7539107105442
  0
VERTEX
  8
1
  6
CONTINUOUS
 62
     7
 10
-169.476909989504
 20
256.767370469367
  0
VERTEX
  8
1
  6
CONTINUOUS
 62
     7
 10
-169.488994830507
 20
256.7768017085543
  0
VERTEX
  8
1
  6
CONTINUOUS
 62
     7
 10
-169.5016983323119
 20
256.7856117076869
  0
VERTEX
  8
1
  6
CONTINUOUS
 62
     7
 10
-169.5149939093484
 20
256.7937516600821
  0
VERTEX
  8
1
  6
CONTINUOUS
 62
     7
 10
-169.5218550269196
 20
256.7975547079004
  0
VERTEX
  8
1
  6
CONTINUOUS
 62
     7
 10
-169.5227224030666
 20
256.7980171089304
  0
VERTEX
  8
1
  6
CONTINUOUS
 62
     7
 10
-169.5231568940029
 20
256.7982472127973
  0
VERTEX
  8
1
  6
CONTINUOUS
 62
     7
 10
-169.523211242938
 20
256.7982759242592
  0
VERTEX
  8
1
  6
CONTINUOUS
 62
     7
 10
-169.5232248314753
 20
256.7982831003342
  0
VERTEX
  8
1
  6
CONTINUOUS
 62
     7
 10
-169.5232286363593
 20
256.7982851095069
  0
VERTEX
  8
1
  6
CONTINUOUS
 62
     7
 10
-169.5232339192217
 20
256.7982878732618
  0
SEQEND
  8
1
  6
CONTINUOUS
 62
     7
  0
LINE
  8
1
  6
CONTINUOUS
 62
     7
 10
-169.5232393400725
 20
256.7982907017348
 11
-170.440231629225
 21
257.2763509764936
  0
LINE
  8
1
  6
CONTINUOUS
 62
     7
 10
-170.4908884408697
 20
257.6447184375394
 11
-169.5043209220885
 21
258.1602981368196
  0
POLYLINE
  8
1
  6
CONTINUOUS
 62
     7
 66
     1
  0
VERTEX
  8
1
  6
CONTINUOUS
 62
     7
 10
-169.5043209220885
 20
258.1602981368196
  0
VERTEX
  8
1
  6
CONTINUOUS
 62
     7
 10
-169.4899644739232
 20
258.1700519729554
  0
VERTEX
  8
1
  6
CONTINUOUS
 62
     7
 10
-169.4749780502162
 20
258.1817726935701
  0
VERTEX
  8
1
  6
CONTINUOUS
 62
     7
 10
-169.4608764734201
 20
258.1944859248585
  0
VERTEX
  8
1
  6
CONTINUOUS
 62
     7
 10
-169.4463659329321
 20
258.2096568799856
  0
VERTEX
  8
1
  6
CONTINUOUS
 62
     7
 10
-169.4331240434773
 20
258.225877560331
  0
VERTEX
  8
1
  6
CONTINUOUS
 62
     7
 10
-169.4212462928211
 20
258.2430588678491
  0
VERTEX
  8
1
  6
CONTINUOUS
 62
     7
 10
-169.4108229344629
 20
258.2611085435222
  0
VERTEX
  8
1
  6
CONTINUOUS
 62
     7
 10
-169.4019062482006
 20
258.2799113020408
  0
VERTEX
  8
1
  6
CONTINUOUS
 62
     7
 10
-169.3945316811107
 20
258.299341667393
  0
VERTEX
  8
1
  6
CONTINUOUS
 62
     7
 10
-169.3887345610011
 20
258.3192741182133
  0
VERTEX
  8
1
  6
CONTINUOUS
 62
     7
 10
-169.3845501692126
 20
258.3395831331363
  0
VERTEX
  8
1
  6
CONTINUOUS
 62
     7
 10
-169.3820137386943
 20
258.3601431907965
  0
VERTEX
  8
1
  6
CONTINUOUS
 62
     7
 10
-169.3811604520783
 20
258.3808287698286
  0
VERTEX
  8
1
  6
CONTINUOUS
 62
     7
 10
-169.3820137385257
 20
258.4015143488671
  0
VERTEX
  8
1
  6
CONTINUOUS
 62
     7
 10
-169.3845501688789
 20
258.4220744065467
  0
VERTEX
  8
1
  6
CONTINUOUS
 62
     7
 10
-169.388734560506
 20
258.4423834215017
  0
VERTEX
  8
1
  6
CONTINUOUS
 62
     7
 10
-169.3945316804578
 20
258.4623158723671
  0
VERTEX
  8
1
  6
CONTINUOUS
 62
     7
 10
-169.4019062473934
 20
258.4817462377771
  0
VERTEX
  8
1
  6
CONTINUOUS
 62
     7
 10
-169.4108229335052
 20
258.5005489963664
  0
VERTEX
  8
1
  6
CONTINUOUS
 62
     7
 10
-169.4212462917165
 20
258.5185986721229
  0
VERTEX
  8
1
  6
CONTINUOUS
 62
     7
 10
-169.4331240422336
 20
258.535779979735
  0
VERTEX
  8
1
  6
CONTINUOUS
 62
     7
 10
-169.446365931559
 20
258.5520006601832
  0
VERTEX
  8
1
  6
CONTINUOUS
 62
     7
 10
-169.4608764719274
 20
258.5671716154224
  0
VERTEX
  8
1
  6
CONTINUOUS
 62
     7
 10
-169.473868793227
 20
258.5789479248585
  0
VERTEX
  8
1
  6
CONTINUOUS
 62
     7
 10
-169.4876205176752
 20
258.5898818234436
  0
VERTEX
  8
1
  6
CONTINUOUS
 62
     7
 10
-169.5020763604224
 20
258.5999217498092
  0
VERTEX
  8
1
  6
CONTINUOUS
 62
     7
 10
-169.5133470609301
 20
258.6068340079284
  0
VERTEX
  8
1
  6
CONTINUOUS
 62
     7
 10
-169.5191119846903
 20
258.6100838908553
  0
VERTEX
  8
1
  6
CONTINUOUS
 62
     7
 10
-169.5220255643491
 20
258.6116560811983
  0
VERTEX
  8
1
  6
CONTINUOUS
 62
     7
 10
-169.5222083395297
 20
258.6117531639064
  0
VERTEX
  8
1
  6
CONTINUOUS
 62
     7
 10
-169.5222997567687
 20
258.611801653056
  0
VERTEX
  8
1
  6
CONTINUOUS
 62
     7
 10
-169.5223111853126
 20
258.6118077117519
  0
VERTEX
  8
1
  6
CONTINUOUS
 62
     7
 10
-169.5223164512246
 20
258.6118104619204
  0
VERTEX
  8
1
  6
CONTINUOUS
 62
     7
 10
-169.5223215341202
 20
258.611813115178
  0
VERTEX
  8
1
  6
CONTINUOUS
 62
     7
 10
-169.7329727231305
 20
258.7217484328926
  0
VERTEX
  8
1
  6
CONTINUOUS
 62
     7
 10
-170.4414715927345
 20
259.0911870968829
  0
SEQEND
  8
1
  6
CONTINUOUS
 62
     7
  0
LINE
  8
1
  6
CONTINUOUS
 62
     7
 10
-170.4922348700565
 20
259.4582169499001
 11
-169.5034425933089
 21
259.9749681551285
  0
POLYLINE
  8
1
  6
CONTINUOUS
 62
     7
 66
     1
  0
VERTEX
  8
1
  6
CONTINUOUS
 62
     7
 10
-169.5034425933089
 20
259.9749681551285
  0
VERTEX
  8
1
  6
CONTINUOUS
 62
     7
 10
-169.4913110431407
 20
259.9831943663953
  0
VERTEX
  8
1
  6
CONTINUOUS
 62
     7
 10
-169.4729601171487
 20
259.9975986140676
  0
VERTEX
  8
1
  6
CONTINUOUS
 62
     7
 10
-169.4556757537786
 20
260.0137584168184
  0
VERTEX
  8
1
  6
CONTINUOUS
 62
     7
 10
-169.4396664759055
 20
260.031623686256
  0
VERTEX
  8
1
  6
CONTINUOUS
 62
     7
 10
-169.4251564363431
 20
260.0511322009733
  0
VERTEX
  8
1
  6
CONTINUOUS
 62
     7
 10
-169.4147881761449
 20
260.0678718322464
  0
VERTEX
  8
1
  6
CONTINUOUS
 62
     7
 10
-169.4056398952862
 20
260.0855564717879
  0
VERTEX
  8
1
  6
CONTINUOUS
 62
     7
 10
-169.397796695026
 20
260.1041039414497
  0
VERTEX
  8
1
  6
CONTINUOUS
 62
     7
 10
-169.3913452111427
 20
260.1234227096182
  0
VERTEX
  8
1
  6
CONTINUOUS
 62
     7
 10
-169.3863752572728
 20
260.1434125580865
  0
VERTEX
  8
1
  6
CONTINUOUS
 62
     7
 10
-169.3829799005759
 20
260.1639642933796
  0
VERTEX
  8
1
  6
CONTINUOUS
 62
     7
 10
-169.381255538042
 20
260.1849594544029
  0
VERTEX
  8
1
  6
CONTINUOUS
 62
     7
 10
-169.3812999594855
 20
260.2062700164121
  0
VERTEX
  8
1
  6
CONTINUOUS
 62
     7
 10
-169.3831745661615
 20
260.2277580913069
  0
VERTEX
  8
1
  6
CONTINUOUS
 62
     7
 10
-169.3869046528999
 20
260.2492756242468
  0
VERTEX
  8
1
  6
CONTINUOUS
 62
     7
 10
-169.3914462567607
 20
260.267115355775
  0
VERTEX
  8
1
  6
CONTINUOUS
 62
     7
 10
-169.3973030053764
 20
260.2847681974206
  0
VERTEX
  8
1
  6
CONTINUOUS
 62
     7
 10
-169.4044851698361
 20
260.3021313739467
  0
VERTEX
  8
1
  6
CONTINUOUS
 62
     7
 10
-169.4130018391021
 20
260.3190966556299
  0
VERTEX
  8
1
  6
CONTINUOUS
 62
     7
 10
-169.422860301939
 20
260.3355505823207
  0
VERTEX
  8
1
  6
CONTINUOUS
 62
     7
 10
-169.4340458855037
 20
260.3513865473943
  0
VERTEX
  8
1
  6
CONTINUOUS
 62
     7
 10
-169.4465154468659
 20
260.3665085963783
  0
VERTEX
  8
1
  6
CONTINUOUS
 62
     7
 10
-169.4602202050694
 20
260.3808174172236
  0
VERTEX
  8
1
  6
CONTINUOUS
 62
     7
 10
-169.4751071922761
 20
260.3942093046285
  0
VERTEX
  8
1
  6
CONTINUOUS
 62
     7
 10
-169.4870139923299
 20
260.4035865684857
  0
VERTEX
  8
1
  6
CONTINUOUS
 62
     7
 10
-169.4995279115788
 20
260.4123399593452
  0
VERTEX
  8
1
  6
CONTINUOUS
 62
     7
 10
-169.5126217691032
 20
260.4204206705245
  0
VERTEX
  8
1
  6
CONTINUOUS
 62
     7
 10
-169.5193772886882
 20
260.4241931103811
  0
VERTEX
  8
1
  6
CONTINUOUS
 62
     7
 10
-169.5202312374894
 20
260.4246516391337
  0
VERTEX
  8
1
  6
CONTINUOUS
 62
     7
 10
-169.5206589956121
 20
260.4248798030051
  0
VERTEX
  8
1
  6
CONTINUOUS
 62
     7
 10
-169.520712502047
 20
260.4249082717868
  0
VERTEX
  8
1
  6
CONTINUOUS
 62
     7
 10
-169.5207258799281
 20
260.4249153871855
  0
VERTEX
  8
1
  6
CONTINUOUS
 62
     7
 10
-169.520729625826
 20
260.4249173793683
  0
VERTEX
  8
1
  6
CONTINUOUS
 62
     7
 10
-169.5207348834293
 20
260.4249201356475
  0
SEQEND
  8
1
  6
CONTINUOUS
 62
     7
  0
LINE
  8
1
  6
CONTINUOUS
 62
     7
 10
-169.5207403193494
 20
260.424922973953
 11
-170.4403529304651
 21
260.9047599049012
  0
LINE
  8
1
  6
CONTINUOUS
 62
     7
 10
-170.4871158014157
 20
261.275135472522
 11
-169.5009703183057
 21
261.7910212695407
  0
POLYLINE
  8
1
  6
CONTINUOUS
 62
     7
 66
     1
  0
VERTEX
  8
1
  6
CONTINUOUS
 62
     7
 10
-169.5009703183058
 20
261.7910212695407
  0
VERTEX
  8
1
  6
CONTINUOUS
 62
     7
 10
-169.4892112433523
 20
261.7990667217889
  0
VERTEX
  8
1
  6
CONTINUOUS
 62
     7
 10
-169.474664613356
 20
261.8103814281978
  0
VERTEX
  8
1
  6
CONTINUOUS
 62
     7
 10
-169.4607581596571
 20
261.8228322878724
  0
VERTEX
  8
1
  6
CONTINUOUS
 62
     7
 10
-169.4475979577147
 20
261.8363954749142
  0
VERTEX
  8
1
  6
CONTINUOUS
 62
     7
 10
-169.4352964358353
 20
261.8510422882833
  0
VERTEX
  8
1
  6
CONTINUOUS
 62
     7
 10
-169.4239725732541
 20
261.8667389625521
  0
VERTEX
  8
1
  6
CONTINUOUS
 62
     7
 10
-169.4137514380771
 20
261.8834460742461
  0
VERTEX
  8
1
  6
CONTINUOUS
 62
     7
 10
-169.4047424943392
 20
261.9011050606032
  0
VERTEX
  8
1
  6
CONTINUOUS
 62
     7
 10
-169.3970327525065
 20
261.9196337434753
  0
VERTEX
  8
1
  6
CONTINUOUS
 62
     7
 10
-169.3907108056249
 20
261.9389405912487
  0
VERTEX
  8
1
  6
CONTINUOUS
 62
     7
 10
-169.3858684710759
 20
261.9589253857166
  0
VERTEX
  8
1
  6
CONTINUOUS
 62
     7
 10
-169.3826008641905
 20
261.979478933404
  0
VERTEX
  8
1
  6
CONTINUOUS
 62
     7
 10
-169.3810064721547
 20
262.0004827732161
  0
VERTEX
  8
1
  6
CONTINUOUS
 62
     7
 10
-169.3811852142006
 20
262.0218088804088
  0
VERTEX
  8
1
  6
CONTINUOUS
 62
     7
 10
-169.3832006572104
 20
262.0433193668817
  0
VERTEX
  8
1
  6
CONTINUOUS
 62
     7
 10
-169.3870802964942
 20
262.0648661777944
  0
VERTEX
  8
1
  6
CONTINUOUS
 62
     7
 10
-169.3917547959071
 20
262.082735552796
  0
VERTEX
  8
1
  6
CONTINUOUS
 62
     7
 10
-169.3977533513826
 20
262.1004228062445
  0
VERTEX
  8
1
  6
CONTINUOUS
 62
     7
 10
-169.4050875549073
 20
262.117825162903
  0
VERTEX
  8
1
  6
CONTINUOUS
 62
     7
 10
-169.4137678277329
 20
262.1348343930483
  0
VERTEX
  8
1
  6
CONTINUOUS
 62
     7
 10
-169.4238028008994
 20
262.1513370365309
  0
VERTEX
  8
1
  6
CONTINUOUS
 62
     7
 10
-169.4351791541371
 20
262.1672264867258
  0
VERTEX
  8
1
  6
CONTINUOUS
 62
     7
 10
-169.4478551082036
 20
262.1824067891608
  0
VERTEX
  8
1
  6
CONTINUOUS
 62
     7
 10
-169.4617832553143
 20
262.1967786317867
  0
VERTEX
  8
1
  6
CONTINUOUS
 62
     7
 10
-169.4769120096841
 20
262.2102383093018
  0
VERTEX
  8
1
  6
CONTINUOUS
 62
     7
 10
-169.4890130320603
 20
262.2196695449579
  0
VERTEX
  8
1
  6
CONTINUOUS
 62
     7
 10
-169.5017328832155
 20
262.2284795898018
  0
VERTEX
  8
1
  6
CONTINUOUS
 62
     7
 10
-169.5150449746809
 20
262.2366196371509
  0
VERTEX
  8
1
  6
CONTINUOUS
 62
     7
 10
-169.5219144103873
 20
262.2404227509119
  0
VERTEX
  8
1
  6
CONTINUOUS
 62
     7
 10
-169.5227828291263
 20
262.2408851610504
  0
VERTEX
  8
1
  6
CONTINUOUS
 62
     7
 10
-169.523217841593
 20
262.2411152695436
  0
VERTEX
  8
1
  6
CONTINUOUS
 62
     7
 10
-169.5232722557305
 20
262.2411439815871
  0
VERTEX
  8
1
  6
CONTINUOUS
 62
     7
 10
-169.5232858605688
 20
262.2411511578078
  0
VERTEX
  8
1
  6
CONTINUOUS
 62
     7
 10
-169.523289670017
 20
262.2411531670212
  0
VERTEX
  8
1
  6
CONTINUOUS
 62
     7
 10
-169.5232949548708
 20
262.2411559307939
  0
SEQEND
  8
1
  6
CONTINUOUS
 62
     7
  0
LINE
  8
1
  6
CONTINUOUS
 62
     7
 10
-169.5233003744645
 20
262.2411587582091
 11
-170.4402274998429
 21
262.7191225251975
  0
LINE
  8
1
  6
CONTINUOUS
 62
     7
 10
-170.6432809560289
 20
263.0531552187077
 11
-169.5848503795251
 21
263.574828737835
  0
LINE
  8
1
  6
CONTINUOUS
 62
     7
 10
-169.5848503795251
 20
263.574828737835
 11
-169.3806174773691
 21
263.8236859137683
  0
LINE
  8
1
  6
CONTINUOUS
 62
     7
 10
-194.5125387843406
 20
263.6509051704476
 11
-195.4988322251251
 21
263.1350240718868
  0
POLYLINE
  8
1
  6
CONTINUOUS
 62
     7
 66
     1
  0
VERTEX
  8
1
  6
CONTINUOUS
 62
     7
 10
-195.4988322251251
 20
263.1350240718868
  0
VERTEX
  8
1
  6
CONTINUOUS
 62
     7
 10
-195.5106207529462
 20
263.126970861211
  0
VERTEX
  8
1
  6
CONTINUOUS
 62
     7
 10
-195.5251909772022
 20
263.1156555736028
  0
VERTEX
  8
1
  6
CONTINUOUS
 62
     7
 10
-195.539121543649
 20
263.1032040828427
  0
VERTEX
  8
1
  6
CONTINUOUS
 62
     7
 10
-195.5523063376432
 20
263.0896402148295
  0
VERTEX
  8
1
  6
CONTINUOUS
 62
     7
 10
-195.5646328873591
 20
263.0749926706035
  0
VERTEX
  8
1
  6
CONTINUOUS
 62
     7
 10
-195.5759821654912
 20
263.0592952155926
  0
VERTEX
  8
1
  6
CONTINUOUS
 62
     7
 10
-195.5862290510981
 20
263.0425872732718
  0
VERTEX
  8
1
  6
CONTINUOUS
 62
     7
 10
-195.5952640223557
 20
263.0249274064062
  0
VERTEX
  8
1
  6
CONTINUOUS
 62
     7
 10
-195.6030000060888
 20
263.0063977931447
  0
VERTEX
  8
1
  6
CONTINUOUS
 62
     7
 10
-195.6093483416236
 20
262.9870899651018
  0
VERTEX
  8
1
  6
CONTINUOUS
 62
     7
 10
-195.6142171388998
 20
262.9671041404845
  0
VERTEX
  8
1
  6
CONTINUOUS
 62
     7
 10
-195.6175112047297
 20
262.9465495127684
  0
VERTEX
  8
1
  6
CONTINUOUS
 62
     7
 10
-195.6191319687775
 20
262.9255445430487
  0
VERTEX
  8
1
  6
CONTINUOUS
 62
     7
 10
-195.6189794232933
 20
262.9042172560701
  0
VERTEX
  8
1
  6
CONTINUOUS
 62
     7
 10
-195.6169899079982
 20
262.8827055399333
  0
VERTEX
  8
1
  6
CONTINUOUS
 62
     7
 10
-195.6131358296164
 20
262.8611574494795
  0
VERTEX
  8
1
  6
CONTINUOUS
 62
     7
 10
-195.6084822767269
 20
262.8432869700932
  0
VERTEX
  8
1
  6
CONTINUOUS
 62
     7
 10
-195.6025042796668
 20
262.8255985776238
  0
VERTEX
  8
1
  6
CONTINUOUS
 62
     7
 10
-195.5951901820457
 20
262.808195047308
  0
VERTEX
  8
1
  6
CONTINUOUS
 62
     7
 10
-195.5865294958818
 20
262.7911846088697
  0
VERTEX
  8
1
  6
CONTINUOUS
 62
     7
 10
-195.5765135211066
 20
262.7746807224584
  0
VERTEX
  8
1
  6
CONTINUOUS
 62
     7
 10
-195.5651555072016
 20
262.7587899946968
  0
VERTEX
  8
1
  6
CONTINUOUS
 62
     7
 10
-195.5524971611929
 20
262.743608380057
  0
VERTEX
  8
1
  6
CONTINUOUS
 62
     7
 10
-195.5385858167659
 20
262.7292351905883
  0
VERTEX
  8
1
  6
CONTINUOUS
 62
     7
 10
-195.5234729837046
 20
262.7157741315927
  0
VERTEX
  8
1
  6
CONTINUOUS
 62
     7
 10
-195.5113832772595
 20
262.7063418370953
  0
VERTEX
  8
1
  6
CONTINUOUS
 62
     7
 10
-195.4986741776913
 20
262.6975307139266
  0
VERTEX
  8
1
  6
CONTINUOUS
 62
     7
 10
-195.4853722616588
 20
262.6893895687693
  0
VERTEX
  8
1
  6
CONTINUOUS
 62
     7
 10
-195.4785076943893
 20
262.685585898798
  0
VERTEX
  8
1
  6
CONTINUOUS
 62
     7
 10
-195.4776398738344
 20
262.6851234187907
  0
VERTEX
  8
1
  6
CONTINUOUS
 62
     7
 10
-195.4772051595926
 20
262.6848932753346
  0
VERTEX
  8
1
  6
CONTINUOUS
 62
     7
 10
-195.4771507826926
 20
262.6848645589192
  0
VERTEX
  8
1
  6
CONTINUOUS
 62
     7
 10
-195.4771371871623
 20
262.6848573816058
  0
VERTEX
  8
1
  6
CONTINUOUS
 62
     7
 10
-195.4771333803202
 20
262.6848553720862
  0
VERTEX
  8
1
  6
CONTINUOUS
 62
     7
 10
-195.4771280829077
 20
262.6848526011013
  0
SEQEND
  8
1
  6
CONTINUOUS
 62
     7
  0
LINE
  8
1
  6
CONTINUOUS
 62
     7
 10
-195.4771226622118
 20
262.6848497728975
 11
-194.5597631440368
 21
262.2066372739691
  0
LINE
  8
1
  6
CONTINUOUS
 62
     7
 10
-194.509271936375
 20
261.8382795600028
 11
-195.4958857543462
 21
261.3226966379415
  0
POLYLINE
  8
1
  6
CONTINUOUS
 62
     7
 66
     1
  0
VERTEX
  8
1
  6
CONTINUOUS
 62
     7
 10
-195.4958857543462
 20
261.3226966379415
  0
VERTEX
  8
1
  6
CONTINUOUS
 62
     7
 10
-195.5102466792085
 20
261.3129417216264
  0
VERTEX
  8
1
  6
CONTINUOUS
 62
     7
 10
-195.52523672067
 20
261.3012205264261
  0
VERTEX
  8
1
  6
CONTINUOUS
 62
     7
 10
-195.5393417189001
 20
261.2885068205595
  0
VERTEX
  8
1
  6
CONTINUOUS
 62
     7
 10
-195.553855805916
 20
261.2733353394481
  0
VERTEX
  8
1
  6
CONTINUOUS
 62
     7
 10
-195.5671009660419
 20
261.2571141331277
  0
VERTEX
  8
1
  6
CONTINUOUS
 62
     7
 10
-195.5789816932476
 20
261.2399322996436
  0
VERTEX
  8
1
  6
CONTINUOUS
 62
     7
 10
-195.5894077158876
 20
261.2218820980149
  0
VERTEX
  8
1
  6
CONTINUOUS
 62
     7
 10
-195.598326736759
 20
261.2030788135535
  0
VERTEX
  8
1
  6
CONTINUOUS
 62
     7
 10
-195.6057032918009
 20
261.1836479222713
  0
VERTEX
  8
1
  6
CONTINUOUS
 62
     7
 10
-195.6115020363821
 20
261.1637149455339
  0
VERTEX
  8
1
  6
CONTINUOUS
 62
     7
 10
-195.6156876725248
 20
261.1434054047066
  0
VERTEX
  8
1
  6
CONTINUOUS
 62
     7
 10
-195.6182249508558
 20
261.122844821155
  0
VERTEX
  8
1
  6
CONTINUOUS
 62
     7
 10
-195.6190786725593
 20
261.1021587162443
  0
VERTEX
  8
1
  6
CONTINUOUS
 62
     7
 10
-195.6182253927759
 20
261.0814726113401
  0
VERTEX
  8
1
  6
CONTINUOUS
 62
     7
 10
-195.6156885261137
 20
261.0609120278077
  0
VERTEX
  8
1
  6
CONTINUOUS
 62
     7
 10
-195.6115032411744
 20
261.0406024870126
  0
VERTEX
  8
1
  6
CONTINUOUS
 62
     7
 10
-195.6057047571942
 20
261.0206695103201
  0
VERTEX
  8
1
  6
CONTINUOUS
 62
     7
 10
-195.5983283421244
 20
261.0012386190958
  0
VERTEX
  8
1
  6
CONTINUOUS
 62
     7
 10
-195.5894093107122
 20
260.982435334705
  0
VERTEX
  8
1
  6
CONTINUOUS
 62
     7
 10
-195.5789830973085
 20
260.9643851331599
  0
VERTEX
  8
1
  6
CONTINUOUS
 62
     7
 10
-195.5671019696129
 20
260.9472032997695
  0
VERTEX
  8
1
  6
CONTINUOUS
 62
     7
 10
-195.5538561699931
 20
260.9309820935521
  0
VERTEX
  8
1
  6
CONTINUOUS
 62
     7
 10
-195.539341175437
 20
260.9158106125528
  0
VERTEX
  8
1
  6
CONTINUOUS
 62
     7
 10
-195.5263447192303
 20
260.9040338649903
  0
VERTEX
  8
1
  6
CONTINUOUS
 62
     7
 10
-195.512588468863
 20
260.893099528285
  0
VERTEX
  8
1
  6
CONTINUOUS
 62
     7
 10
-195.4981277032902
 20
260.8830591638057
  0
VERTEX
  8
1
  6
CONTINUOUS
 62
     7
 10
-195.4868530466922
 20
260.8761465771053
  0
VERTEX
  8
1
  6
CONTINUOUS
 62
     7
 10
-195.4810860591775
 20
260.8728965298892
  0
VERTEX
  8
1
  6
CONTINUOUS
 62
     7
 10
-195.478171426082
 20
260.8713242574019
  0
VERTEX
  8
1
  6
CONTINUOUS
 62
     7
 10
-195.4779885845832
 20
260.8712271695597
  0
VERTEX
  8
1
  6
CONTINUOUS
 62
     7
 10
-195.4778971341638
 20
260.8711786778432
  0
VERTEX
  8
1
  6
CONTINUOUS
 62
     7
 10
-195.4778857014714
 20
260.8711726188264
  0
VERTEX
  8
1
  6
CONTINUOUS
 62
     7
 10
-195.4778804216126
 20
260.8711698615579
  0
VERTEX
  8
1
  6
CONTINUOUS
 62
     7
 10
-195.4778753384214
 20
260.8711672082826
  0
VERTEX
  8
1
  6
CONTINUOUS
 62
     7
 10
-195.2672114666892
 20
260.7612311591246
  0
VERTEX
  8
1
  6
CONTINUOUS
 62
     7
 10
-194.5585286465175
 20
260.3917195556674
  0
SEQEND
  8
1
  6
CONTINUOUS
 62
     7
  0
LINE
  8
1
  6
CONTINUOUS
 62
     7
 10
-194.5073106495581
 20
260.0249481729426
 11
-195.4961947921014
 21
259.5082062263245
  0
POLYLINE
  8
1
  6
CONTINUOUS
 62
     7
 66
     1
  0
VERTEX
  8
1
  6
CONTINUOUS
 62
     7
 10
-195.4961947921014
 20
259.5082062263245
  0
VERTEX
  8
1
  6
CONTINUOUS
 62
     7
 10
-195.5083488471906
 20
259.4999744597132
  0
VERTEX
  8
1
  6
CONTINUOUS
 62
     7
 10
-195.52672066717
 20
259.4855711811456
  0
VERTEX
  8
1
  6
CONTINUOUS
 62
     7
 10
-195.5440266197255
 20
259.4694124602177
  0
VERTEX
  8
1
  6
CONTINUOUS
 62
     7
 10
-195.5600582114454
 20
259.4515483853219
  0
VERTEX
  8
1
  6
CONTINUOUS
 62
     7
 10
-195.5745913173156
 20
259.4320411778658
  0
VERTEX
  8
1
  6
CONTINUOUS
 62
     7
 10
-195.5849785897682
 20
259.4153026735606
  0
VERTEX
  8
1
  6
CONTINUOUS
 62
     7
 10
-195.5941463928781
 20
259.397619233131
  0
VERTEX
  8
1
  6
CONTINUOUS
 62
     7
 10
-195.6020096358982
 20
259.3790730347261
  0
VERTEX
  8
1
  6
CONTINUOUS
 62
     7
 10
-195.6084816926722
 20
259.3597556099601
  0
VERTEX
  8
1
  6
CONTINUOUS
 62
     7
 10
-195.6134727582536
 20
259.3397671770402
  0
VERTEX
  8
1
  6
CONTINUOUS
 62
     7
 10
-195.6168897731627
 20
259.3192169294421
  0
VERTEX
  8
1
  6
CONTINUOUS
 62
     7
 10
-195.618636346998
 20
259.2982233282607
  0
VERTEX
  8
1
  6
CONTINUOUS
 62
     7
 10
-195.6186146953438
 20
259.2769143982409
  0
VERTEX
  8
1
  6
CONTINUOUS
 62
     7
 10
-195.6167634209053
 20
259.2554280274834
  0
VERTEX
  8
1
  6
CONTINUOUS
 62
     7
 10
-195.6130572316353
 20
259.2339122708293
  0
VERTEX
  8
1
  6
CONTINUOUS
 62
     7
 10
-195.6085359755229
 20
259.2160740746529
  0
VERTEX
  8
1
  6
CONTINUOUS
 62
     7
 10
-195.602699969198
 20
259.198422818463
  0
VERTEX
  8
1
  6
CONTINUOUS
 62
     7
 10
-195.5955389418224
 20
259.1810612774967
  0
VERTEX
  8
1
  6
CONTINUOUS
 62
     7
 10
-195.5870438042673
 20
259.1640976814775
  0
VERTEX
  8
1
  6
CONTINUOUS
 62
     7
 10
-195.577207267186
 20
259.1476454905551
  0
VERTEX
  8
1
  6
CONTINUOUS
 62
     7
 10
-195.5660440025698
 20
259.1318113113522
  0
VERTEX
  8
1
  6
CONTINUOUS
 62
     7
 10
-195.5535971524575
 20
259.1166910983409
  0
VERTEX
  8
1
  6
CONTINUOUS
 62
     7
 10
-195.5399154968896
 20
259.1023841635704
  0
VERTEX
  8
1
  6
CONTINUOUS
 62
     7
 10
-195.5250520028057
 20
259.0889942123427
  0
VERTEX
  8
1
  6
CONTINUOUS
 62
     7
 10
-195.5131630783463
 20
259.0796184334984
  0
VERTEX
  8
1
  6
CONTINUOUS
 62
     7
 10
-195.5006672535608
 20
259.0708665558344
  0
VERTEX
  8
1
  6
CONTINUOUS
 62
     7
 10
-195.487591709111
 20
259.0627873860337
  0
VERTEX
  8
1
  6
CONTINUOUS
 62
     7
 10
-195.4808454279798
 20
259.0590157274349
  0
VERTEX
  8
1
  6
CONTINUOUS
 62
     7
 10
-195.4799926378236
 20
259.058557296835
  0
VERTEX
  8
1
  6
CONTINUOUS
 62
     7
 10
-195.4795654593433
 20
259.0583291820813
  0
VERTEX
  8
1
  6
CONTINUOUS
 62
     7
 10
-195.4795120253787
 20
259.0583007194413
  0
VERTEX
  8
1
  6
CONTINUOUS
 62
     7
 10
-195.4794986656157
 20
259.0582936055779
  0
VERTEX
  8
1
  6
CONTINUOUS
 62
     7
 10
-195.4794949247909
 20
259.0582916138251
  0
VERTEX
  8
1
  6
CONTINUOUS
 62
     7
 10
-195.4794896557671
 20
259.0582888506574
  0
SEQEND
  8
1
  6
CONTINUOUS
 62
     7
  0
LINE
  8
1
  6
CONTINUOUS
 62
     7
 10
-195.4794842183472
 20
259.0582860112177
 11
-194.5596388639584
 21
258.5782723866404
  0
LINE
  8
1
  6
CONTINUOUS
 62
     7
 10
-194.5126470118022
 20
258.2078922855413
 11
-195.4987323451866
 21
257.6919934099546
  0
POLYLINE
  8
1
  6
CONTINUOUS
 62
     7
 66
     1
  0
VERTEX
  8
1
  6
CONTINUOUS
 62
     7
 10
-195.4987323451866
 20
257.6919934099546
  0
VERTEX
  8
1
  6
CONTINUOUS
 62
     7
 10
-195.5104862883456
 20
257.683947945735
  0
VERTEX
  8
1
  6
CONTINUOUS
 62
     7
 10
-195.5250278769035
 20
257.6726323476904
  0
VERTEX
  8
1
  6
CONTINUOUS
 62
     7
 10
-195.5389293852211
 20
257.6601806724246
  0
VERTEX
  8
1
  6
CONTINUOUS
 62
     7
 10
-195.552084771603
 20
257.6466167458368
  0
VERTEX
  8
1
  6
CONTINUOUS
 62
     7
 10
-195.5643816420653
 20
257.6319692689671
  0
VERTEX
  8
1
  6
CONTINUOUS
 62
     7
 10
-195.5757010521985
 20
257.6162720072436
  0
VERTEX
  8
1
  6
CONTINUOUS
 62
     7
 10
-195.5859179691454
 20
257.599564384141
  0
VERTEX
  8
1
  6
CONTINUOUS
 62
     7
 10
-195.594922963915
 20
257.5819049624247
  0
VERTEX
  8
1
  6
CONTINUOUS
 62
     7
 10
-195.6026290605821
 20
257.5633759202435
  0
VERTEX
  8
1
  6
CONTINUOUS
 62
     7
 10
-195.608947700644
 20
257.5440687892117
  0
VERTEX
  8
1
  6
CONTINUOUS
 62
     7
 10
-195.6137871012131
 20
257.5240837875367
  0
VERTEX
  8
1
  6
CONTINUOUS
 62
     7
 10
-195.6170521813062
 20
257.5035301086937
  0
VERTEX
  8
1
  6
CONTINUOUS
 62
     7
 10
-195.618644487836
 20
257.4825262137782
  0
VERTEX
  8
1
  6
CONTINUOUS
 62
     7
 10
-195.6184641352581
 20
257.4612001275347
  0
VERTEX
  8
1
  6
CONTINUOUS
 62
     7
 10
-195.6164475888392
 20
257.4396897380641
  0
VERTEX
  8
1
  6
CONTINUOUS
 62
     7
 10
-195.6125673837433
 20
257.4181431002073
  0
VERTEX
  8
1
  6
CONTINUOUS
 62
     7
 10
-195.607892844843
 20
257.4002739275159
  0
VERTEX
  8
1
  6
CONTINUOUS
 62
     7
 10
-195.601894660354
 20
257.3825869291933
  0
VERTEX
  8
1
  6
CONTINUOUS
 62
     7
 10
-195.594561254371
 20
257.3651848804765
  0
VERTEX
  8
1
  6
CONTINUOUS
 62
     7
 10
-195.5858822211688
 20
257.3481760110892
  0
VERTEX
  8
1
  6
CONTINUOUS
 62
     7
 10
-195.5758489446236
 20
257.331673781181
  0
VERTEX
  8
1
  6
CONTINUOUS
 62
     7
 10
-195.5644747587421
 20
257.3157847973746
  0
VERTEX
  8
1
  6
CONTINUOUS
 62
     7
 10
-195.5518014551266
 20
257.300605014142
  0
VERTEX
  8
1
  6
CONTINUOUS
 62
     7
 10
-195.5378764531417
 20
257.2862337435326
  0
VERTEX
  8
1
  6
CONTINUOUS
 62
     7
 10
-195.5227513493982
 20
257.2727746908484
  0
VERTEX
  8
1
  6
CONTINUOUS
 62
     7
 10
-195.5106534028065
 20
257.2633439584749
  0
VERTEX
  8
1
  6
CONTINUOUS
 62
     7
 10
-195.4979369214108
 20
257.254534446622
  0
VERTEX
  8
1
  6
CONTINUOUS
 62
     7
 10
-195.4846284973902
 20
257.2463949619723
  0
VERTEX
  8
1
  6
CONTINUOUS
 62
     7
 10
-195.4777610081302
 20
257.2425921407016
  0
VERTEX
  8
1
  6
CONTINUOUS
 62
     7
 10
-195.4768928380115
 20
257.2421297676466
  0
VERTEX
  8
1
  6
CONTINUOUS
 62
     7
 10
-195.4764579502986
 20
257.2418996777386
  0
VERTEX
  8
1
  6
CONTINUOUS
 62
     7
 10
-195.4764035517762
 20
257.2418709680202
  0
VERTEX
  8
1
  6
CONTINUOUS
 62
     7
 10
-195.4763899508424
 20
257.2418637923811
  0
VERTEX
  8
1
  6
CONTINUOUS
 62
     7
 10
-195.4763861424875
 20
257.2418617833304
  0
VERTEX
  8
1
  6
CONTINUOUS
 62
     7
 10
-195.4763808446179
 20
257.2418590125517
  0
SEQEND
  8
1
  6
CONTINUOUS
 62
     7
  0
LINE
  8
1
  6
CONTINUOUS
 62
     7
 10
-195.4763754250391
 20
257.2418561850104
 11
-194.5597783455675
 21
256.7640392566489
  0
LINE
  8
1
  6
CONTINUOUS
 62
     7
 10
-194.5092433549696
 20
256.3956196671714
 11
-195.4958805476922
 21
255.8800372484836
  0
POLYLINE
  8
1
  6
CONTINUOUS
 62
     7
 66
     1
  0
VERTEX
  8
1
  6
CONTINUOUS
 62
     7
 10
-195.4958805476922
 20
255.8800372484836
  0
VERTEX
  8
1
  6
CONTINUOUS
 62
     7
 10
-195.5102437292738
 20
255.8702818287951
  0
VERTEX
  8
1
  6
CONTINUOUS
 62
     7
 10
-195.525235106033
 20
255.8585606335947
  0
VERTEX
  8
1
  6
CONTINUOUS
 62
     7
 10
-195.5393411769298
 20
255.8458469277281
  0
VERTEX
  8
1
  6
CONTINUOUS
 62
     7
 10
-195.5538561713662
 20
255.8306754466167
  0
VERTEX
  8
1
  6
CONTINUOUS
 62
     7
 10
-195.5671019708567
 20
255.8144542402964
  0
VERTEX
  8
1
  6
CONTINUOUS
 62
     7
 10
-195.5789830984132
 20
255.7972724068123
  0
VERTEX
  8
1
  6
CONTINUOUS
 62
     7
 10
-195.58940931167
 20
255.7792222051836
  0
VERTEX
  8
1
  6
CONTINUOUS
 62
     7
 10
-195.5983283429316
 20
255.7604189207221
  0
VERTEX
  8
1
  6
CONTINUOUS
 62
     7
 10
-195.6057047578471
 20
255.74098802944
  0
VERTEX
  8
1
  6
CONTINUOUS
 62
     7
 10
-195.6115032416695
 20
255.7210550527025
  0
VERTEX
  8
1
  6
CONTINUOUS
 62
     7
 10
-195.6156885264474
 20
255.7007455118753
  0
VERTEX
  8
1
  6
CONTINUOUS
 62
     7
 10
-195.6182253929446
 20
255.6801849283236
  0
VERTEX
  8
1
  6
CONTINUOUS
 62
     7
 10
-195.6190786725593
 20
255.6594988234129
  0
VERTEX
  8
1
  6
CONTINUOUS
 62
     7
 10
-195.6182249506871
 20
255.6388127185087
  0
VERTEX
  8
1
  6
CONTINUOUS
 62
     7
 10
-195.6156876721911
 20
255.6182521349763
  0
VERTEX
  8
1
  6
CONTINUOUS
 62
     7
 10
-195.611502035887
 20
255.5979425941812
  0
VERTEX
  8
1
  6
CONTINUOUS
 62
     7
 10
-195.6057032911479
 20
255.5780096174888
  0
VERTEX
  8
1
  6
CONTINUOUS
 62
     7
 10
-195.5983267359519
 20
255.5585787262645
  0
VERTEX
  8
1
  6
CONTINUOUS
 62
     7
 10
-195.5894077149298
 20
255.5397754418737
  0
VERTEX
  8
1
  6
CONTINUOUS
 62
     7
 10
-195.5789816921429
 20
255.5217252403285
  0
VERTEX
  8
1
  6
CONTINUOUS
 62
     7
 10
-195.5671009647981
 20
255.5045434069381
  0
VERTEX
  8
1
  6
CONTINUOUS
 62
     7
 10
-195.5538558045428
 20
255.4883222007207
  0
VERTEX
  8
1
  6
CONTINUOUS
 62
     7
 10
-195.5393417174073
 20
255.4731507197214
  0
VERTEX
  8
1
  6
CONTINUOUS
 62
     7
 10
-195.5263462429313
 20
255.461373972159
  0
VERTEX
  8
1
  6
CONTINUOUS
 62
     7
 10
-195.5125911969759
 20
255.4504396354536
  0
VERTEX
  8
1
  6
CONTINUOUS
 62
     7
 10
-195.4981318749035
 20
255.4403992709743
  0
VERTEX
  8
1
  6
CONTINUOUS
 62
     7
 10
-195.4868584676341
 20
255.433486684274
  0
VERTEX
  8
1
  6
CONTINUOUS
 62
     7
 10
-195.4810921607872
 20
255.4302366370579
  0
VERTEX
  8
1
  6
CONTINUOUS
 62
     7
 10
-195.4781778823986
 20
255.4286643645706
  0
VERTEX
  8
1
  6
CONTINUOUS
 62
     7
 10
-195.4779950633907
 20
255.4285672767284
  0
VERTEX
  8
1
  6
CONTINUOUS
 62
     7
 10
-195.477903624231
 20
255.4285187850118
  0
VERTEX
  8
1
  6
CONTINUOUS
 62
     7
 10
-195.4778921929467
 20
255.4285127259951
  0
VERTEX
  8
1
  6
CONTINUOUS
 62
     7
 10
-195.4778869131843
 20
255.4285099687266
  0
VERTEX
  8
1
  6
CONTINUOUS
 62
     7
 10
-195.4778818300683
 20
255.4285073154513
  0
VERTEX
  8
1
  6
CONTINUOUS
 62
     7
 10
-195.2672214220879
 20
255.3185712662933
  0
VERTEX
  8
1
  6
CONTINUOUS
 62
     7
 10
-194.5585283214685
 20
254.9490453916578
  0
SEQEND
  8
1
  6
CONTINUOUS
 62
     7
  0
LINE
  8
1
  6
CONTINUOUS
 62
     7
 10
-194.5080220927173
 20
254.5819707243436
 11
-195.4969404398105
 21
254.0651984092524
  0
POLYLINE
  8
1
  6
CONTINUOUS
 62
     7
 66
     1
  0
VERTEX
  8
1
  6
CONTINUOUS
 62
     7
 10
-195.4969404398105
 20
254.0651984092524
  0
VERTEX
  8
1
  6
CONTINUOUS
 62
     7
 10
-195.5090816798804
 20
254.0569676994091
  0
VERTEX
  8
1
  6
CONTINUOUS
 62
     7
 10
-195.5274383249557
 20
254.0425617155952
  0
VERTEX
  8
1
  6
CONTINUOUS
 62
     7
 10
-195.5447265547263
 20
254.0264005024693
  0
VERTEX
  8
1
  6
CONTINUOUS
 62
     7
 10
-195.56073795082
 20
254.0085341484237
  0
VERTEX
  8
1
  6
CONTINUOUS
 62
     7
 10
-195.575248468087
 20
253.9890248748661
  0
VERTEX
  8
1
  6
CONTINUOUS
 62
     7
 10
-195.5856160037631
 20
253.9722848710744
  0
VERTEX
  8
1
  6
CONTINUOUS
 62
     7
 10
-195.5947626402813
 20
253.9546000675091
  0
VERTEX
  8
1
  6
CONTINUOUS
 62
     7
 10
-195.6026033378496
 20
253.9360526423194
  0
VERTEX
  8
1
  6
CONTINUOUS
 62
     7
 10
-195.6090515237555
 20
253.9167341271194
  0
VERTEX
  8
1
  6
CONTINUOUS
 62
     7
 10
-195.614017448973
 20
253.8967447401165
  0
VERTEX
  8
1
  6
CONTINUOUS
 62
     7
 10
-195.6174081124853
 20
253.876193674786
  0
VERTEX
  8
1
  6
CONTINUOUS
 62
     7
 10
-195.6191271849546
 20
253.8551993922233
  0
VERTEX
  8
1
  6
CONTINUOUS
 62
     7
 10
-195.6190769457573
 20
253.8338899171729
  0
VERTEX
  8
1
  6
CONTINUOUS
 62
     7
 10
-195.6171960653951
 20
253.8124031377357
  0
VERTEX
  8
1
  6
CONTINUOUS
 62
     7
 10
-195.6134593231955
 20
253.7908871087529
  0
VERTEX
  8
1
  6
CONTINUOUS
 62
     7
 10
-195.6089119359158
 20
253.7730487897926
  0
VERTEX
  8
1
  6
CONTINUOUS
 62
     7
 10
-195.603049235509
 20
253.7553975055071
  0
VERTEX
  8
1
  6
CONTINUOUS
 62
     7
 10
-195.5958609957704
 20
253.7380360311331
  0
VERTEX
  8
1
  6
CONTINUOUS
 62
     7
 10
-195.5873381731246
 20
253.7210725963944
  0
VERTEX
  8
1
  6
CONTINUOUS
 62
     7
 10
-195.5774735246688
 20
253.7046206614406
  0
VERTEX
  8
1
  6
CONTINUOUS
 62
     7
 10
-195.5662817700434
 20
253.6887868328944
  0
VERTEX
  8
1
  6
CONTINUOUS
 62
     7
 10
-195.5538060999735
 20
253.6736670652279
  0
VERTEX
  8
1
  6
CONTINUOUS
 62
     7
 10
-195.5400953435513
 20
253.6593606704902
  0
VERTEX
  8
1
  6
CONTINUOUS
 62
     7
 10
-195.5252025170081
 20
253.6459713539835
  0
VERTEX
  8
1
  6
CONTINUOUS
 62
     7
 10
-195.5132914709523
 20
253.6365961133189
  0
VERTEX
  8
1
  6
CONTINUOUS
 62
     7
 10
-195.5007734429846
 20
253.6278448270969
  0
VERTEX
  8
1
  6
CONTINUOUS
 62
     7
 10
-195.4876756346463
 20
253.619766302
  0
VERTEX
  8
1
  6
CONTINUOUS
 62
     7
 10
-195.4809182053243
 20
253.6159949857265
  0
VERTEX
  8
1
  6
CONTINUOUS
 62
     7
 10
-195.4800640210735
 20
253.6155365988534
  0
VERTEX
  8
1
  6
CONTINUOUS
 62
     7
 10
-195.4796361455043
 20
253.6153085060412
  0
VERTEX
  8
1
  6
CONTINUOUS
 62
     7
 10
-195.4795826244017
 20
253.6152800461475
  0
VERTEX
  8
1
  6
CONTINUOUS
 62
     7
 10
-195.4795692428542
 20
253.6152729329709
  0
VERTEX
  8
1
  6
CONTINUOUS
 62
     7
 10
-195.4795654959297
 20
253.6152709414103
  0
VERTEX
  8
1
  6
CONTINUOUS
 62
     7
 10
-195.4795602242023
 20
253.6152681783273
  0
SEQEND
  8
1
  6
CONTINUOUS
 62
     7
  0
LINE
  8
1
  6
CONTINUOUS
 62
     7
 10
-195.4795547885936
 20
253.6152653404468
 11
-194.5596405582293
 21
253.1353123054123
  0
LINE
  8
1
  6
CONTINUOUS
 62
     7
 10
-170.985639203415
 20
246.2680684493337
 11
-170.3797096550294
 21
246.5852425856552
  0
LINE
  8
1
  6
CONTINUOUS
 62
     7
 10
-170.3797096550294
 20
246.5852425856552
 11
-170.1874806443234
 21
246.8236859135683
  0
POLYLINE
  8
1
  6
CONTINUOUS
 62
     7
 66
     1
  0
VERTEX
  8
1
  6
CONTINUOUS
 62
     7
 10
-170.8382753942145
 20
244.7995054412699
  0
VERTEX
  8
1
  6
CONTINUOUS
 62
     7
 10
-170.4910976107548
 20
245.0003531853693
  0
VERTEX
  8
1
  6
CONTINUOUS
 62
     7
 10
-170.4000032085614
 20
245.0530872726382
  0
VERTEX
  8
1
  6
CONTINUOUS
 62
     7
 10
-170.3538130113499
 20
245.0798326389593
  0
VERTEX
  8
1
  6
CONTINUOUS
 62
     7
 10
-170.3305573370756
 20
245.0932999027915
  0
VERTEX
  8
1
  6
CONTINUOUS
 62
     7
 10
-170.3188893783088
 20
245.1000571798755
  0
VERTEX
  8
1
  6
CONTINUOUS
 62
     7
 10
-170.3159682103732
 20
245.1017489621848
  0
VERTEX
  8
1
  6
CONTINUOUS
 62
     7
 10
-170.3152376572768
 20
245.102172061702
  0
VERTEX
  8
1
  6
CONTINUOUS
 62
     7
 10
-170.3152309172922
 20
245.1021759778312
  0
VERTEX
  8
1
  6
CONTINUOUS
 62
     7
 10
-170.3152288326783
 20
245.1021772004763
  0
VERTEX
  8
1
  6
CONTINUOUS
 62
     7
 10
-170.315225110171
 20
245.1021793838269
  0
VERTEX
  8
1
  6
CONTINUOUS
 62
     7
 10
-170.3033059189238
 20
245.1096165732055
  0
VERTEX
  8
1
  6
CONTINUOUS
 62
     7
 10
-170.2916681614391
 20
245.1177957763381
  0
VERTEX
  8
1
  6
CONTINUOUS
 62
     7
 10
-170.2803598578925
 20
245.1267106960808
  0
VERTEX
  8
1
  6
CONTINUOUS
 62
     7
 10
-170.2678195439337
 20
245.1378698695112
  0
VERTEX
  8
1
  6
CONTINUOUS
 62
     7
 10
-170.2558641322054
 20
245.149976159415
  0
VERTEX
  8
1
  6
CONTINUOUS
 62
     7
 10
-170.2445798831492
 20
245.1630095509881
  0
VERTEX
  8
1
  6
CONTINUOUS
 62
     7
 10
-170.2340580032846
 20
245.1769460267813
  0
VERTEX
  8
1
  6
CONTINUOUS
 62
     7
 10
-170.2243947983025
 20
245.1917574115874
  0
VERTEX
  8
1
  6
CONTINUOUS
 62
     7
 10
-170.2170702107938
 20
245.2047447058979
  0
VERTEX
  8
1
  6
CONTINUOUS
 62
     7
 10
-170.2104592255479
 20
245.2182873972551
  0
VERTEX
  8
1
  6
CONTINUOUS
 62
     7
 10
-170.2046022725883
 20
245.2323483078324
  0
VERTEX
  8
1
  6
CONTINUOUS
 62
     7
 10
-170.1995407846783
 20
245.2468869708149
  0
VERTEX
  8
1
  6
CONTINUOUS
 62
     7
 10
-170.1953174022526
 20
245.2618596449342
  0
VERTEX
  8
1
  6
CONTINUOUS
 62
     7
 10
-170.1919759965129
 20
245.2772192229529
  0
VERTEX
  8
1
  6
CONTINUOUS
 62
     7
 10
-170.1895616926569
 20
245.2929151391704
  0
VERTEX
  8
1
  6
CONTINUOUS
 62
     7
 10
-170.1881208932347
 20
245.3088932759501
  0
VERTEX
  8
1
  6
CONTINUOUS
 62
     7
 10
-170.1877013010942
 20
245.325095869268
  0
VERTEX
  8
1
  6
CONTINUOUS
 62
     7
 10
-170.1883453900307
 20
245.3414614132818
  0
VERTEX
  8
1
  6
CONTINUOUS
 62
     7
 10
-170.1900733599825
 20
245.3579245639223
  0
VERTEX
  8
1
  6
CONTINUOUS
 62
     7
 10
-170.1928998347693
 20
245.3744160415051
  0
VERTEX
  8
1
  6
CONTINUOUS
 62
     7
 10
-170.1968386749358
 20
245.3908625323638
  0
VERTEX
  8
1
  6
CONTINUOUS
 62
     7
 10
-170.2019029497157
 20
245.4071865895048
  0
VERTEX
  8
1
  6
CONTINUOUS
 62
     7
 10
-170.2081049087189
 20
245.423306532283
  0
VERTEX
  8
1
  6
CONTINUOUS
 62
     7
 10
-170.2154559533459
 20
245.4391363450983
  0
VERTEX
  8
1
  6
CONTINUOUS
 62
     7
 10
-170.2239665890072
 20
245.454585586043
  0
VERTEX
  8
1
  6
CONTINUOUS
 62
     7
 10
-170.2336370915988
 20
245.4695646564562
  0
VERTEX
  8
1
  6
CONTINUOUS
 62
     7
 10
-170.2444416479279
 20
245.4839938389545
  0
VERTEX
  8
1
  6
CONTINUOUS
 62
     7
 10
-170.2563475566475
 20
245.4977920895651
  0
VERTEX
  8
1
  6
CONTINUOUS
 62
     7
 10
-170.2693189492734
 20
245.5108747667235
  0
VERTEX
  8
1
  6
CONTINUOUS
 62
     7
 10
-170.2833167123234
 20
245.523153552816
  0
VERTEX
  8
1
  6
CONTINUOUS
 62
     7
 10
-170.2982984089957
 20
245.5345363750048
  0
VERTEX
  8
1
  6
CONTINUOUS
 62
     7
 10
-170.3142182004075
 20
245.5449273253369
  0
VERTEX
  8
1
  6
CONTINUOUS
 62
     7
 10
-170.3173036522143
 20
245.5467571673468
  0
VERTEX
  8
1
  6
CONTINUOUS
 62
     7
 10
-170.3174975230378
 20
245.5468702431659
  0
VERTEX
  8
1
  6
CONTINUOUS
 62
     7
 10
-170.3175945037127
 20
245.5469267238338
  0
VERTEX
  8
1
  6
CONTINUOUS
 62
     7
 10
-170.3176430053615
 20
245.5469549498484
  0
VERTEX
  8
1
  6
CONTINUOUS
 62
     7
 10
-170.3176672590131
 20
245.5469690592746
  0
VERTEX
  8
1
  6
CONTINUOUS
 62
     7
 10
-170.3176706546748
 20
245.5469710344038
  0
VERTEX
  8
1
  6
CONTINUOUS
 62
     7
 10
-170.3176778032642
 20
245.5469751694611
  0
VERTEX
  8
1
  6
CONTINUOUS
 62
     7
 10
-170.317684061966
 20
245.5469787892242
  0
VERTEX
  8
1
  6
CONTINUOUS
 62
     7
 10
-170.5671333240402
 20
245.6911775448015
  0
VERTEX
  8
1
  6
CONTINUOUS
 62
     7
 10
-170.8116432873508
 20
245.832386696614
  0
SEQEND
  8
1
  6
CONTINUOUS
 62
     7
  0
POLYLINE
  8
1
  6
CONTINUOUS
 62
     7
 66
     1
  0
VERTEX
  8
1
  6
CONTINUOUS
 62
     7
 10
-170.8422440480886
 20
243.2972744647084
  0
VERTEX
  8
1
  6
CONTINUOUS
 62
     7
 10
-170.4936974005905
 20
243.4986365422023
  0
VERTEX
  8
1
  6
CONTINUOUS
 62
     7
 10
-170.4023283238763
 20
243.5514764823201
  0
VERTEX
  8
1
  6
CONTINUOUS
 62
     7
 10
-170.3560099410275
 20
243.5782713654907
  0
VERTEX
  8
1
  6
CONTINUOUS
 62
     7
 10
-170.3326923747687
 20
243.5917625353538
  0
VERTEX
  8
1
  6
CONTINUOUS
 62
     7
 10
-170.3209940089391
 20
243.5985315523549
  0
VERTEX
  8
1
  6
CONTINUOUS
 62
     7
 10
-170.3180652948214
 20
243.6002262474457
  0
VERTEX
  8
1
  6
CONTINUOUS
 62
     7
 10
-170.3173328586393
 20
243.600650073771
  0
VERTEX
  8
1
  6
CONTINUOUS
 62
     7
 10
-170.3173260804567
 20
243.60065400414
  0
VERTEX
  8
1
  6
CONTINUOUS
 62
     7
 10
-170.3173239652782
 20
243.6006552379735
  0
VERTEX
  8
1
  6
CONTINUOUS
 62
     7
 10
-170.3173201881924
 20
243.6006574413028
  0
VERTEX
  8
1
  6
CONTINUOUS
 62
     7
 10
-170.3052304441584
 20
243.6081570768516
  0
VERTEX
  8
1
  6
CONTINUOUS
 62
     7
 10
-170.2934337387736
 20
243.6163943325018
  0
VERTEX
  8
1
  6
CONTINUOUS
 62
     7
 10
-170.2819773627986
 20
243.6253629111096
  0
VERTEX
  8
1
  6
CONTINUOUS
 62
     7
 10
-170.2692791245375
 20
243.6365783991552
  0
VERTEX
  8
1
  6
CONTINUOUS
 62
     7
 10
-170.2571780150609
 20
243.6487351846664
  0
VERTEX
  8
1
  6
CONTINUOUS
 62
     7
 10
-170.2457590747585
 20
243.6618132528388
  0
VERTEX
  8
1
  6
CONTINUOUS
 62
     7
 10
-170.2351122512273
 20
243.6757885862234
  0
VERTEX
  8
1
  6
CONTINUOUS
 62
     7
 10
-170.2253325524648
 20
243.690633009613
  0
VERTEX
  8
1
  6
CONTINUOUS
 62
     7
 10
-170.2165180141719
 20
243.7063127695303
  0
VERTEX
  8
1
  6
CONTINUOUS
 62
     7
 10
-170.2087484024474
 20
243.7227759872011
  0
VERTEX
  8
1
  6
CONTINUOUS
 62
     7
 10
-170.2020926500393
 20
243.7399567000933
  0
VERTEX
  8
1
  6
CONTINUOUS
 62
     7
 10
-170.1966219459107
 20
243.7577821634336
  0
VERTEX
  8
1
  6
CONTINUOUS
 62
     7
 10
-170.1924099756634
 20
243.7761727287763
  0
VERTEX
  8
1
  6
CONTINUOUS
 62
     7
 10
-170.1899164594358
 20
243.7918674862046
  0
VERTEX
  8
1
  6
CONTINUOUS
 62
     7
 10
-170.1883954689837
 20
243.8078404232174
  0
VERTEX
  8
1
  6
CONTINUOUS
 62
     7
 10
-170.1878937951834
 20
243.8240337757906
  0
VERTEX
  8
1
  6
CONTINUOUS
 62
     7
 10
-170.1884529854223
 20
243.8403860380821
  0
VERTEX
  8
1
  6
CONTINUOUS
 62
     7
 10
-170.190092299513
 20
243.8568318660224
  0
VERTEX
  8
1
  6
CONTINUOUS
 62
     7
 10
-170.192825407642
 20
243.8733019799273
  0
VERTEX
  8
1
  6
CONTINUOUS
 62
     7
 10
-170.1966652039934
 20
243.8897230661304
  0
VERTEX
  8
1
  6
CONTINUOUS
 62
     7
 10
-170.2016237796379
 20
243.9060176776381
  0
VERTEX
  8
1
  6
CONTINUOUS
 62
     7
 10
-170.2077123951791
 20
243.922104133805
  0
VERTEX
  8
1
  6
CONTINUOUS
 62
     7
 10
-170.2149414531605
 20
243.9378964190314
  0
VERTEX
  8
1
  6
CONTINUOUS
 62
     7
 10
-170.2233204513065
 20
243.9533040914096
  0
VERTEX
  8
1
  6
CONTINUOUS
 62
     7
 10
-170.2328486494487
 20
243.9682375522784
  0
VERTEX
  8
1
  6
CONTINUOUS
 62
     7
 10
-170.2434992092224
 20
243.9826170842545
  0
VERTEX
  8
1
  6
CONTINUOUS
 62
     7
 10
-170.2552383960178
 20
243.9963616433652
  0
VERTEX
  8
1
  6
CONTINUOUS
 62
     7
 10
-170.2680293006613
 20
244.009386588046
  0
VERTEX
  8
1
  6
CONTINUOUS
 62
     7
 10
-170.2818317619584
 20
244.0216036006831
  0
VERTEX
  8
1
  6
CONTINUOUS
 62
     7
 10
-170.2966022886611
 20
244.0329206084388
  0
VERTEX
  8
1
  6
CONTINUOUS
 62
     7
 10
-170.3122939808682
 20
244.04324170336
  0
VERTEX
  8
1
  6
CONTINUOUS
 62
     7
 10
-170.315334692821
 20
244.0450579976059
  0
VERTEX
  8
1
  6
CONTINUOUS
 62
     7
 10
-170.3155257462353
 20
244.0451702219728
  0
VERTEX
  8
1
  6
CONTINUOUS
 62
     7
 10
-170.3156213172681
 20
244.0452262767065
  0
VERTEX
  8
1
  6
CONTINUOUS
 62
     7
 10
-170.3156691138612
 20
244.0452542897018
  0
VERTEX
  8
1
  6
CONTINUOUS
 62
     7
 10
-170.3156930149264
 20
244.0452682926055
  0
VERTEX
  8
1
  6
CONTINUOUS
 62
     7
 10
-170.3156963612228
 20
244.0452702528208
  0
VERTEX
  8
1
  6
CONTINUOUS
 62
     7
 10
-170.3157034890078
 20
244.045274381316
  0
VERTEX
  8
1
  6
CONTINUOUS
 62
     7
 10
-170.3157097314672
 20
244.0452779959231
  0
VERTEX
  8
1
  6
CONTINUOUS
 62
     7
 10
-170.5644573822321
 20
244.1892581107255
  0
VERTEX
  8
1
  6
CONTINUOUS
 62
     7
 10
-170.8116871533201
 20
244.3322622150168
  0
SEQEND
  8
1
  6
CONTINUOUS
 62
     7
  0
POLYLINE
  8
1
  6
CONTINUOUS
 62
     7
 66
     1
  0
VERTEX
  8
1
  6
CONTINUOUS
 62
     7
 10
-170.8410257128873
 20
241.79805062139
  0
VERTEX
  8
1
  6
CONTINUOUS
 62
     7
 10
-170.3957519353986
 20
242.0554771434269
  0
VERTEX
  8
1
  6
CONTINUOUS
 62
     7
 10
-170.3401444110656
 20
242.0876554586815
  0
VERTEX
  8
1
  6
CONTINUOUS
 62
     7
 10
-170.3262444262323
 20
242.0957000374952
  0
VERTEX
  8
1
  6
CONTINUOUS
 62
     7
 10
-170.3192947205093
 20
242.099722326902
  0
VERTEX
  8
1
  6
CONTINUOUS
 62
     7
 10
-170.3175573240119
 20
242.1007278992537
  0
VERTEX
  8
1
  6
CONTINUOUS
 62
     7
 10
-170.3171229767601
 20
242.1009792923416
  0
VERTEX
  8
1
  6
CONTINUOUS
 62
     7
 10
-170.3170143900643
 20
242.1010421406136
  0
VERTEX
  8
1
  6
CONTINUOUS
 62
     7
 10
-170.3169600967339
 20
242.1010735647496
  0
VERTEX
  8
1
  6
CONTINUOUS
 62
     7
 10
-170.3169329500731
 20
242.1010892768176
  0
VERTEX
  8
1
  6
CONTINUOUS
 62
     7
 10
-170.3169244368809
 20
242.1010942041221
  0
VERTEX
  8
1
  6
CONTINUOUS
 62
     7
 10
-170.316920807714
 20
242.1010963083743
  0
VERTEX
  8
1
  6
CONTINUOUS
 62
     7
 10
-170.3169185775227
 20
242.1010976110881
  0
VERTEX
  8
1
  6
CONTINUOUS
 62
     7
 10
-170.3002429699109
 20
242.111706899888
  0
VERTEX
  8
1
  6
CONTINUOUS
 62
     7
 10
-170.2844316420177
 20
242.1235264327959
  0
VERTEX
  8
1
  6
CONTINUOUS
 62
     7
 10
-170.2695642742059
 20
242.1364767716019
  0
VERTEX
  8
1
  6
CONTINUOUS
 62
     7
 10
-170.2557205410226
 20
242.1504784780963
  0
VERTEX
  8
1
  6
CONTINUOUS
 62
     7
 10
-170.2433169166044
 20
242.1650256405515
  0
VERTEX
  8
1
  6
CONTINUOUS
 62
     7
 10
-170.2320296386889
 20
242.1804186888863
  0
VERTEX
  8
1
  6
CONTINUOUS
 62
     7
 10
-170.2219319206728
 20
242.1965845942529
  0
VERTEX
  8
1
  6
CONTINUOUS
 62
     7
 10
-170.2130878560081
 20
242.2134450704245
  0
VERTEX
  8
1
  6
CONTINUOUS
 62
     7
 10
-170.2055308035643
 20
242.2309040953928
  0
VERTEX
  8
1
  6
CONTINUOUS
 62
     7
 10
-170.1992876297942
 20
242.2488619110218
  0
VERTEX
  8
1
  6
CONTINUOUS
 62
     7
 10
-170.1943851780908
 20
242.2672187591752
  0
VERTEX
  8
1
  6
CONTINUOUS
 62
     7
 10
-170.1908502679208
 20
242.2858748817171
  0
VERTEX
  8
1
  6
CONTINUOUS
 62
     7
 10
-170.1887096939572
 20
242.3047305205112
  0
VERTEX
  8
1
  6
CONTINUOUS
 62
     7
 10
-170.1879902252129
 20
242.3236859174216
  0
VERTEX
  8
1
  6
CONTINUOUS
 62
     7
 10
-170.1887096945145
 20
242.3426413143122
  0
VERTEX
  8
1
  6
CONTINUOUS
 62
     7
 10
-170.1908502690247
 20
242.3614969530468
  0
VERTEX
  8
1
  6
CONTINUOUS
 62
     7
 10
-170.1943851797308
 20
242.3801530754895
  0
VERTEX
  8
1
  6
CONTINUOUS
 62
     7
 10
-170.1992876319595
 20
242.398509923504
  0
VERTEX
  8
1
  6
CONTINUOUS
 62
     7
 10
-170.2055308062443
 20
242.4164677389543
  0
VERTEX
  8
1
  6
CONTINUOUS
 62
     7
 10
-170.2130878591921
 20
242.4339267637042
  0
VERTEX
  8
1
  6
CONTINUOUS
 62
     7
 10
-170.2219319243502
 20
242.4507872396179
  0
VERTEX
  8
1
  6
CONTINUOUS
 62
     7
 10
-170.2320296428408
 20
242.4669531446914
  0
VERTEX
  8
1
  6
CONTINUOUS
 62
     7
 10
-170.2433169212017
 20
242.4823461927042
  0
VERTEX
  8
1
  6
CONTINUOUS
 62
     7
 10
-170.2557205460363
 20
242.4968933548083
  0
VERTEX
  8
1
  6
CONTINUOUS
 62
     7
 10
-170.2668568351991
 20
242.508317140935
  0
VERTEX
  8
1
  6
CONTINUOUS
 62
     7
 10
-170.2786751305487
 20
242.5190605307982
  0
VERTEX
  8
1
  6
CONTINUOUS
 62
     7
 10
-170.2911330458473
 20
242.5290812628099
  0
VERTEX
  8
1
  6
CONTINUOUS
 62
     7
 10
-170.3008707332496
 20
242.536097144617
  0
VERTEX
  8
1
  6
CONTINUOUS
 62
     7
 10
-170.3109264792725
 20
242.5426649301319
  0
VERTEX
  8
1
  6
CONTINUOUS
 62
     7
 10
-170.3160680354859
 20
242.5457752151837
  0
VERTEX
  8
1
  6
CONTINUOUS
 62
     7
 10
-170.3167158951773
 20
242.5461556997236
  0
VERTEX
  8
1
  6
CONTINUOUS
 62
     7
 10
-170.3168780373426
 20
242.5462505305292
  0
VERTEX
  8
1
  6
CONTINUOUS
 62
     7
 10
-170.3169185839429
 20
242.5462742200664
  0
VERTEX
  8
1
  6
CONTINUOUS
 62
     7
 10
-170.3169214223705
 20
242.5462758780618
  0
VERTEX
  8
1
  6
CONTINUOUS
 62
     7
 10
-170.316927729688
 20
242.5462795291072
  0
VERTEX
  8
1
  6
CONTINUOUS
 62
     7
 10
-170.3169329852812
 20
242.5462825709635
  0
VERTEX
  8
1
  6
CONTINUOUS
 62
     7
 10
-170.3957519706071
 20
242.5918947043542
  0
VERTEX
  8
1
  6
CONTINUOUS
 62
     7
 10
-170.8119787552309
 20
242.8325405450226
  0
SEQEND
  8
1
  6
CONTINUOUS
 62
     7
  0
POLYLINE
  8
1
  6
CONTINUOUS
 62
     7
 66
     1
  0
VERTEX
  8
1
  6
CONTINUOUS
 62
     7
 10
-170.8387759039404
 20
240.2994461370413
  0
VERTEX
  8
1
  6
CONTINUOUS
 62
     7
 10
-170.491547880894
 20
240.5003085108691
  0
VERTEX
  8
1
  6
CONTINUOUS
 62
     7
 10
-170.4004407737304
 20
240.5530458332697
  0
VERTEX
  8
1
  6
CONTINUOUS
 62
     7
 10
-170.3542441760025
 20
240.5797927538115
  0
VERTEX
  8
1
  6
CONTINUOUS
 62
     7
 10
-170.3309852871621
 20
240.5932607789179
  0
VERTEX
  8
1
  6
CONTINUOUS
 62
     7
 10
-170.3193157172392
 20
240.6000184326799
  0
VERTEX
  8
1
  6
CONTINUOUS
 62
     7
 10
-170.3163941460966
 20
240.6017103087463
  0
VERTEX
  8
1
  6
CONTINUOUS
 62
     7
 10
-170.315663492172
 20
240.602133431677
  0
VERTEX
  8
1
  6
CONTINUOUS
 62
     7
 10
-170.3156567499462
 20
240.6021373482649
  0
VERTEX
  8
1
  6
CONTINUOUS
 62
     7
 10
-170.3156546634591
 20
240.6021385712706
  0
VERTEX
  8
1
  6
CONTINUOUS
 62
     7
 10
-170.3156509376068
 20
240.6021407552648
  0
VERTEX
  8
1
  6
CONTINUOUS
 62
     7
 10
-170.3037209091696
 20
240.6095799866271
  0
VERTEX
  8
1
  6
CONTINUOUS
 62
     7
 10
-170.2920722771407
 20
240.6177611501155
  0
VERTEX
  8
1
  6
CONTINUOUS
 62
     7
 10
-170.2807530476964
 20
240.6266779485862
  0
VERTEX
  8
1
  6
CONTINUOUS
 62
     7
 10
-170.2682000777674
 20
240.637839183091
  0
VERTEX
  8
1
  6
CONTINUOUS
 62
     7
 10
-170.2562319010509
 20
240.6499474259602
  0
VERTEX
  8
1
  6
CONTINUOUS
 62
     7
 10
-170.2449347555578
 20
240.6629826623898
  0
VERTEX
  8
1
  6
CONTINUOUS
 62
     7
 10
-170.2343998251347
 20
240.6769208749306
  0
VERTEX
  8
1
  6
CONTINUOUS
 62
     7
 10
-170.2247233926461
 20
240.6917338883755
  0
VERTEX
  8
1
  6
CONTINUOUS
 62
     7
 10
-170.2173876305596
 20
240.7047224573016
  0
VERTEX
  8
1
  6
CONTINUOUS
 62
     7
 10
-170.2107653191007
 20
240.718266348199
  0
VERTEX
  8
1
  6
CONTINUOUS
 62
     7
 10
-170.2048968756599
 20
240.7323283832407
  0
VERTEX
  8
1
  6
CONTINUOUS
 62
     7
 10
-170.1998237204243
 20
240.746868095612
  0
VERTEX
  8
1
  6
CONTINUOUS
 62
     7
 10
-170.1955884813432
 20
240.7618417440445
  0
VERTEX
  8
1
  6
CONTINUOUS
 62
     7
 10
-170.1922350172641
 20
240.7772022213008
  0
VERTEX
  8
1
  6
CONTINUOUS
 62
     7
 10
-170.1898084412038
 20
240.7928989616802
  0
VERTEX
  8
1
  6
CONTINUOUS
 62
     7
 10
-170.1883551437493
 20
240.8088778475462
  0
VERTEX
  8
1
  6
CONTINUOUS
 62
     7
 10
-170.1879228160484
 20
240.8250811148746
  0
VERTEX
  8
1
  6
CONTINUOUS
 62
     7
 10
-170.1885539206185
 20
240.8414472578235
  0
VERTEX
  8
1
  6
CONTINUOUS
 62
     7
 10
-170.1902686468267
 20
240.8579109323234
  0
VERTEX
  8
1
  6
CONTINUOUS
 62
     7
 10
-170.1930816083028
 20
240.8744028586899
  0
VERTEX
  8
1
  6
CONTINUOUS
 62
     7
 10
-170.1970066557257
 20
240.8908497232567
  0
VERTEX
  8
1
  6
CONTINUOUS
 62
     7
 10
-170.2020568488211
 20
240.9071740790302
  0
VERTEX
  8
1
  6
CONTINUOUS
 62
     7
 10
-170.2082444280836
 20
240.9232942453652
  0
VERTEX
  8
1
  6
CONTINUOUS
 62
     7
 10
-170.2155807862252
 20
240.9391242066616
  0
VERTEX
  8
1
  6
CONTINUOUS
 62
     7
 10
-170.2240764204292
 20
240.954573521012
  0
VERTEX
  8
1
  6
CONTINUOUS
 62
     7
 10
-170.2337315989298
 20
240.969552589755
  0
VERTEX
  8
1
  6
CONTINUOUS
 62
     7
 10
-170.2445205015155
 20
240.9839816955076
  0
VERTEX
  8
1
  6
CONTINUOUS
 62
     7
 10
-170.2564104202293
 20
240.9977797942968
  0
VERTEX
  8
1
  6
CONTINUOUS
 62
     7
 10
-170.2693654803555
 20
241.0108622445583
  0
VERTEX
  8
1
  6
CONTINUOUS
 62
     7
 10
-170.2833465625609
 20
241.0231407286781
  0
VERTEX
  8
1
  6
CONTINUOUS
 62
     7
 10
-170.2983112245744
 20
241.0345231738187
  0
VERTEX
  8
1
  6
CONTINUOUS
 62
     7
 10
-170.3142136224228
 20
241.0449136720268
  0
VERTEX
  8
1
  6
CONTINUOUS
 62
     7
 10
-170.3172957725913
 20
241.0467434209055
  0
VERTEX
  8
1
  6
CONTINUOUS
 62
     7
 10
-170.3174894366371
 20
241.0468564908163
  0
VERTEX
  8
1
  6
CONTINUOUS
 62
     7
 10
-170.3175863139045
 20
241.0469129685262
  0
VERTEX
  8
1
  6
CONTINUOUS
 62
     7
 10
-170.3176347638448
 20
241.0469411930607
  0
VERTEX
  8
1
  6
CONTINUOUS
 62
     7
 10
-170.317658991641
 20
241.0469553017468
  0
VERTEX
  8
1
  6
CONTINUOUS
 62
     7
 10
-170.3176623836828
 20
241.0469572767723
  0
VERTEX
  8
1
  6
CONTINUOUS
 62
     7
 10
-170.3176695306834
 20
241.046961411784
  0
VERTEX
  8
1
  6
CONTINUOUS
 62
     7
 10
-170.3176757881373
 20
241.0469650315112
  0
VERTEX
  8
1
  6
CONTINUOUS
 62
     7
 10
-170.5670753386217
 20
241.191162084666
  0
VERTEX
  8
1
  6
CONTINUOUS
 62
     7
 10
-170.8116444452698
 20
241.3324312770909
  0
SEQEND
  8
1
  6
CONTINUOUS
 62
     7
  0
POLYLINE
  8
1
  6
CONTINUOUS
 62
     7
 66
     1
  0
VERTEX
  8
1
  6
CONTINUOUS
 62
     7
 10
-170.8423567431752
 20
238.7972565220668
  0
VERTEX
  8
1
  6
CONTINUOUS
 62
     7
 10
-170.4937283474581
 20
238.9986251550378
  0
VERTEX
  8
1
  6
CONTINUOUS
 62
     7
 10
-170.4023393719523
 20
239.0514662105571
  0
VERTEX
  8
1
  6
CONTINUOUS
 62
     7
 10
-170.3560110912711
 20
239.0782615729083
  0
VERTEX
  8
1
  6
CONTINUOUS
 62
     7
 10
-170.3326885865841
 20
239.0917529627317
  0
VERTEX
  8
1
  6
CONTINUOUS
 62
     7
 10
-170.3209877538585
 20
239.0985220848054
  0
VERTEX
  8
1
  6
CONTINUOUS
 62
     7
 10
-170.3180584232435
 20
239.1002168056532
  0
VERTEX
  8
1
  6
CONTINUOUS
 62
     7
 10
-170.3173258329509
 20
239.1006406383858
  0
VERTEX
  8
1
  6
CONTINUOUS
 62
     7
 10
-170.3173190517521
 20
239.1006445688803
  0
VERTEX
  8
1
  6
CONTINUOUS
 62
     7
 10
-170.3173169342057
 20
239.1006458028123
  0
VERTEX
  8
1
  6
CONTINUOUS
 62
     7
 10
-170.3173131528913
 20
239.1006480063177
  0
VERTEX
  8
1
  6
CONTINUOUS
 62
     7
 10
-170.3052098062146
 20
239.1081481607507
  0
VERTEX
  8
1
  6
CONTINUOUS
 62
     7
 10
-170.2933996471206
 20
239.1163858341024
  0
VERTEX
  8
1
  6
CONTINUOUS
 62
     7
 10
-170.281929952569
 20
239.125354729229
  0
VERTEX
  8
1
  6
CONTINUOUS
 62
     7
 10
-170.2692165363368
 20
239.1365704563083
  0
VERTEX
  8
1
  6
CONTINUOUS
 62
     7
 10
-170.2571003890989
 20
239.1487273468453
  0
VERTEX
  8
1
  6
CONTINUOUS
 62
     7
 10
-170.2456665308605
 20
239.1618053860359
  0
VERTEX
  8
1
  6
CONTINUOUS
 62
     7
 10
-170.2350048891259
 20
239.1757805564311
  0
VERTEX
  8
1
  6
CONTINUOUS
 62
     7
 10
-170.2252104521289
 20
239.1906246828234
  0
VERTEX
  8
1
  6
CONTINUOUS
 62
     7
 10
-170.2163812361535
 20
239.2063040117358
  0
VERTEX
  8
1
  6
CONTINUOUS
 62
     7
 10
-170.2085969879955
 20
239.222766664394
  0
VERTEX
  8
1
  6
CONTINUOUS
 62
     7
 10
-170.2019266212241
 20
239.2399466782658
  0
VERTEX
  8
1
  6
CONTINUOUS
 62
     7
 10
-170.1964413058954
 20
239.2577713085779
  0
VERTEX
  8
1
  6
CONTINUOUS
 62
     7
 10
-170.1922147090173
 20
239.2761609068848
  0
VERTEX
  8
1
  6
CONTINUOUS
 62
     7
 10
-170.1897089789727
 20
239.2918547560829
  0
VERTEX
  8
1
  6
CONTINUOUS
 62
     7
 10
-170.1881757409693
 20
239.3078266918047
  0
VERTEX
  8
1
  6
CONTINUOUS
 62
     7
 10
-170.1876617757506
 20
239.3240189500259
  0
VERTEX
  8
1
  6
CONTINUOUS
 62
     7
 10
-170.1882086206743
 20
239.3403700249044
  0
VERTEX
  8
1
  6
CONTINUOUS
 62
     7
 10
-170.1898355252597
 20
239.3568145723709
  0
VERTEX
  8
1
  6
CONTINUOUS
 62
     7
 10
-170.1925561494031
 20
239.3732833127411
  0
VERTEX
  8
1
  6
CONTINUOUS
 62
     7
 10
-170.1963833770984
 20
239.3897029323485
  0
VERTEX
  8
1
  6
CONTINUOUS
 62
     7
 10
-170.201329289335
 20
239.4059959841995
  0
VERTEX
  8
1
  6
CONTINUOUS
 62
     7
 10
-170.207405136754
 20
239.422080787649
  0
VERTEX
  8
1
  6
CONTINUOUS
 62
     7
 10
-170.2146213120652
 20
239.437871327097
  0
VERTEX
  8
1
  6
CONTINUOUS
 62
     7
 10
-170.2229873032963
 20
239.4532771606358
  0
VERTEX
  8
1
  6
CONTINUOUS
 62
     7
 10
-170.2325023604666
 20
239.4682086896043
  0
VERTEX
  8
1
  6
CONTINUOUS
 62
     7
 10
-170.2431396347759
 20
239.4825861966193
  0
VERTEX
  8
1
  6
CONTINUOUS
 62
     7
 10
-170.2548653810079
 20
239.4963286377079
  0
VERTEX
  8
1
  6
CONTINUOUS
 62
     7
 10
-170.2676426792978
 20
239.5093513713057
  0
VERTEX
  8
1
  6
CONTINUOUS
 62
     7
 10
-170.2814313576611
 20
239.521566079799
  0
VERTEX
  8
1
  6
CONTINUOUS
 62
     7
 10
-170.2961879139445
 20
239.5328806903498
  0
VERTEX
  8
1
  6
CONTINUOUS
 62
     7
 10
-170.3118654372071
 20
239.5431992950053
  0
VERTEX
  8
1
  6
CONTINUOUS
 62
     7
 10
-170.3149034694752
 20
239.5450151119661
  0
VERTEX
  8
1
  6
CONTINUOUS
 62
     7
 10
-170.3150943551629
 20
239.545127306394
  0
VERTEX
  8
1
  6
CONTINUOUS
 62
     7
 10
-170.3151898423214
 20
239.5451833461534
  0
VERTEX
  8
1
  6
CONTINUOUS
 62
     7
 10
-170.3152375969746
 20
239.5452113516604
  0
VERTEX
  8
1
  6
CONTINUOUS
 62
     7
 10
-170.3152614770692
 20
239.5452253508196
  0
VERTEX
  8
1
  6
CONTINUOUS
 62
     7
 10
-170.3152648204296
 20
239.5452273105107
  0
VERTEX
  8
1
  6
CONTINUOUS
 62
     7
 10
-170.3152719471231
 20
239.5452314387752
  0
VERTEX
  8
1
  6
CONTINUOUS
 62
     7
 10
-170.3152781887476
 20
239.5452350532011
  0
VERTEX
  8
1
  6
CONTINUOUS
 62
     7
 10
-170.5639928155671
 20
239.689207673208
  0
VERTEX
  8
1
  6
CONTINUOUS
 62
     7
 10
-170.8116923664244
 20
239.8324942253166
  0
SEQEND
  8
1
  6
CONTINUOUS
 62
     7
  0
LINE
  8
1
  6
CONTINUOUS
 62
     7
 10
-170.1874806443234
 20
237.8236859135683
 11
-170.3990604676573
 21
238.071143104752
  0
LINE
  8
1
  6
CONTINUOUS
 62
     7
 10
-170.3990604676573
 20
238.0711431047519
 11
-170.985639238441
 21
238.3793033984597
  0
POLYLINE
  8
1
  6
CONTINUOUS
 62
     7
 66
     1
  0
VERTEX
  8
1
  6
CONTINUOUS
 62
     7
 10
-194.1580436383684
 20
239.1000651116361
  0
VERTEX
  8
1
  6
CONTINUOUS
 62
     7
 10
-194.5066458218334
 20
238.8986900282516
  0
VERTEX
  8
1
  6
CONTINUOUS
 62
     7
 10
-194.5980253916602
 20
238.8458474980584
  0
VERTEX
  8
1
  6
CONTINUOUS
 62
     7
 10
-194.644348522078
 20
238.8190514190598
  0
VERTEX
  8
1
  6
CONTINUOUS
 62
     7
 10
-194.6676683396172
 20
238.805559676085
  0
VERTEX
  8
1
  6
CONTINUOUS
 62
     7
 10
-194.6793678008047
 20
238.7987903787287
  0
VERTEX
  8
1
  6
CONTINUOUS
 62
     7
 10
-194.6822967856243
 20
238.7970956141949
  0
VERTEX
  8
1
  6
CONTINUOUS
 62
     7
 10
-194.6830292892861
 20
238.7966717705494
  0
VERTEX
  8
1
  6
CONTINUOUS
 62
     7
 10
-194.6830360973531
 20
238.7966678232143
  0
VERTEX
  8
1
  6
CONTINUOUS
 62
     7
 10
-194.6830382132976
 20
238.7966665891143
  0
VERTEX
  8
1
  6
CONTINUOUS
 62
     7
 10
-194.6830419917515
 20
238.796664385309
  0
VERTEX
  8
1
  6
CONTINUOUS
 62
     7
 10
-194.6951358228724
 20
238.7891632736886
  0
VERTEX
  8
1
  6
CONTINUOUS
 62
     7
 10
-194.7069359531029
 20
238.780924669799
  0
VERTEX
  8
1
  6
CONTINUOUS
 62
     7
 10
-194.7183951159478
 20
238.771954870783
  0
VERTEX
  8
1
  6
CONTINUOUS
 62
     7
 10
-194.7310958038359
 20
238.7607381364597
  0
VERTEX
  8
1
  6
CONTINUOUS
 62
     7
 10
-194.7431985886244
 20
238.7485802739708
  0
VERTEX
  8
1
  6
CONTINUOUS
 62
     7
 10
-194.7546184685948
 20
238.7355012981193
  0
VERTEX
  8
1
  6
CONTINUOUS
 62
     7
 10
-194.7652655354728
 20
238.7215252263534
  0
VERTEX
  8
1
  6
CONTINUOUS
 62
     7
 10
-194.7750448212571
 20
238.7066802338792
  0
VERTEX
  8
1
  6
CONTINUOUS
 62
     7
 10
-194.7838583309992
 20
238.6910000741708
  0
VERTEX
  8
1
  6
CONTINUOUS
 62
     7
 10
-194.7916263407739
 20
238.6745366259944
  0
VERTEX
  8
1
  6
CONTINUOUS
 62
     7
 10
-194.7982799612145
 20
238.6573558518802
  0
VERTEX
  8
1
  6
CONTINUOUS
 62
     7
 10
-194.8037480475273
 20
238.6395304966001
  0
VERTEX
  8
1
  6
CONTINUOUS
 62
     7
 10
-194.8079569590493
 20
238.6211402085983
  0
VERTEX
  8
1
  6
CONTINUOUS
 62
     7
 10
-194.8104476224752
 20
238.605445811598
  0
VERTEX
  8
1
  6
CONTINUOUS
 62
     7
 10
-194.8119655124858
 20
238.5894733525674
  0
VERTEX
  8
1
  6
CONTINUOUS
 62
     7
 10
-194.8124638653765
 20
238.5732805955296
  0
VERTEX
  8
1
  6
CONTINUOUS
 62
     7
 10
-194.81190116144
 20
238.556929046326
  0
VERTEX
  8
1
  6
CONTINUOUS
 62
     7
 10
-194.8102581695236
 20
238.540484049025
  0
VERTEX
  8
1
  6
CONTINUOUS
 62
     7
 10
-194.807521248563
 20
238.5240148833101
  0
VERTEX
  8
1
  6
CONTINUOUS
 62
     7
 10
-194.8036775337864
 20
238.5075948628467
  0
VERTEX
  8
1
  6
CONTINUOUS
 62
     7
 10
-194.7987149638012
 20
238.4913014346274
  0
VERTEX
  8
1
  6
CONTINUOUS
 62
     7
 10
-194.7926223079224
 20
238.4752162792967
  0
VERTEX
  8
1
  6
CONTINUOUS
 62
     7
 10
-194.7853891937387
 20
238.4594254124536
  0
VERTEX
  8
1
  6
CONTINUOUS
 62
     7
 10
-194.7770061538457
 20
238.4440192760047
  0
VERTEX
  8
1
  6
CONTINUOUS
 62
     7
 10
-194.7674739591259
 20
238.429087468616
  0
VERTEX
  8
1
  6
CONTINUOUS
 62
     7
 10
-194.7568194794352
 20
238.4147097076734
  0
VERTEX
  8
1
  6
CONTINUOUS
 62
     7
 10
-194.7450764810946
 20
238.4009670371492
  0
VERTEX
  8
1
  6
CONTINUOUS
 62
     7
 10
-194.7322819050747
 20
238.3879440986068
  0
VERTEX
  8
1
  6
CONTINUOUS
 62
     7
 10
-194.7184759444282
 20
238.3757292096594
  0
VERTEX
  8
1
  6
CONTINUOUS
 62
     7
 10
-194.7037021223
 20
238.3644144431442
  0
VERTEX
  8
1
  6
CONTINUOUS
 62
     7
 10
-194.6880073705067
 20
238.3540957070132
  0
VERTEX
  8
1
  6
CONTINUOUS
 62
     7
 10
-194.6849661137282
 20
238.352279868127
  0
VERTEX
  8
1
  6
CONTINUOUS
 62
     7
 10
-194.6847750265796
 20
238.3521676723573
  0
VERTEX
  8
1
  6
CONTINUOUS
 62
     7
 10
-194.6846794386937
 20
238.3521116319283
  0
VERTEX
  8
1
  6
CONTINUOUS
 62
     7
 10
-194.6846316336776
 20
238.3520836260868
  0
VERTEX
  8
1
  6
CONTINUOUS
 62
     7
 10
-194.6846077284018
 20
238.3520696267604
  0
VERTEX
  8
1
  6
CONTINUOUS
 62
     7
 10
-194.684604381516
 20
238.3520676670459
  0
VERTEX
  8
1
  6
CONTINUOUS
 62
     7
 10
-194.6845972821236
 20
238.3520635553979
  0
VERTEX
  8
1
  6
CONTINUOUS
 62
     7
 10
-194.6845910393349
 20
238.352059940964
  0
VERTEX
  8
1
  6
CONTINUOUS
 62
     7
 10
-194.4358317073718
 20
238.2080870994094
  0
VERTEX
  8
1
  6
CONTINUOUS
 62
     7
 10
-194.1883097549098
 20
238.0649269413095
  0
SEQEND
  8
1
  6
CONTINUOUS
 62
     7
  0
POLYLINE
  8
1
  6
CONTINUOUS
 62
     7
 66
     1
  0
VERTEX
  8
1
  6
CONTINUOUS
 62
     7
 10
-194.1591378324718
 20
240.599410633781
  0
VERTEX
  8
1
  6
CONTINUOUS
 62
     7
 10
-194.6044414639751
 20
240.341982441712
  0
VERTEX
  8
1
  6
CONTINUOUS
 62
     7
 10
-194.6600522737714
 20
240.3098039177034
  0
VERTEX
  8
1
  6
CONTINUOUS
 62
     7
 10
-194.6739530643931
 20
240.3017592867012
  0
VERTEX
  8
1
  6
CONTINUOUS
 62
     7
 10
-194.6809031706726
 20
240.2977369712001
  0
VERTEX
  8
1
  6
CONTINUOUS
 62
     7
 10
-194.6826406670656
 20
240.2967313923249
  0
VERTEX
  8
1
  6
CONTINUOUS
 62
     7
 10
-194.683075039276
 20
240.296479997606
  0
VERTEX
  8
1
  6
CONTINUOUS
 62
     7
 10
-194.6831836322106
 20
240.2964171489263
  0
VERTEX
  8
1
  6
CONTINUOUS
 62
     7
 10
-194.6832379286602
 20
240.2963857245865
  0
VERTEX
  8
1
  6
CONTINUOUS
 62
     7
 10
-194.6832650768806
 20
240.2963700124165
  0
VERTEX
  8
1
  6
CONTINUOUS
 62
     7
 10
-194.6832735905619
 20
240.2963650850801
  0
VERTEX
  8
1
  6
CONTINUOUS
 62
     7
 10
-194.6832772488516
 20
240.296362964176
  0
VERTEX
  8
1
  6
CONTINUOUS
 62
     7
 10
-194.6832794795712
 20
240.2963616614175
  0
VERTEX
  8
1
  6
CONTINUOUS
 62
     7
 10
-194.6999589699808
 20
240.2857520295948
  0
VERTEX
  8
1
  6
CONTINUOUS
 62
     7
 10
-194.7157738559789
 20
240.2739321536335
  0
VERTEX
  8
1
  6
CONTINUOUS
 62
     7
 10
-194.7306444609166
 20
240.2609814717433
  0
VERTEX
  8
1
  6
CONTINUOUS
 62
     7
 10
-194.7444911140518
 20
240.246979422134
  0
VERTEX
  8
1
  6
CONTINUOUS
 62
     7
 10
-194.7568972772449
 20
240.2324319260235
  0
VERTEX
  8
1
  6
CONTINUOUS
 62
     7
 10
-194.7681868014618
 20
240.2170385440043
  0
VERTEX
  8
1
  6
CONTINUOUS
 62
     7
 10
-194.7782864771272
 20
240.2008723049244
  0
VERTEX
  8
1
  6
CONTINUOUS
 62
     7
 10
-194.7871322148918
 20
240.1840114950044
  0
VERTEX
  8
1
  6
CONTINUOUS
 62
     7
 10
-194.7946906606867
 20
240.1665521362479
  0
VERTEX
  8
1
  6
CONTINUOUS
 62
     7
 10
-194.8009349531445
 20
240.1485939867912
  0
VERTEX
  8
1
  6
CONTINUOUS
 62
     7
 10
-194.8058382541186
 20
240.1302368047703
  0
VERTEX
  8
1
  6
CONTINUOUS
 62
     7
 10
-194.8093737495493
 20
240.1115803483213
  0
VERTEX
  8
1
  6
CONTINUOUS
 62
     7
 10
-194.8115146503287
 20
240.0927243755803
  0
VERTEX
  8
1
  6
CONTINUOUS
 62
     7
 10
-194.812234193166
 20
240.0737686446833
  0
VERTEX
  8
1
  6
CONTINUOUS
 62
     7
 10
-194.8115145512629
 20
240.0548129137665
  0
VERTEX
  8
1
  6
CONTINUOUS
 62
     7
 10
-194.8093735642838
 20
240.0359569409659
  0
VERTEX
  8
1
  6
CONTINUOUS
 62
     7
 10
-194.8058380083815
 20
240.0173004844177
  0
VERTEX
  8
1
  6
CONTINUOUS
 62
     7
 10
-194.8009346854964
 20
239.9989433022578
  0
VERTEX
  8
1
  6
CONTINUOUS
 62
     7
 10
-194.7946904224785
 20
239.9809851526225
  0
VERTEX
  8
1
  6
CONTINUOUS
 62
     7
 10
-194.7871320702097
 20
239.9635257936477
  0
VERTEX
  8
1
  6
CONTINUOUS
 62
     7
 10
-194.7782865027253
 20
239.9466649834696
  0
VERTEX
  8
1
  6
CONTINUOUS
 62
     7
 10
-194.7681870866754
 20
239.9304987440967
  0
VERTEX
  8
1
  6
CONTINUOUS
 62
     7
 10
-194.7568979239005
 20
239.9151053617555
  0
VERTEX
  8
1
  6
CONTINUOUS
 62
     7
 10
-194.7444922363841
 20
239.9005578652938
  0
VERTEX
  8
1
  6
CONTINUOUS
 62
     7
 10
-194.7333540983517
 20
239.8891338005136
  0
VERTEX
  8
1
  6
CONTINUOUS
 62
     7
 10
-194.7215338412958
 20
239.8783901319767
  0
VERTEX
  8
1
  6
CONTINUOUS
 62
     7
 10
-194.7090738564345
 20
239.8683691212713
  0
VERTEX
  8
1
  6
CONTINUOUS
 62
     7
 10
-194.6993345490704
 20
239.8613530304305
  0
VERTEX
  8
1
  6
CONTINUOUS
 62
     7
 10
-194.6892771273054
 20
239.8547850358707
  0
VERTEX
  8
1
  6
CONTINUOUS
 62
     7
 10
-194.6841347129557
 20
239.8516746462921
  0
VERTEX
  8
1
  6
CONTINUOUS
 62
     7
 10
-194.6834867450663
 20
239.8512941486862
  0
VERTEX
  8
1
  6
CONTINUOUS
 62
     7
 10
-194.6833245758195
 20
239.8511993146141
  0
VERTEX
  8
1
  6
CONTINUOUS
 62
     7
 10
-194.6832840224468
 20
239.8511756242602
  0
VERTEX
  8
1
  6
CONTINUOUS
 62
     7
 10
-194.6832811835451
 20
239.8511739662076
  0
VERTEX
  8
1
  6
CONTINUOUS
 62
     7
 10
-194.6832749047232
 20
239.8511703317639
  0
VERTEX
  8
1
  6
CONTINUOUS
 62
     7
 10
-194.683269648895
 20
239.8511672898878
  0
VERTEX
  8
1
  6
CONTINUOUS
 62
     7
 10
-194.6044471043834
 20
239.8055548605924
  0
VERTEX
  8
1
  6
CONTINUOUS
 62
     7
 10
-194.1880211652287
 20
239.5648038063831
  0
SEQEND
  8
1
  6
CONTINUOUS
 62
     7
  0
POLYLINE
  8
1
  6
CONTINUOUS
 62
     7
 66
     1
  0
VERTEX
  8
1
  6
CONTINUOUS
 62
     7
 10
-194.1614596808857
 20
242.0978170607374
  0
VERTEX
  8
1
  6
CONTINUOUS
 62
     7
 10
-194.5086209468084
 20
241.8969632549403
  0
VERTEX
  8
1
  6
CONTINUOUS
 62
     7
 10
-194.5997104644346
 20
241.844227898526
  0
VERTEX
  8
1
  6
CONTINUOUS
 62
     7
 10
-194.6458981249865
 20
241.8174819345741
  0
VERTEX
  8
1
  6
CONTINUOUS
 62
     7
 10
-194.6691525090184
 20
241.804014381162
  0
VERTEX
  8
1
  6
CONTINUOUS
 62
     7
 10
-194.6808198174034
 20
241.7972569615969
  0
VERTEX
  8
1
  6
CONTINUOUS
 62
     7
 10
-194.6837408222063
 20
241.7955651439078
  0
VERTEX
  8
1
  6
CONTINUOUS
 62
     7
 10
-194.6844713344861
 20
241.7951420355607
  0
VERTEX
  8
1
  6
CONTINUOUS
 62
     7
 10
-194.6844781026428
 20
241.7951381026319
  0
VERTEX
  8
1
  6
CONTINUOUS
 62
     7
 10
-194.6844801868469
 20
241.7951368798508
  0
VERTEX
  8
1
  6
CONTINUOUS
 62
     7
 10
-194.6844839086225
 20
241.7951346962577
  0
VERTEX
  8
1
  6
CONTINUOUS
 62
     7
 10
-194.6964007037665
 20
241.7876967456536
  0
VERTEX
  8
1
  6
CONTINUOUS
 62
     7
 10
-194.7080360170472
 20
241.779516828888
  0
VERTEX
  8
1
  6
CONTINUOUS
 62
     7
 10
-194.7193418423473
 20
241.7706012431041
  0
VERTEX
  8
1
  6
CONTINUOUS
 62
     7
 10
-194.731879280992
 20
241.7594413620727
  0
VERTEX
  8
1
  6
CONTINUOUS
 62
     7
 10
-194.7438318143235
 20
241.7473344275975
  0
VERTEX
  8
1
  6
CONTINUOUS
 62
     7
 10
-194.755113205423
 20
241.7343004544815
  0
VERTEX
  8
1
  6
CONTINUOUS
 62
     7
 10
-194.7656322720023
 20
241.7203634601728
  0
VERTEX
  8
1
  6
CONTINUOUS
 62
     7
 10
-194.7752927332824
 20
241.7055516198778
  0
VERTEX
  8
1
  6
CONTINUOUS
 62
     7
 10
-194.7826151059235
 20
241.6925639941366
  0
VERTEX
  8
1
  6
CONTINUOUS
 62
     7
 10
-194.7892239570937
 20
241.6790210151094
  0
VERTEX
  8
1
  6
CONTINUOUS
 62
     7
 10
-194.7950788715436
 20
241.6649598606217
  0
VERTEX
  8
1
  6
CONTINUOUS
 62
     7
 10
-194.8001384314892
 20
241.6504209974877
  0
VERTEX
  8
1
  6
CONTINUOUS
 62
     7
 10
-194.8043600116631
 20
241.6354481669747
  0
VERTEX
  8
1
  6
CONTINUOUS
 62
     7
 10
-194.807699756199
 20
241.6200884763195
  0
VERTEX
  8
1
  6
CONTINUOUS
 62
     7
 10
-194.8101125553797
 20
241.6043924912218
  0
VERTEX
  8
1
  6
CONTINUOUS
 62
     7
 10
-194.8115520222563
 20
241.5884143293172
  0
VERTEX
  8
1
  6
CONTINUOUS
 62
     7
 10
-194.8119704696776
 20
241.572211754629
  0
VERTEX
  8
1
  6
CONTINUOUS
 62
     7
 10
-194.81132543943
 20
241.5558462729984
  0
VERTEX
  8
1
  6
CONTINUOUS
 62
     7
 10
-194.8095967465626
 20
241.5393832284939
  0
VERTEX
  8
1
  6
CONTINUOUS
 62
     7
 10
-194.8067697820686
 20
241.5228919007989
  0
VERTEX
  8
1
  6
CONTINUOUS
 62
     7
 10
-194.8028307001353
 20
241.506445603579
  0
VERTEX
  8
1
  6
CONTINUOUS
 62
     7
 10
-194.797766446152
 20
241.4901217838266
  0
VERTEX
  8
1
  6
CONTINUOUS
 62
     7
 10
-194.7915647849953
 20
241.4740021221863
  0
VERTEX
  8
1
  6
CONTINUOUS
 62
     7
 10
-194.7842143295857
 20
241.458172634257
  0
VERTEX
  8
1
  6
CONTINUOUS
 62
     7
 10
-194.7757045886394
 20
241.4427237619454
  0
VERTEX
  8
1
  6
CONTINUOUS
 62
     7
 10
-194.766035299906
 20
241.4277451039175
  0
VERTEX
  8
1
  6
CONTINUOUS
 62
     7
 10
-194.7552322893108
 20
241.4133163775593
  0
VERTEX
  8
1
  6
CONTINUOUS
 62
     7
 10
-194.7433282705227
 20
241.3995186268427
  0
VERTEX
  8
1
  6
CONTINUOUS
 62
     7
 10
-194.7303591240139
 20
241.3864364933316
  0
VERTEX
  8
1
  6
CONTINUOUS
 62
     7
 10
-194.7163639749066
 20
241.374158294639
  0
VERTEX
  8
1
  6
CONTINUOUS
 62
     7
 10
-194.7013852712813
 20
241.3627761036019
  0
VERTEX
  8
1
  6
CONTINUOUS
 62
     7
 10
-194.6854688629262
 20
241.3523858281725
  0
VERTEX
  8
1
  6
CONTINUOUS
 62
     7
 10
-194.6823840897224
 20
241.3505561175775
  0
VERTEX
  8
1
  6
CONTINUOUS
 62
     7
 10
-194.6821902617807
 20
241.3504430500229
  0
VERTEX
  8
1
  6
CONTINUOUS
 62
     7
 10
-194.6820933025674
 20
241.3503865734895
  0
VERTEX
  8
1
  6
CONTINUOUS
 62
     7
 10
-194.6820448116547
 20
241.3503583495428
  0
VERTEX
  8
1
  6
CONTINUOUS
 62
     7
 10
-194.6820205633723
 20
241.3503442411505
  0
VERTEX
  8
1
  6
CONTINUOUS
 62
     7
 10
-194.6820171684625
 20
241.3503422661662
  0
VERTEX
  8
1
  6
CONTINUOUS
 62
     7
 10
-194.6820100491341
 20
241.3503381477993
  0
VERTEX
  8
1
  6
CONTINUOUS
 62
     7
 10
-194.6820037908224
 20
241.3503345280863
  0
VERTEX
  8
1
  6
CONTINUOUS
 62
     7
 10
-194.4325713119708
 20
241.2061379140145
  0
VERTEX
  8
1
  6
CONTINUOUS
 62
     7
 10
-194.1883593867213
 20
241.0650923489223
  0
SEQEND
  8
1
  6
CONTINUOUS
 62
     7
  0
POLYLINE
  8
1
  6
CONTINUOUS
 62
     7
 66
     1
  0
VERTEX
  8
1
  6
CONTINUOUS
 62
     7
 10
-194.157369108523
 20
243.600169031853
  0
VERTEX
  8
1
  6
CONTINUOUS
 62
     7
 10
-194.5059658270201
 20
243.3988063398377
  0
VERTEX
  8
1
  6
CONTINUOUS
 62
     7
 10
-194.5973481725513
 20
243.3459664800037
  0
VERTEX
  8
1
  6
CONTINUOUS
 62
     7
 10
-194.6436733249639
 20
243.3191716720621
  0
VERTEX
  8
1
  6
CONTINUOUS
 62
     7
 10
-194.6669943116493
 20
243.3056805485852
  0
VERTEX
  8
1
  6
CONTINUOUS
 62
     7
 10
-194.6786943968383
 20
243.2989115569702
  0
VERTEX
  8
1
  6
CONTINUOUS
 62
     7
 10
-194.68162354176
 20
243.2972168684543
  0
VERTEX
  8
1
  6
CONTINUOUS
 62
     7
 10
-194.6823560857036
 20
243.2967930437871
  0
VERTEX
  8
1
  6
CONTINUOUS
 62
     7
 10
-194.6823628949783
 20
243.2967890968239
  0
VERTEX
  8
1
  6
CONTINUOUS
 62
     7
 10
-194.6823650120505
 20
243.2967878630161
  0
VERTEX
  8
1
  6
CONTINUOUS
 62
     7
 10
-194.682368792518
 20
243.2967856597325
  0
VERTEX
  8
1
  6
CONTINUOUS
 62
     7
 10
-194.6944695405112
 20
243.2892861949549
  0
VERTEX
  8
1
  6
CONTINUOUS
 62
     7
 10
-194.7062773797742
 20
243.2810491552783
  0
VERTEX
  8
1
  6
CONTINUOUS
 62
     7
 10
-194.7177450280188
 20
243.2720808378457
  0
VERTEX
  8
1
  6
CONTINUOUS
 62
     7
 10
-194.7304564209058
 20
243.2608657063107
  0
VERTEX
  8
1
  6
CONTINUOUS
 62
     7
 10
-194.7425708919229
 20
243.2487093371743
  0
VERTEX
  8
1
  6
CONTINUOUS
 62
     7
 10
-194.7540034129754
 20
243.2356317452396
  0
VERTEX
  8
1
  6
CONTINUOUS
 62
     7
 10
-194.7646640484643
 20
243.2216569479547
  0
VERTEX
  8
1
  6
CONTINUOUS
 62
     7
 10
-194.7744578020453
 20
243.206813120526
  0
VERTEX
  8
1
  6
CONTINUOUS
 62
     7
 10
-194.7832866492368
 20
243.1911340164272
  0
VERTEX
  8
1
  6
CONTINUOUS
 62
     7
 10
-194.791070834364
 20
243.1746715144248
  0
VERTEX
  8
1
  6
CONTINUOUS
 62
     7
 10
-194.7977414345087
 20
243.1574915770489
  0
VERTEX
  8
1
  6
CONTINUOUS
 62
     7
 10
-194.8032272701339
 20
243.1396669490714
  0
VERTEX
  8
1
  6
CONTINUOUS
 62
     7
 10
-194.8074546646221
 20
243.1212772789365
  0
VERTEX
  8
1
  6
CONTINUOUS
 62
     7
 10
-194.8099612641549
 20
243.1055833132285
  0
VERTEX
  8
1
  6
CONTINUOUS
 62
     7
 10
-194.8114955517566
 20
243.0896112094931
  0
VERTEX
  8
1
  6
CONTINUOUS
 62
     7
 10
-194.8120107409134
 20
243.0734187317537
  0
VERTEX
  8
1
  6
CONTINUOUS
 62
     7
 10
-194.8114652882518
 20
243.0570673858514
  0
VERTEX
  8
1
  6
CONTINUOUS
 62
     7
 10
-194.8098399375558
 20
243.0406225158546
  0
VERTEX
  8
1
  6
CONTINUOUS
 62
     7
 10
-194.8071210220111
 20
243.024153401447
  0
VERTEX
  8
1
  6
CONTINUOUS
 62
     7
 10
-194.8032956506125
 20
243.0077333562938
  0
VERTEX
  8
1
  6
CONTINUOUS
 62
     7
 10
-194.7983517352702
 20
242.9914398273878
  0
VERTEX
  8
1
  6
CONTINUOUS
 62
     7
 10
-194.7922780181588
 20
242.9753544953733
  0
VERTEX
  8
1
  6
CONTINUOUS
 62
     7
 10
-194.7850640993066
 20
242.9595633758493
  0
VERTEX
  8
1
  6
CONTINUOUS
 62
     7
 10
-194.7767004833505
 20
242.9441569107226
  0
VERTEX
  8
1
  6
CONTINUOUS
 62
     7
 10
-194.7671879126246
 20
242.9292246986591
  0
VERTEX
  8
1
  6
CONTINUOUS
 62
     7
 10
-194.7565532276026
 20
242.9148464570446
  0
VERTEX
  8
1
  6
CONTINUOUS
 62
     7
 10
-194.7448301650064
 20
242.9011032298515
  0
VERTEX
  8
1
  6
CONTINUOUS
 62
     7
 10
-194.7320556361396
 20
242.8880796586432
  0
VERTEX
  8
1
  6
CONTINUOUS
 62
     7
 10
-194.7182698043678
 20
242.875864061033
  0
VERTEX
  8
1
  6
CONTINUOUS
 62
     7
 10
-194.7035161631776
 20
242.8645485098578
  0
VERTEX
  8
1
  6
CONTINUOUS
 62
     7
 10
-194.6878416148048
 20
242.8542289130698
  0
VERTEX
  8
1
  6
CONTINUOUS
 62
     7
 10
-194.6848041462767
 20
242.8524129043498
  0
VERTEX
  8
1
  6
CONTINUOUS
 62
     7
 10
-194.6846132958812
 20
242.8523006978769
  0
VERTEX
  8
1
  6
CONTINUOUS
 62
     7
 10
-194.6845178263713
 20
242.8522446520923
  0
VERTEX
  8
1
  6
CONTINUOUS
 62
     7
 10
-194.6844700805429
 20
242.8522166435719
  0
VERTEX
  8
1
  6
CONTINUOUS
 62
     7
 10
-194.684446204861
 20
242.8522026429059
  0
VERTEX
  8
1
  6
CONTINUOUS
 62
     7
 10
-194.6844428621183
 20
242.8522006830039
  0
VERTEX
  8
1
  6
CONTINUOUS
 62
     7
 10
-194.6844357646234
 20
242.8521965712734
  0
VERTEX
  8
1
  6
CONTINUOUS
 62
     7
 10
-194.6844295233345
 20
242.8521929567746
  0
VERTEX
  8
1
  6
CONTINUOUS
 62
     7
 10
-194.4357281389242
 20
242.7082172675131
  0
VERTEX
  8
1
  6
CONTINUOUS
 62
     7
 10
-194.1883104246873
 20
242.5650829172218
  0
SEQEND
  8
1
  6
CONTINUOUS
 62
     7
  0
POLYLINE
  8
1
  6
CONTINUOUS
 62
     7
 66
     1
  0
VERTEX
  8
1
  6
CONTINUOUS
 62
     7
 10
-194.1591521335993
 20
245.0992451792575
  0
VERTEX
  8
1
  6
CONTINUOUS
 62
     7
 10
-194.6044470691745
 20
244.8418169871885
  0
VERTEX
  8
1
  6
CONTINUOUS
 62
     7
 10
-194.6600571117175
 20
244.8096384631799
  0
VERTEX
  8
1
  6
CONTINUOUS
 62
     7
 10
-194.6739577206692
 20
244.8015938321778
  0
VERTEX
  8
1
  6
CONTINUOUS
 62
     7
 10
-194.6809077376124
 20
244.7975715166767
  0
VERTEX
  8
1
  6
CONTINUOUS
 62
     7
 10
-194.6826452118267
 20
244.7965659378014
  0
VERTEX
  8
1
  6
CONTINUOUS
 62
     7
 10
-194.6830795785022
 20
244.7963145430826
  0
VERTEX
  8
1
  6
CONTINUOUS
 62
     7
 10
-194.6831881700537
 20
244.7962516944029
  0
VERTEX
  8
1
  6
CONTINUOUS
 62
     7
 10
-194.6832424658118
 20
244.7962202700631
  0
VERTEX
  8
1
  6
CONTINUOUS
 62
     7
 10
-194.6832696136864
 20
244.7962045578931
  0
VERTEX
  8
1
  6
CONTINUOUS
 62
     7
 10
-194.6832781272593
 20
244.7961996305567
  0
VERTEX
  8
1
  6
CONTINUOUS
 62
     7
 10
-194.6832817854627
 20
244.7961975096526
  0
VERTEX
  8
1
  6
CONTINUOUS
 62
     7
 10
-194.6832840160266
 20
244.7961962068941
  0
VERTEX
  8
1
  6
CONTINUOUS
 62
     7
 10
-194.6999624046892
 20
244.7855865750713
  0
VERTEX
  8
1
  6
CONTINUOUS
 62
     7
 10
-194.7157763622974
 20
244.7737666991101
  0
VERTEX
  8
1
  6
CONTINUOUS
 62
     7
 10
-194.7306461991588
 20
244.7608160172199
  0
VERTEX
  8
1
  6
CONTINUOUS
 62
     7
 10
-194.7444922313704
 20
244.7468139676106
  0
VERTEX
  8
1
  6
CONTINUOUS
 62
     7
 10
-194.7568979193031
 20
244.7322664715001
  0
VERTEX
  8
1
  6
CONTINUOUS
 62
     7
 10
-194.7681870825234
 20
244.7168730894809
  0
VERTEX
  8
1
  6
CONTINUOUS
 62
     7
 10
-194.7782864990479
 20
244.700706850401
  0
VERTEX
  8
1
  6
CONTINUOUS
 62
     7
 10
-194.7871320670256
 20
244.6838460404809
  0
VERTEX
  8
1
  6
CONTINUOUS
 62
     7
 10
-194.7946904197985
 20
244.6663866817245
  0
VERTEX
  8
1
  6
CONTINUOUS
 62
     7
 10
-194.800934683331
 20
244.6484285322678
  0
VERTEX
  8
1
  6
CONTINUOUS
 62
     7
 10
-194.8058380067415
 20
244.6300713502469
  0
VERTEX
  8
1
  6
CONTINUOUS
 62
     7
 10
-194.8093735631799
 20
244.6114148937979
  0
VERTEX
  8
1
  6
CONTINUOUS
 62
     7
 10
-194.8115145507056
 20
244.5925589210568
  0
VERTEX
  8
1
  6
CONTINUOUS
 62
     7
 10
-194.812234193166
 20
244.5736031901599
  0
VERTEX
  8
1
  6
CONTINUOUS
 62
     7
 10
-194.811514650886
 20
244.5546474592431
  0
VERTEX
  8
1
  6
CONTINUOUS
 62
     7
 10
-194.8093737506532
 20
244.5357914864425
  0
VERTEX
  8
1
  6
CONTINUOUS
 62
     7
 10
-194.8058382557585
 20
244.5171350298942
  0
VERTEX
  8
1
  6
CONTINUOUS
 62
     7
 10
-194.8009349553098
 20
244.4987778477344
  0
VERTEX
  8
1
  6
CONTINUOUS
 62
     7
 10
-194.7946906633668
 20
244.4808196980991
  0
VERTEX
  8
1
  6
CONTINUOUS
 62
     7
 10
-194.7871322180759
 20
244.4633603391243
  0
VERTEX
  8
1
  6
CONTINUOUS
 62
     7
 10
-194.7782864808046
 20
244.4464995289462
  0
VERTEX
  8
1
  6
CONTINUOUS
 62
     7
 10
-194.7681868056138
 20
244.4303332895733
  0
VERTEX
  8
1
  6
CONTINUOUS
 62
     7
 10
-194.7568972818423
 20
244.4149399072321
  0
VERTEX
  8
1
  6
CONTINUOUS
 62
     7
 10
-194.7444911190655
 20
244.4003924107704
  0
VERTEX
  8
1
  6
CONTINUOUS
 62
     7
 10
-194.7333524888141
 20
244.3889683459902
  0
VERTEX
  8
1
  6
CONTINUOUS
 62
     7
 10
-194.7215316445697
 20
244.3782246774533
  0
VERTEX
  8
1
  6
CONTINUOUS
 62
     7
 10
-194.7090709705309
 20
244.3682036667479
  0
VERTEX
  8
1
  6
CONTINUOUS
 62
     7
 10
-194.6993310751594
 20
244.3611875759071
  0
VERTEX
  8
1
  6
CONTINUOUS
 62
     7
 10
-194.689273001176
 20
244.3546195813473
  0
VERTEX
  8
1
  6
CONTINUOUS
 62
     7
 10
-194.6841302357294
 20
244.3515091917687
  0
VERTEX
  8
1
  6
CONTINUOUS
 62
     7
 10
-194.6834822227551
 20
244.3511286941628
  0
VERTEX
  8
1
  6
CONTINUOUS
 62
     7
 10
-194.6833200421951
 20
244.3510338600907
  0
VERTEX
  8
1
  6
CONTINUOUS
 62
     7
 10
-194.6832794859915
 20
244.3510101697368
  0
VERTEX
  8
1
  6
CONTINUOUS
 62
     7
 10
-194.6832766468916
 20
244.3510085116842
  0
VERTEX
  8
1
  6
CONTINUOUS
 62
     7
 10
-194.6832703679844
 20
244.3510048772405
  0
VERTEX
  8
1
  6
CONTINUOUS
 62
     7
 10
-194.6832651120892
 20
244.3510018353644
  0
VERTEX
  8
1
  6
CONTINUOUS
 62
     7
 10
-194.6044414991842
 20
244.305389406069
  0
VERTEX
  8
1
  6
CONTINUOUS
 62
     7
 10
-194.1880213226973
 20
244.0646462936099
  0
SEQEND
  8
1
  6
CONTINUOUS
 62
     7
  0
POLYLINE
  8
1
  6
CONTINUOUS
 62
     7
 66
     1
  0
VERTEX
  8
1
  6
CONTINUOUS
 62
     7
 10
-194.1615038055115
 20
246.5979435069151
  0
VERTEX
  8
1
  6
CONTINUOUS
 62
     7
 10
-194.5087398845763
 20
246.3970958541288
  0
VERTEX
  8
1
  6
CONTINUOUS
 62
     7
 10
-194.599851144948
 20
246.3443616355764
  0
VERTEX
  8
1
  6
CONTINUOUS
 62
     7
 10
-194.646050115781
 20
246.3176161804968
  0
VERTEX
  8
1
  6
CONTINUOUS
 62
     7
 10
-194.6693102629045
 20
246.3041488665062
  0
VERTEX
  8
1
  6
CONTINUOUS
 62
     7
 10
-194.6809804795825
 20
246.2973915628982
  0
VERTEX
  8
1
  6
CONTINUOUS
 62
     7
 10
-194.6839022142327
 20
246.2956997738073
  0
VERTEX
  8
1
  6
CONTINUOUS
 62
     7
 10
-194.6846329091474
 20
246.2952766725853
  0
VERTEX
  8
1
  6
CONTINUOUS
 62
     7
 10
-194.6846396807843
 20
246.295272739796
  0
VERTEX
  8
1
  6
CONTINUOUS
 62
     7
 10
-194.68464176768
 20
246.2952715171247
  0
VERTEX
  8
1
  6
CONTINUOUS
 62
     7
 10
-194.6846454942621
 20
246.2952693337273
  0
VERTEX
  8
1
  6
CONTINUOUS
 62
     7
 10
-194.6965780374635
 20
246.2878319779254
  0
VERTEX
  8
1
  6
CONTINUOUS
 62
     7
 10
-194.7082294757602
 20
246.2796525785692
  0
VERTEX
  8
1
  6
CONTINUOUS
 62
     7
 10
-194.7195517786779
 20
246.2707374328019
  0
VERTEX
  8
1
  6
CONTINUOUS
 62
     7
 10
-194.7321085828527
 20
246.2595779623721
  0
VERTEX
  8
1
  6
CONTINUOUS
 62
     7
 10
-194.7440808720136
 20
246.2474713359984
  0
VERTEX
  8
1
  6
CONTINUOUS
 62
     7
 10
-194.7553823639892
 20
246.2344375684839
  0
VERTEX
  8
1
  6
CONTINUOUS
 62
     7
 10
-194.7659218281439
 20
246.2205006772767
  0
VERTEX
  8
1
  6
CONTINUOUS
 62
     7
 10
-194.7756029321592
 20
246.205688837583
  0
VERTEX
  8
1
  6
CONTINUOUS
 62
     7
 10
-194.7829426549255
 20
246.1927011340442
  0
VERTEX
  8
1
  6
CONTINUOUS
 62
     7
 10
-194.7895689553573
 20
246.1791580060389
  0
VERTEX
  8
1
  6
CONTINUOUS
 62
     7
 10
-194.7954413837939
 20
246.1650966313925
  0
VERTEX
  8
1
  6
CONTINUOUS
 62
     7
 10
-194.8005184865363
 20
246.1505574769191
  0
VERTEX
  8
1
  6
CONTINUOUS
 62
     7
 10
-194.8047576008793
 20
246.1355842838862
  0
VERTEX
  8
1
  6
CONTINUOUS
 62
     7
 10
-194.8081148319821
 20
246.1202241595305
  0
VERTEX
  8
1
  6
CONTINUOUS
 62
     7
 10
-194.8105450296066
 20
246.1045276695516
  0
VERTEX
  8
1
  6
CONTINUOUS
 62
     7
 10
-194.8120017647302
 20
246.0885489315853
  0
VERTEX
  8
1
  6
CONTINUOUS
 62
     7
 10
-194.8124373065719
 20
246.0723457096547
  0
VERTEX
  8
1
  6
CONTINUOUS
 62
     7
 10
-194.8118091519894
 20
246.0559795096011
  0
VERTEX
  8
1
  6
CONTINUOUS
 62
     7
 10
-194.8100970705483
 20
246.039515675493
  0
VERTEX
  8
1
  6
CONTINUOUS
 62
     7
 10
-194.8072864066681
 20
246.0230234870139
  0
VERTEX
  8
1
  6
CONTINUOUS
 62
     7
 10
-194.8033632667172
 20
246.0065762578292
  0
VERTEX
  8
1
  6
CONTINUOUS
 62
     7
 10
-194.7983145470448
 20
245.9902514349315
  0
VERTEX
  8
1
  6
CONTINUOUS
 62
     7
 10
-194.7921279622926
 20
245.9741306989652
  0
VERTEX
  8
1
  6
CONTINUOUS
 62
     7
 10
-194.7847920739796
 20
245.9583000655293
  0
VERTEX
  8
1
  6
CONTINUOUS
 62
     7
 10
-194.7762963382857
 20
245.9428499765305
  0
VERTEX
  8
1
  6
CONTINUOUS
 62
     7
 10
-194.7666404397822
 20
245.9278700306349
  0
VERTEX
  8
1
  6
CONTINUOUS
 62
     7
 10
-194.7558501514573
 20
245.9134399452282
  0
VERTEX
  8
1
  6
CONTINUOUS
 62
     7
 10
-194.7439581334565
 20
245.8996407642827
  0
VERTEX
  8
1
  6
CONTINUOUS
 62
     7
 10
-194.731000211995
 20
245.886557129362
  0
VERTEX
  8
1
  6
CONTINUOUS
 62
     7
 10
-194.7170154572304
 20
245.8742773580791
  0
VERTEX
  8
1
  6
CONTINUOUS
 62
     7
 10
-194.7020462615941
 20
245.8628935232713
  0
VERTEX
  8
1
  6
CONTINUOUS
 62
     7
 10
-194.6861384185599
 20
245.8525015328905
  0
VERTEX
  8
1
  6
CONTINUOUS
 62
     7
 10
-194.6830551417945
 20
245.8506714928177
  0
VERTEX
  8
1
  6
CONTINUOUS
 62
     7
 10
-194.6828614062048
 20
245.8505584045876
  0
VERTEX
  8
1
  6
CONTINUOUS
 62
     7
 10
-194.6827644931154
 20
245.8505019177128
  0
VERTEX
  8
1
  6
CONTINUOUS
 62
     7
 10
-194.6827160252516
 20
245.8504736885945
  0
VERTEX
  8
1
  6
CONTINUOUS
 62
     7
 10
-194.6826917884905
 20
245.8504595776162
  0
VERTEX
  8
1
  6
CONTINUOUS
 62
     7
 10
-194.6826883951934
 20
245.8504576022698
  0
VERTEX
  8
1
  6
CONTINUOUS
 62
     7
 10
-194.6826812762646
 20
245.8504534837437
  0
VERTEX
  8
1
  6
CONTINUOUS
 62
     7
 10
-194.6826750182304
 20
245.8504498639055
  0
VERTEX
  8
1
  6
CONTINUOUS
 62
     7
 10
-194.4332490206198
 20
245.7062480467947
  0
VERTEX
  8
1
  6
CONTINUOUS
 62
     7
 10
-194.1883529570518
 20
245.5648033629741
  0
SEQEND
  8
1
  6
CONTINUOUS
 62
     7
  0
LINE
  8
1
  6
CONTINUOUS
 62
     7
 10
-170.4415
 20
264.5276501235865
 11
-170.4415
 21
265.3236859137199
  0
LINE
  8
1
  6
CONTINUOUS
 62
     7
 10
-170.4415
 20
262.7132850077085
 11
-170.4415
 21
263.1197217038534
  0
LINE
  8
1
  6
CONTINUOUS
 62
     7
 10
-170.4415
 20
260.8988819102797
 11
-170.4415
 21
261.3055312774326
  0
LINE
  8
1
  6
CONTINUOUS
 62
     7
 10
-170.4415
 20
259.0845474257508
 11
-170.4415
 21
259.4913401400008
  0
LINE
  8
1
  6
CONTINUOUS
 62
     7
 10
-170.4415
 20
257.2703111381829
 11
-170.4415
 21
257.677112797108
  0
LINE
  8
1
  6
CONTINUOUS
 62
     7
 10
-170.4415
 20
255.4561357987968
 11
-170.4415
 21
255.8627807884353
  0
LINE
  8
1
  6
CONTINUOUS
 62
     7
 10
-170.4415
 20
253.6419358378722
 11
-170.4415
 21
254.0483757251427
  0
LINE
  8
1
  6
CONTINUOUS
 62
     7
 10
-170.4415
 20
250.8236859137199
 11
-170.4415
 21
252.2340074181391
  0
LINE
  8
1
  6
CONTINUOUS
 62
     7
 10
-194.5585
 20
253.1411913222158
 11
-194.5585
 21
250.8236859137199
  0
LINE
  8
1
  6
CONTINUOUS
 62
     7
 10
-194.5585
 20
254.9555688102489
 11
-194.5585
 21
254.5490158904072
  0
LINE
  8
1
  6
CONTINUOUS
 62
     7
 10
-194.5585
 20
256.7699497566696
 11
-194.5585
 21
256.3632289555294
  0
LINE
  8
1
  6
CONTINUOUS
 62
     7
 10
-194.5585
 20
258.5842451667697
 11
-194.5585
 21
258.1774147340532
  0
LINE
  8
1
  6
CONTINUOUS
 62
     7
 10
-194.5585
 20
260.3984345460758
 11
-194.5585
 21
259.9917024416893
  0
LINE
  8
1
  6
CONTINUOUS
 62
     7
 10
-194.5585
 20
262.2126222249989
 11
-194.5585
 21
261.8060885566364
  0
LINE
  8
1
  6
CONTINUOUS
 62
     7
 10
-194.5585
 20
265.3236859137199
 11
-194.5585
 21
263.6204833796508
  0
LINE
  8
1
  6
CONTINUOUS
 62
     7
 10
-170.812
 20
247.3285898991314
 11
-170.812
 21
247.8236859137199
  0
LINE
  8
1
  6
CONTINUOUS
 62
     7
 10
-170.812
 20
245.8285041135166
 11
-170.812
 21
246.3187819283085
  0
LINE
  8
1
  6
CONTINUOUS
 62
     7
 10
-170.812
 20
244.3283857097099
 11
-170.812
 21
244.818864532698
  0
LINE
  8
1
  6
CONTINUOUS
 62
     7
 10
-170.812
 20
242.8283218792165
 11
-170.812
 21
243.3147470308589
  0
LINE
  8
1
  6
CONTINUOUS
 62
     7
 10
-170.812
 20
241.3283723218645
 11
-170.812
 21
241.8190552224523
  0
LINE
  8
1
  6
CONTINUOUS
 62
     7
 10
-170.812
 20
239.8285110535483
 11
-170.812
 21
240.3189910222814
  0
LINE
  8
1
  6
CONTINUOUS
 62
     7
 10
-170.812
 20
238.3285898991313
 11
-170.812
 21
238.818867543825
  0
LINE
  8
1
  6
CONTINUOUS
 62
     7
 10
-170.812
 20
236.3236859137199
 11
-170.812
 21
237.3187819283085
  0
LINE
  8
1
  6
CONTINUOUS
 62
     7
 10
-194.188
 20
238.0688466499427
 11
-194.188
 21
236.3236859137199
  0
LINE
  8
1
  6
CONTINUOUS
 62
     7
 10
-194.188
 20
239.5689415776514
 11
-194.188
 21
239.0827603869166
  0
LINE
  8
1
  6
CONTINUOUS
 62
     7
 10
-194.188
 20
241.0690269607314
 11
-194.188
 21
240.5784388540258
  0
LINE
  8
1
  6
CONTINUOUS
 62
     7
 10
-194.188
 20
242.5690276257363
 11
-194.188
 21
242.0783438364243
  0
LINE
  8
1
  6
CONTINUOUS
 62
     7
 10
-194.188
 20
244.0689436586575
 11
-194.188
 21
243.5824754666547
  0
LINE
  8
1
  6
CONTINUOUS
 62
     7
 10
-194.188
 20
245.5688119009928
 11
-194.188
 21
245.0784394398384
  0
LINE
  8
1
  6
CONTINUOUS
 62
     7
 10
-194.188
 20
247.8236859137199
 11
-194.188
 21
246.578552290223
  0
LINE
  8
1
  6
CONTINUOUS
 62
     7
 10
-202.0
 20
250.8236859137199
 11
-202.0
 21
247.8236859137199
  0
LINE
  8
1
  6
CONTINUOUS
 62
     7
 10
-163.0
 20
247.8236859137199
 11
-163.0
 21
250.8236859137199
  0
ENDBLK
  8
0
  0
BLOCK
  8
0
  2
D_FRAME_VIEW_1878
 70
     0
 10
0.0
 20
0.0
  0
CIRCLE
  8
1
  6
CONTINUOUS
 62
     7
 10
-182.5
 20
191.6666666666667
 40
11.688
  0
CIRCLE
  8
1
  6
CONTINUOUS
 62
     7
 10
-182.5
 20
191.6666666666667
 40
10.50000000000001
  0
LINE
  8
1
  6
CONTINUOUS
 62
     7
 10
-170.812
 20
191.6666666666667
 11
-170.1874806443234
 21
191.6666666666667
  0
LINE
  8
1
  6
CONTINUOUS
 62
     7
 10
-185.4935026247349
 20
208.9087356270817
 11
-183.3895808967087
 21
211.0126573551079
  0
ARC
  8
1
  6
CONTINUOUS
 62
     7
 10
-183.0360275061153
 20
210.6591039645147
 40
0.500000000000015
 50
91.61664154233209
 51
134.9999999999999
  0
ARC
  8
1
  6
CONTINUOUS
 62
     7
 10
-182.5
 20
191.6666666666667
 40
19.50000000000001
 50
88.38335845766812
 51
91.61664154233212
  0
ARC
  8
1
  6
CONTINUOUS
 62
     7
 10
-181.9639724938847
 20
210.6591039645147
 40
0.4999999999999983
 50
44.99999999999991
 51
88.38335845766787
  0
LINE
  8
1
  6
CONTINUOUS
 62
     7
 10
-181.6104191032914
 20
211.0126573551079
 11
-179.5064973752651
 21
208.9087356270817
  0
ARC
  8
1
  6
CONTINUOUS
 62
     7
 10
-182.5
 20
191.6666666666667
 40
17.5
 50
54.84929797645277
 51
80.15070202354728
  0
LINE
  8
1
  6
CONTINUOUS
 62
     7
 10
-172.4247421218543
 20
205.975376555712
 11
-169.4493474799081
 21
205.975376555712
  0
ARC
  8
1
  6
CONTINUOUS
 62
     7
 10
-169.4493474799081
 20
205.475376555712
 40
0.4999999999999842
 50
46.61664154233188
 51
89.99999999999982
  0
ARC
  8
1
  6
CONTINUOUS
 62
     7
 10
-182.5
 20
191.6666666666667
 40
19.5
 50
43.38335845766823
 51
46.6166415423321
  0
ARC
  8
1
  6
CONTINUOUS
 62
     7
 10
-168.6912901109547
 20
204.7173191867586
 40
0.5000000000000004
 50
359.9999999999998
 51
43.3833584576679
  0
LINE
  8
1
  6
CONTINUOUS
 62
     7
 10
-168.1912901109547
 20
204.7173191867586
 11
-168.1912901109547
 21
201.7419245448124
  0
ARC
  8
1
  6
CONTINUOUS
 62
     7
 10
-182.5
 20
191.6666666666667
 40
17.5
 50
9.849297976452798
 51
35.15070202354731
  0
LINE
  8
1
  6
CONTINUOUS
 62
     7
 10
-165.2579310395851
 20
194.6601692914016
 11
-163.1540093115588
 21
192.5562475633753
  0
ARC
  8
1
  6
CONTINUOUS
 62
     7
 10
-163.507562702152
 20
192.202694172782
 40
0.500000000000015
 50
1.616641542332095
 51
44.99999999999996
  0
ARC
  8
1
  6
CONTINUOUS
 62
     7
 10
-182.5
 20
191.6666666666667
 40
19.50000000000001
 50
358.3833584576681
 51
1.616641542332104
  0
ARC
  8
1
  6
CONTINUOUS
 62
     7
 10
-163.507562702152
 20
191.1306391605513
 40
0.4999999999999983
 50
314.9999999999998
 51
358.3833584576679
  0
LINE
  8
1
  6
CONTINUOUS
 62
     7
 10
-163.1540093115588
 20
190.7770857699581
 11
-165.2579310395851
 21
188.6731640419318
  0
ARC
  8
1
  6
CONTINUOUS
 62
     7
 10
-182.5
 20
191.6666666666667
 40
17.5
 50
324.8492979764527
 51
350.1507020235472
  0
LINE
  8
1
  6
CONTINUOUS
 62
     7
 10
-168.1912901109547
 20
181.5914087885209
 11
-168.1912901109547
 21
178.6160141465747
  0
ARC
  8
1
  6
CONTINUOUS
 62
     7
 10
-168.6912901109547
 20
178.6160141465747
 40
0.5000000000000043
 50
316.616641542332
 51
0.0
  0
ARC
  8
1
  6
CONTINUOUS
 62
     7
 10
-182.5
 20
191.6666666666667
 40
19.5
 50
313.383358457668
 51
316.6166415423321
  0
ARC
  8
1
  6
CONTINUOUS
 62
     7
 10
-169.4493474799081
 20
177.8579567776214
 40
0.5000000000000004
 50
269.9999999999998
 51
313.3833584576678
  0
LINE
  8
1
  6
CONTINUOUS
 62
     7
 10
-169.4493474799081
 20
177.3579567776214
 11
-172.4247421218543
 21
177.3579567776214
  0
ARC
  8
1
  6
CONTINUOUS
 62
     7
 10
-182.5
 20
191.6666666666667
 40
17.5
 50
279.8492979764528
 51
305.1507020235473
  0
LINE
  8
1
  6
CONTINUOUS
 62
     7
 10
-179.5064973752651
 20
174.4245977062517
 11
-181.6104191032914
 21
172.3206759782254
  0
ARC
  8
1
  6
CONTINUOUS
 62
     7
 10
-181.9639724938847
 20
172.6742293688187
 40
0.500000000000015
 50
271.6166415423321
 51
314.9999999999999
  0
ARC
  8
1
  6
CONTINUOUS
 62
     7
 10
-182.5
 20
191.6666666666667
 40
19.50000000000001
 50
268.3833584576681
 51
271.6166415423321
  0
ARC
  8
1
  6
CONTINUOUS
 62
     7
 10
-183.0360275061153
 20
172.6742293688187
 40
0.4999999999999983
 50
224.9999999999999
 51
268.3833584576678
  0
LINE
  8
1
  6
CONTINUOUS
 62
     7
 10
-183.3895808967087
 20
172.3206759782254
 11
-185.4935026247349
 21
174.4245977062517
  0
ARC
  8
1
  6
CONTINUOUS
 62
     7
 10
-182.5
 20
191.6666666666667
 40
17.5
 50
234.8492979764528
 51
260.1507020235473
  0
LINE
  8
1
  6
CONTINUOUS
 62
     7
 10
-192.5752578781457
 20
177.3579567776214
 11
-195.550652520092
 21
177.3579567776214
  0
ARC
  8
1
  6
CONTINUOUS
 62
     7
 10
-195.550652520092
 20
177.8579567776214
 40
0.4999999999999842
 50
226.6166415423319
 51
270.0
  0
ARC
  8
1
  6
CONTINUOUS
 62
     7
 10
-182.5
 20
191.6666666666667
 40
19.5
 50
223.3833584576682
 51
226.6166415423321
  0
ARC
  8
1
  6
CONTINUOUS
 62
     7
 10
-196.3087098890453
 20
178.6160141465747
 40
0.5000000000000004
 50
179.9999999999998
 51
223.3833584576678
  0
LINE
  8
1
  6
CONTINUOUS
 62
     7
 10
-196.8087098890453
 20
178.6160141465747
 11
-196.8087098890453
 21
181.5914087885209
  0
ARC
  8
1
  6
CONTINUOUS
 62
     7
 10
-182.5
 20
191.6666666666667
 40
17.5
 50
189.8492979764528
 51
215.1507020235473
  0
LINE
  8
1
  6
CONTINUOUS
 62
     7
 10
-199.742068960415
 20
188.6731640419318
 11
-201.8459906884413
 21
190.7770857699581
  0
ARC
  8
1
  6
CONTINUOUS
 62
     7
 10
-201.492437297848
 20
191.1306391605513
 40
0.500000000000015
 50
181.6166415423321
 51
225.0
  0
ARC
  8
1
  6
CONTINUOUS
 62
     7
 10
-182.5
 20
191.6666666666667
 40
19.50000000000001
 50
178.3833584576681
 51
181.6166415423321
  0
ARC
  8
1
  6
CONTINUOUS
 62
     7
 10
-201.492437297848
 20
192.202694172782
 40
0.4999999999999983
 50
134.9999999999999
 51
178.3833584576679
  0
LINE
  8
1
  6
CONTINUOUS
 62
     7
 10
-201.8459906884413
 20
192.5562475633753
 11
-199.742068960415
 21
194.6601692914016
  0
ARC
  8
1
  6
CONTINUOUS
 62
     7
 10
-182.5
 20
191.6666666666667
 40
17.5
 50
144.8492979764528
 51
170.1507020235473
  0
LINE
  8
1
  6
CONTINUOUS
 62
     7
 10
-196.8087098890453
 20
201.7419245448124
 11
-196.8087098890453
 21
204.7173191867586
  0
ARC
  8
1
  6
CONTINUOUS
 62
     7
 10
-196.3087098890453
 20
204.7173191867586
 40
0.4999999999999842
 50
136.616641542332
 51
180.0
  0
ARC
  8
1
  6
CONTINUOUS
 62
     7
 10
-182.5
 20
191.6666666666667
 40
19.5
 50
133.383358457668
 51
136.6166415423321
  0
ARC
  8
1
  6
CONTINUOUS
 62
     7
 10
-195.550652520092
 20
205.475376555712
 40
0.5000000000000004
 50
89.99999999999982
 51
133.3833584576678
  0
LINE
  8
1
  6
CONTINUOUS
 62
     7
 10
-195.550652520092
 20
205.975376555712
 11
-192.5752578781457
 21
205.975376555712
  0
ARC
  8
1
  6
CONTINUOUS
 62
     7
 10
-182.5
 20
191.6666666666667
 40
17.5
 50
99.84929797645275
 51
125.1507020235473
  0
ARC
  8
1
  6
CONTINUOUS
 62
     7
 10
-182.1652369837131
 20
191.0970651595035
 40
11.99129237416689
 50
2.72264630720703
 51
57.66776695045593
  0
LINE
  8
1
  6
CONTINUOUS
 62
     7
 10
-170.1874806443234
 20
191.6666666666661
 11
-170.1880413124627
 21
191.7836294674773
  0
LINE
  8
1
  6
CONTINUOUS
 62
     7
 10
-170.1977132846161
 20
191.1652616056266
 11
-170.187668277353
 21
191.6903505459667
  0
ARC
  8
1
  6
CONTINUOUS
 62
     7
 10
-182.4903275084688
 20
191.5810413460752
 40
12.30314482797549
 50
0.5090599438453092
 51
0.3987605740983327
  0
ENDBLK
  8
0
  0
ENDSEC
  0
SECTION
  2
ENTITIES
  0
LINE
  8
1
  6
CENTER
 62
     1
 10
-182.5
 20
267.3236859137199
 11
-182.5
 21
235.8333333333333
  0
LINE
  8
1
  6
CONTINUOUS
 62
     7
 10
-165.2579310395851
 20
247.8236859137199
 11
-165.2579310395851
 21
250.8236859137199
  0
TEXT
  8
1
  6
CONTINUOUS
 62
     7
 10
-192.0826028510692
 20
159.1617533658456
 40
3.0
  1
MFPN-22M25K
  0
LINE
  8
1
  6
CONTINUOUS
 62
     2
 10
-191.9977272727273
 20
158.6037878787879
 11
-173.0022727272728
 21
158.6037878787879
  0
INSERT
  8
1
  6
CONTINUOUS
 62
     7
  2
D_FRAME_VIEW_1491
 10
0.0
 20
0.0
 30
0.0
  0
LINE
  8
1
  6
CENTER
 62
     1
 10
-202.0
 20
191.6666666666667
 11
-163.0
 21
191.6666666666667
  0
LINE
  8
1
  6
CENTER
 62
     1
 10
-182.5
 20
172.1666666666667
 11
-182.5
 21
211.1666666666667
  0
INSERT
  8
1
  6
CONTINUOUS
 62
     7
  2
D_FRAME_VIEW_1878
 10
0.0
 20
0.0
 30
0.0
  0
ENDSEC
  0
EOF
