  0
SECTION
  2
HEADER
  9
$ACADVER
  1
AC1004
  9
$INSBASE
 10
0.0
 20
0.0
  9
$EXTMIN
 10
-159.5
 20
151.1037878787879
  9
$EXTMAX
 10
-120.5
 20
264.8236859137199
  9
$LIMMIN
 10
0.0
 20
0.0
  9
$LIMMAX
 10
12.0
 20
9.0
  9
$ORTHOMODE
 70
     0
  9
$REGENMODE
 70
     1
  9
$FILLMODE
 70
     1
  9
$QTEXTMODE
 70
     0
  9
$DRAGMODE
 70
     2
  9
$LTSCALE
 40
1.0
  9
$OSMODE
 70
    37
  9
$ATTMODE
 70
     1
  9
$TEXTSIZE
 40
0.2
  9
$TRACEWID
 40
0.05
  9
$TEXTSTYLE
  7
STANDARD
  9
$CLAYER
  8
0
  9
$CELTYPE
  6
BYLAYER
  9
$CECOLOR
 62
   256
  9
$DIMSCALE
 40
1.0
  9
$DIMASZ
 40
3.0
  9
$DIMEXO
 40
0.0625
  9
$DIMDLI
 40
0.38
  9
$DIMRND
 40
0.0
  9
$DIMDLE
 40
0.0
  9
$DIMEXE
 40
1.5
  9
$DIMTP
 40
0.0
  9
$DIMTM
 40
0.0
  9
$DIMTXT
 40
3.0
  9
$DIMCEN
 40
0.09
  9
$DIMTSZ
 40
0.0
  9
$DIMTOL
 70
     0
  9
$DIMLIM
 70
     0
  9
$DIMTIH
 70
     1
  9
$DIMTOH
 70
     1
  9
$DIMSE1
 70
     0
  9
$DIMSE2
 70
     0
  9
$DIMTAD
 70
     1
  9
$DIMZIN
 70
     0
  9
$DIMBLK
  1

  9
$DIMASO
 70
     1
  9
$DIMSHO
 70
     1
  9
$DIMPOST
  1

  9
$DIMAPOST
  1

  9
$DIMALT
 70
     0
  9
$DIMALTD
 70
     2
  9
$DIMALTF
 40
25.4
  9
$DIMLFAC
 40
1.0
  9
$DIMTOFL
 70
     0
  9
$DIMTVP
 40
0.0
  9
$DIMTIX
 70
     0
  9
$DIMSOXD
 70
     0
  9
$DIMSAH
 70
     0
  9
$DIMBLK1
  1

  9
$DIMBLK2
  1

  9
$LUNITS
 70
     2
  9
$LUPREC
 70
     4
  9
$SKETCHINC
 40
0.1
  9
$FILLETRAD
 40
0.5
  9
$AUNITS
 70
     0
  9
$AUPREC
 70
     0
  9
$MENU
  1
.
  9
$ELEVATION
 40
0.0
  9
$THICKNESS
 40
0.0
  9
$LIMCHECK
 70
     0
  9
$CHAMFERA
 40
0.0
  9
$CHAMFERB
 40
0.0
  9
$SKPOLY
 70
     0
  9
$TDCREATE
 40
2459460.409220162
  9
$TDUPDATE
 40
2459460.409220336
  9
$TDINDWG
 40
0.0000000116
  9
$TDUSRTIMER
 40
0.0000000116
  9
$USRTIMER
 70
     1
  9
$ANGBASE
 50
0.0
  9
$ANGDIR
 70
     0
  9
$PDMODE
 70
     0
  9
$PDSIZE
 40
0.0
  9
$PLINEWID
 40
0.0
  9
$COORDS
 70
     1
  9
$SPLFRAME
 70
     0
  9
$SPLINETYPE
 70
     6
  9
$SPLINESEGS
 70
     8
  9
$ATTDIA
 70
     0
  9
$ATTREQ
 70
     1
  9
$SURFTAB1
 70
     6
  9
$SURFTAB2
 70
     6
  9
$SURFTYPE
 70
     6
  9
$SURFU
 70
     6
  9
$SURFV
 70
     6
  9
$UCSNAME
  2

  9
$UCSORG
 10
0.0
 20
0.0
 30
0.0
  9
$UCSXDIR
 10
1.0
 20
0.0
 30
0.0
  9
$UCSYDIR
 10
0.0
 20
1.0
 30
0.0
  9
$USERI1
 70
     0
  9
$USERI2
 70
     0
  9
$USERI3
 70
     0
  9
$USERI4
 70
     0
  9
$USERI5
 70
     0
  9
$USERR1
 40
0.0
  9
$USERR2
 40
0.0
  9
$USERR3
 40
0.0
  9
$USERR4
 40
0.0
  9
$USERR5
 40
0.0
  9
$WORLDVIEW
 70
     1
  0
ENDSEC
  0
SECTION
  2
TABLES
  0
TABLE
  2
LTYPE
 70
     2
  0
LTYPE
  2
CONTINUOUS
 70
     0
  3
Solid line
 72
    65
 73
     0
 40
0.0
  0
LTYPE
  2
CENTER
 70
     0
  3

 72
    65
 73
     0
 40
0.0
  0
ENDTAB
  0
TABLE
  2
LAYER
 70
     2
  0
LAYER
  2
0
 70
     0
 62
     7
  6
CONTINUOUS
  0
LAYER
  2
1
 70
     0
 62
     7
  6
CONTINUOUS
  0
ENDTAB
  0
TABLE
  2
STYLE
 70
     2
  0
STYLE
  2
STANDARD
 70
     0
 40
0.0
 41
1.0
 50
0.0
 71
     0
 42
0.2
  3
txt
  4

  0
STYLE
  2
ＭＳ_ゴシック
 70
     0
 40
0.0
 41
1.0
 50
0.0
 71
     0
 42
0.2
  3
ＭＳ ゴシック.shx
  4

  0
ENDTAB
  0
TABLE
  2
VIEW
 70
     0
  0
ENDTAB
  0
ENDSEC
  0
SECTION
  2
BLOCKS
  0
BLOCK
  8
0
  2
D_FRAME_VIEW_1491
 70
     0
 10
0.0
 20
0.0
  0
LINE
  8
1
  6
CONTINUOUS
 62
     7
 10
-140.5501334931184
 20
245.3236859137199
 11
-139.4498665068817
 21
245.3236859137199
  0
LINE
  8
1
  6
CONTINUOUS
 62
     7
 10
-140.5501334931184
 20
248.3236859137199
 11
-139.4498665068817
 21
248.3236859137199
  0
LINE
  8
1
  6
CONTINUOUS
 62
     7
 10
-139.1104191032914
 20
245.3236859137199
 11
-139.4498665068816
 21
245.3236859137199
  0
LINE
  8
1
  6
CONTINUOUS
 62
     7
 10
-139.4498665068816
 20
248.3236859137199
 11
-139.1104191032914
 21
248.3236859137199
  0
LINE
  8
1
  6
CONTINUOUS
 62
     7
 10
-140.5501334931184
 20
245.3236859137199
 11
-140.8895808967086
 21
245.3236859137199
  0
LINE
  8
1
  6
CONTINUOUS
 62
     7
 10
-140.8895808967086
 20
248.3236859137199
 11
-140.5501334931184
 21
248.3236859137199
  0
LINE
  8
1
  6
CONTINUOUS
 62
     7
 10
-142.9935026247349
 20
245.3236859137199
 11
-142.9935026247349
 21
248.3236859137199
  0
LINE
  8
1
  6
CONTINUOUS
 62
     7
 10
-142.9935026247349
 20
245.3236859137199
 11
-140.8895808967086
 21
245.3236859137199
  0
LINE
  8
1
  6
CONTINUOUS
 62
     7
 10
-142.9935026247349
 20
248.3236859137199
 11
-140.8895808967086
 21
248.3236859137199
  0
LINE
  8
1
  6
CONTINUOUS
 62
     7
 10
-137.0064973752651
 20
245.3236859137199
 11
-137.0064973752651
 21
248.3236859137199
  0
LINE
  8
1
  6
CONTINUOUS
 62
     7
 10
-139.1104191032914
 20
245.3236859137199
 11
-137.0064973752651
 21
245.3236859137199
  0
LINE
  8
1
  6
CONTINUOUS
 62
     7
 10
-139.1104191032914
 20
248.3236859137199
 11
-137.0064973752651
 21
248.3236859137199
  0
LINE
  8
1
  6
CONTINUOUS
 62
     7
 10
-129.9247421218543
 20
245.3236859137199
 11
-129.9247421218543
 21
248.3236859137199
  0
LINE
  8
1
  6
CONTINUOUS
 62
     7
 10
-129.9247421218543
 20
245.3236859137199
 11
-137.0064973752651
 21
245.3236859137199
  0
LINE
  8
1
  6
CONTINUOUS
 62
     7
 10
-129.9247421218543
 20
248.3236859137199
 11
-137.0064973752651
 21
248.3236859137199
  0
LINE
  8
1
  6
CONTINUOUS
 62
     7
 10
-150.0752578781457
 20
245.3236859137199
 11
-150.0752578781457
 21
248.3236859137199
  0
LINE
  8
1
  6
CONTINUOUS
 62
     7
 10
-142.9935026247349
 20
245.3236859137199
 11
-150.0752578781457
 21
245.3236859137199
  0
LINE
  8
1
  6
CONTINUOUS
 62
     7
 10
-142.9935026247349
 20
248.3236859137199
 11
-150.0752578781457
 21
248.3236859137199
  0
LINE
  8
1
  6
CONTINUOUS
 62
     7
 10
-126.614170365063
 20
236.2733462322835
 11
-126.71737240193
 21
236.2477927835361
  0
ARC
  8
1
  6
CONTINUOUS
 62
     7
 10
1079.772926736176
 20
-43815.58433604096
 40
44068.35069239655
 50
91.56882296540914
 51
91.60342762773867
  0
LINE
  8
1
  6
CONTINUOUS
 62
     7
 10
-153.3229284875825
 20
235.5110800764294
 11
-153.3899999999948
 21
235.4856716447729
  0
ARC
  8
1
  6
CONTINUOUS
 62
     7
 10
-351.1039162103796
 20
7652.844737967431
 40
7418.380820633249
 50
271.527865973319
 51
271.7341123334012
  0
LINE
  8
1
  6
CONTINUOUS
 62
     7
 10
-153.3066527582545
 20
237.1013333915903
 11
-153.3899999999887
 21
237.0734405041592
  0
ARC
  8
1
  6
CONTINUOUS
 62
     7
 10
-437.6901404538527
 20
10563.09147533642
 40
10328.32743756419
 50
271.5775177010236
 51
271.7259450132873
  0
LINE
  8
1
  6
CONTINUOUS
 62
     7
 10
-153.3574889756822
 20
238.6785331471808
 11
-153.3899999999899
 21
238.6610800650481
  0
ARC
  8
1
  6
CONTINUOUS
 62
     7
 10
-434.8240500817155
 20
10477.89564937255
 40
10241.4975266312
 50
271.5748663785296
 51
271.72454030381
  0
LINE
  8
1
  6
CONTINUOUS
 62
     7
 10
-153.3555127893576
 20
240.2666733592327
 11
-153.3899999999819
 21
240.2484425469409
  0
ARC
  8
1
  6
CONTINUOUS
 62
     7
 10
-2725.163061636105
 20
94178.56303593359
 40
93971.89806971975
 50
271.5682916952433
 51
271.5845014395113
  0
LINE
  8
1
  6
CONTINUOUS
 62
     7
 10
-153.2991904937562
 20
241.8655048083386
 11
-153.3899999999783
 21
241.8356723915483
  0
POLYLINE
  8
1
  6
CONTINUOUS
 62
     7
 66
     1
  0
VERTEX
  8
1
  6
CONTINUOUS
 62
     7
 10
-125.9514180056684
 20
235.3236859137199
  0
VERTEX
  8
1
  6
CONTINUOUS
 62
     7
 10
-125.9514602975466
 20
235.3274483854203
  0
VERTEX
  8
1
  6
CONTINUOUS
 62
     7
 10
-125.951586904479
 20
235.3312090390644
  0
VERTEX
  8
1
  6
CONTINUOUS
 62
     7
 10
-125.9517974234122
 20
235.3349660565962
  0
VERTEX
  8
1
  6
CONTINUOUS
 62
     7
 10
-125.9520914512928
 20
235.3387176199594
  0
VERTEX
  8
1
  6
CONTINUOUS
 62
     7
 10
-125.9524685850676
 20
235.3424619110978
  0
VERTEX
  8
1
  6
CONTINUOUS
 62
     7
 10
-125.9529284216831
 20
235.3461971119554
  0
VERTEX
  8
1
  6
CONTINUOUS
 62
     7
 10
-125.953470558086
 20
235.3499214044758
  0
VERTEX
  8
1
  6
CONTINUOUS
 62
     7
 10
-125.9540945912229
 20
235.3536329706029
  0
VERTEX
  8
1
  6
CONTINUOUS
 62
     7
 10
-125.9548001180406
 20
235.3573299922805
  0
VERTEX
  8
1
  6
CONTINUOUS
 62
     7
 10
-125.9555867354855
 20
235.3610106514523
  0
VERTEX
  8
1
  6
CONTINUOUS
 62
     7
 10
-125.9564540405045
 20
235.3646731300623
  0
VERTEX
  8
1
  6
CONTINUOUS
 62
     7
 10
-125.9574016300441
 20
235.3683156100543
  0
VERTEX
  8
1
  6
CONTINUOUS
 62
     7
 10
-125.958429101051
 20
235.3719362733719
  0
VERTEX
  8
1
  6
CONTINUOUS
 62
     7
 10
-125.9595360504718
 20
235.3755333019591
  0
VERTEX
  8
1
  6
CONTINUOUS
 62
     7
 10
-125.9607220752531
 20
235.3791048777597
  0
VERTEX
  8
1
  6
CONTINUOUS
 62
     7
 10
-125.9619867723418
 20
235.3826491827175
  0
VERTEX
  8
1
  6
CONTINUOUS
 62
     7
 10
-125.9633297386842
 20
235.3861643987762
  0
VERTEX
  8
1
  6
CONTINUOUS
 62
     7
 10
-125.9647505712272
 20
235.3896487078798
  0
VERTEX
  8
1
  6
CONTINUOUS
 62
     7
 10
-125.9662488669173
 20
235.3931002919719
  0
VERTEX
  8
1
  6
CONTINUOUS
 62
     7
 10
-125.9678242191864
 20
235.3965173346355
  0
VERTEX
  8
1
  6
CONTINUOUS
 62
     7
 10
-125.9694759638173
 20
235.3998981395971
  0
VERTEX
  8
1
  6
CONTINUOUS
 62
     7
 10
-125.9712030077424
 20
235.4032412105592
  0
VERTEX
  8
1
  6
CONTINUOUS
 62
     7
 10
-125.9730042173278
 20
235.4065450701412
  0
VERTEX
  8
1
  6
CONTINUOUS
 62
     7
 10
-125.9748784589392
 20
235.4098082409621
  0
VERTEX
  8
1
  6
CONTINUOUS
 62
     7
 10
-125.9768245989426
 20
235.4130292456414
  0
VERTEX
  8
1
  6
CONTINUOUS
 62
     7
 10
-125.9788415037038
 20
235.4162066067982
  0
VERTEX
  8
1
  6
CONTINUOUS
 62
     7
 10
-125.9809280395887
 20
235.4193388470515
  0
VERTEX
  8
1
  6
CONTINUOUS
 62
     7
 10
-125.9830830729631
 20
235.422424489021
  0
VERTEX
  8
1
  6
CONTINUOUS
 62
     7
 10
-125.9853054701928
 20
235.4254620553256
  0
VERTEX
  8
1
  6
CONTINUOUS
 62
     7
 10
-125.9875940976439
 20
235.4284500685846
  0
VERTEX
  8
1
  6
CONTINUOUS
 62
     7
 10
-125.989947821682
 20
235.4313870514172
  0
VERTEX
  8
1
  6
CONTINUOUS
 62
     7
 10
-125.992365508673
 20
235.4342715264426
  0
VERTEX
  8
1
  6
CONTINUOUS
 62
     7
 10
-125.9948460249829
 20
235.4371020162802
  0
VERTEX
  8
1
  6
CONTINUOUS
 62
     7
 10
-125.9973882369775
 20
235.439877043549
  0
VERTEX
  8
1
  6
CONTINUOUS
 62
     7
 10
-125.9999910110226
 20
235.4425951308684
  0
VERTEX
  8
1
  6
CONTINUOUS
 62
     7
 10
-126.0026532134842
 20
235.4452548008575
  0
VERTEX
  8
1
  6
CONTINUOUS
 62
     7
 10
-126.005373710728
 20
235.4478545761357
  0
VERTEX
  8
1
  6
CONTINUOUS
 62
     7
 10
-126.00815136912
 20
235.4503929793221
  0
VERTEX
  8
1
  6
CONTINUOUS
 62
     7
 10
-126.0109850550259
 20
235.4528685330358
  0
VERTEX
  8
1
  6
CONTINUOUS
 62
     7
 10
-126.0341749098351
 20
235.4723353860669
  0
VERTEX
  8
1
  6
CONTINUOUS
 62
     7
 10
-126.0701639779704
 20
235.5025337998657
  0
VERTEX
  8
1
  6
CONTINUOUS
 62
     7
 10
-126.1061530461057
 20
235.5327322136644
  0
VERTEX
  8
1
  6
CONTINUOUS
 62
     7
 10
-126.142142114241
 20
235.5629306274631
  0
VERTEX
  8
1
  6
CONTINUOUS
 62
     7
 10
-126.1781311823763
 20
235.5931290412619
  0
VERTEX
  8
1
  6
CONTINUOUS
 62
     7
 10
-126.2141202505116
 20
235.6233274550606
  0
VERTEX
  8
1
  6
CONTINUOUS
 62
     7
 10
-126.2501093186469
 20
235.6535258688594
  0
VERTEX
  8
1
  6
CONTINUOUS
 62
     7
 10
-126.2860983867822
 20
235.6837242826582
  0
VERTEX
  8
1
  6
CONTINUOUS
 62
     7
 10
-126.3220874549176
 20
235.713922696457
  0
VERTEX
  8
1
  6
CONTINUOUS
 62
     7
 10
-126.3580765230528
 20
235.7441211102556
  0
VERTEX
  8
1
  6
CONTINUOUS
 62
     7
 10
-126.3940655911881
 20
235.7743195240543
  0
VERTEX
  8
1
  6
CONTINUOUS
 62
     7
 10
-126.4300546593235
 20
235.8045179378531
  0
VERTEX
  8
1
  6
CONTINUOUS
 62
     7
 10
-126.4660437274588
 20
235.8347163516518
  0
VERTEX
  8
1
  6
CONTINUOUS
 62
     7
 10
-126.5020327955941
 20
235.8649147654506
  0
VERTEX
  8
1
  6
CONTINUOUS
 62
     7
 10
-126.5380218637294
 20
235.8951131792494
  0
VERTEX
  8
1
  6
CONTINUOUS
 62
     7
 10
-126.5740109318647
 20
235.9253115930481
  0
VERTEX
  8
1
  6
CONTINUOUS
 62
     7
 10
-126.61
 20
235.9555100068469
  0
SEQEND
  8
1
  6
CONTINUOUS
 62
     7
  0
LINE
  8
1
  6
CONTINUOUS
 62
     7
 10
-153.3873265325674
 20
243.1041798104606
 11
-153.265377484294
 21
243.1332973518608
  0
ARC
  8
1
  6
CONTINUOUS
 62
     7
 10
-641.5756368118715
 20
18352.67354703428
 40
18116.12251460649
 50
271.5445637399055
 51
271.6287290044913
  0
LINE
  8
1
  6
CONTINUOUS
 62
     7
 10
-126.6637058568281
 20
243.8701446116812
 11
-126.61
 21
243.8930100068469
  0
LINE
  8
1
  6
CONTINUOUS
 62
     7
 10
-153.3872130732733
 20
241.516520370458
 11
-153.2610710885315
 21
241.5465228709541
  0
ARC
  8
1
  6
CONTINUOUS
 62
     7
 10
-616.718151488536
 20
17474.49553707974
 40
17239.17991644883
 50
271.5405219106709
 51
271.6289450921193
  0
LINE
  8
1
  6
CONTINUOUS
 62
     7
 10
-126.6664429383862
 20
242.2822864656582
 11
-126.6100000000005
 21
242.3053199668637
  0
LINE
  8
1
  6
CONTINUOUS
 62
     7
 10
-153.3866058579996
 20
239.9294951861591
 11
-153.2648874086407
 21
239.9587040714285
  0
ARC
  8
1
  6
CONTINUOUS
 62
     7
 10
-675.4750803201435
 20
19605.12581673077
 40
19372.20691575442
 50
271.5446905488328
 51
271.6233812883966
  0
LINE
  8
1
  6
CONTINUOUS
 62
     7
 10
-126.6690257785864
 20
240.6941777359881
 11
-126.6100000000227
 21
240.7175785453668
  0
LINE
  8
1
  6
CONTINUOUS
 62
     7
 10
-153.3858917905788
 20
238.3427835497547
 11
-153.2642168821747
 21
238.3713706485174
  0
ARC
  8
1
  6
CONTINUOUS
 62
     7
 10
-726.7408608362699
 20
21481.26494721271
 40
21250.63300154593
 50
271.5463906808767
 51
271.6181168228723
  0
LINE
  8
1
  6
CONTINUOUS
 62
     7
 10
-126.6716009938568
 20
239.1059267697724
 11
-126.6100000000227
 21
239.1300772464108
  0
LINE
  8
1
  6
CONTINUOUS
 62
     7
 10
-153.3863159005918
 20
236.7551789472742
 11
-153.2700143287639
 21
236.782804177409
  0
ARC
  8
1
  6
CONTINUOUS
 62
     7
 10
-803.1583992077481
 20
24217.5030886171
 40
23989.52480299137
 50
271.5523616227368
 51
271.6159140288444
  0
LINE
  8
1
  6
CONTINUOUS
 62
     7
 10
-126.6710349856449
 20
237.5184114037782
 11
-126.6100000000157
 21
237.5428172873547
  0
POLYLINE
  8
1
  6
CONTINUOUS
 62
     7
 66
     1
  0
VERTEX
  8
1
  6
CONTINUOUS
 62
     7
 10
-126.61
 20
243.8930100068469
  0
VERTEX
  8
1
  6
CONTINUOUS
 62
     7
 10
-126.5740109318647
 20
243.8628115930481
  0
VERTEX
  8
1
  6
CONTINUOUS
 62
     7
 10
-126.5380218637294
 20
243.8326131792494
  0
VERTEX
  8
1
  6
CONTINUOUS
 62
     7
 10
-126.5020327955941
 20
243.8024147654506
  0
VERTEX
  8
1
  6
CONTINUOUS
 62
     7
 10
-126.4660437274588
 20
243.7722163516518
  0
VERTEX
  8
1
  6
CONTINUOUS
 62
     7
 10
-126.4300546593235
 20
243.7420179378531
  0
VERTEX
  8
1
  6
CONTINUOUS
 62
     7
 10
-126.3940655911882
 20
243.7118195240544
  0
VERTEX
  8
1
  6
CONTINUOUS
 62
     7
 10
-126.3580765230529
 20
243.6816211102556
  0
VERTEX
  8
1
  6
CONTINUOUS
 62
     7
 10
-126.3220874549176
 20
243.6514226964569
  0
VERTEX
  8
1
  6
CONTINUOUS
 62
     7
 10
-126.2860983867823
 20
243.6212242826581
  0
VERTEX
  8
1
  6
CONTINUOUS
 62
     7
 10
-126.2501093186469
 20
243.5910258688593
  0
VERTEX
  8
1
  6
CONTINUOUS
 62
     7
 10
-126.2141202505116
 20
243.5608274550606
  0
VERTEX
  8
1
  6
CONTINUOUS
 62
     7
 10
-126.1781311823763
 20
243.5306290412619
  0
VERTEX
  8
1
  6
CONTINUOUS
 62
     7
 10
-126.142142114241
 20
243.5004306274632
  0
VERTEX
  8
1
  6
CONTINUOUS
 62
     7
 10
-126.1061530461057
 20
243.4702322136644
  0
VERTEX
  8
1
  6
CONTINUOUS
 62
     7
 10
-126.0701639779704
 20
243.4400337998657
  0
VERTEX
  8
1
  6
CONTINUOUS
 62
     7
 10
-126.0341749098351
 20
243.4098353860669
  0
VERTEX
  8
1
  6
CONTINUOUS
 62
     7
 10
-126.0109850550259
 20
243.3903685330359
  0
VERTEX
  8
1
  6
CONTINUOUS
 62
     7
 10
-126.00815136912
 20
243.3878929793221
  0
VERTEX
  8
1
  6
CONTINUOUS
 62
     7
 10
-126.005373710728
 20
243.3853545761357
  0
VERTEX
  8
1
  6
CONTINUOUS
 62
     7
 10
-126.0026532134842
 20
243.3827548008576
  0
VERTEX
  8
1
  6
CONTINUOUS
 62
     7
 10
-125.9999910110226
 20
243.3800951308684
  0
VERTEX
  8
1
  6
CONTINUOUS
 62
     7
 10
-125.9973882369775
 20
243.377377043549
  0
VERTEX
  8
1
  6
CONTINUOUS
 62
     7
 10
-125.9948460249829
 20
243.3746020162802
  0
VERTEX
  8
1
  6
CONTINUOUS
 62
     7
 10
-125.992365508673
 20
243.3717715264426
  0
VERTEX
  8
1
  6
CONTINUOUS
 62
     7
 10
-125.9899478216819
 20
243.3688870514171
  0
VERTEX
  8
1
  6
CONTINUOUS
 62
     7
 10
-125.9875940976438
 20
243.3659500685845
  0
VERTEX
  8
1
  6
CONTINUOUS
 62
     7
 10
-125.9853054701928
 20
243.3629620553256
  0
VERTEX
  8
1
  6
CONTINUOUS
 62
     7
 10
-125.9830830729631
 20
243.3599244890209
  0
VERTEX
  8
1
  6
CONTINUOUS
 62
     7
 10
-125.9809280395887
 20
243.3568388470516
  0
VERTEX
  8
1
  6
CONTINUOUS
 62
     7
 10
-125.9788415037038
 20
243.3537066067981
  0
VERTEX
  8
1
  6
CONTINUOUS
 62
     7
 10
-125.9768245989426
 20
243.3505292456413
  0
VERTEX
  8
1
  6
CONTINUOUS
 62
     7
 10
-125.9748784589392
 20
243.3473082409621
  0
VERTEX
  8
1
  6
CONTINUOUS
 62
     7
 10
-125.9730042173278
 20
243.3440450701411
  0
VERTEX
  8
1
  6
CONTINUOUS
 62
     7
 10
-125.9712030077424
 20
243.3407412105592
  0
VERTEX
  8
1
  6
CONTINUOUS
 62
     7
 10
-125.9694759638172
 20
243.337398139597
  0
VERTEX
  8
1
  6
CONTINUOUS
 62
     7
 10
-125.9678242191864
 20
243.3340173346355
  0
VERTEX
  8
1
  6
CONTINUOUS
 62
     7
 10
-125.9662488669173
 20
243.330600291972
  0
VERTEX
  8
1
  6
CONTINUOUS
 62
     7
 10
-125.9647505712272
 20
243.3271487078798
  0
VERTEX
  8
1
  6
CONTINUOUS
 62
     7
 10
-125.9633297386842
 20
243.3236643987762
  0
VERTEX
  8
1
  6
CONTINUOUS
 62
     7
 10
-125.9619867723417
 20
243.3201491827174
  0
VERTEX
  8
1
  6
CONTINUOUS
 62
     7
 10
-125.9607220752531
 20
243.3166048777597
  0
VERTEX
  8
1
  6
CONTINUOUS
 62
     7
 10
-125.9595360504718
 20
243.3130333019591
  0
VERTEX
  8
1
  6
CONTINUOUS
 62
     7
 10
-125.958429101051
 20
243.3094362733719
  0
VERTEX
  8
1
  6
CONTINUOUS
 62
     7
 10
-125.9574016300441
 20
243.3058156100543
  0
VERTEX
  8
1
  6
CONTINUOUS
 62
     7
 10
-125.9564540405045
 20
243.3021731300623
  0
VERTEX
  8
1
  6
CONTINUOUS
 62
     7
 10
-125.9555867354856
 20
243.2985106514524
  0
VERTEX
  8
1
  6
CONTINUOUS
 62
     7
 10
-125.9548001180405
 20
243.2948299922804
  0
VERTEX
  8
1
  6
CONTINUOUS
 62
     7
 10
-125.9540945912229
 20
243.2911329706029
  0
VERTEX
  8
1
  6
CONTINUOUS
 62
     7
 10
-125.953470558086
 20
243.2874214044759
  0
VERTEX
  8
1
  6
CONTINUOUS
 62
     7
 10
-125.9529284216831
 20
243.2836971119555
  0
VERTEX
  8
1
  6
CONTINUOUS
 62
     7
 10
-125.9524685850676
 20
243.2799619110979
  0
VERTEX
  8
1
  6
CONTINUOUS
 62
     7
 10
-125.9520914512928
 20
243.2762176199594
  0
VERTEX
  8
1
  6
CONTINUOUS
 62
     7
 10
-125.9517974234122
 20
243.2724660565962
  0
VERTEX
  8
1
  6
CONTINUOUS
 62
     7
 10
-125.951586904479
 20
243.2687090390644
  0
VERTEX
  8
1
  6
CONTINUOUS
 62
     7
 10
-125.9514602975466
 20
243.2649483854202
  0
VERTEX
  8
1
  6
CONTINUOUS
 62
     7
 10
-125.9514180056684
 20
243.2611859137199
  0
SEQEND
  8
1
  6
CONTINUOUS
 62
     7
  0
POLYLINE
  8
1
  6
CONTINUOUS
 62
     7
 66
     1
  0
VERTEX
  8
1
  6
CONTINUOUS
 62
     7
 10
-126.61
 20
234.6918618205929
  0
VERTEX
  8
1
  6
CONTINUOUS
 62
     7
 10
-126.5740109318647
 20
234.7220602343917
  0
VERTEX
  8
1
  6
CONTINUOUS
 62
     7
 10
-126.5380218637294
 20
234.7522586481904
  0
VERTEX
  8
1
  6
CONTINUOUS
 62
     7
 10
-126.5020327955941
 20
234.7824570619892
  0
VERTEX
  8
1
  6
CONTINUOUS
 62
     7
 10
-126.4660437274588
 20
234.8126554757879
  0
VERTEX
  8
1
  6
CONTINUOUS
 62
     7
 10
-126.4300546593235
 20
234.8428538895867
  0
VERTEX
  8
1
  6
CONTINUOUS
 62
     7
 10
-126.3940655911882
 20
234.8730523033854
  0
VERTEX
  8
1
  6
CONTINUOUS
 62
     7
 10
-126.3580765230529
 20
234.9032507171842
  0
VERTEX
  8
1
  6
CONTINUOUS
 62
     7
 10
-126.3220874549176
 20
234.933449130983
  0
VERTEX
  8
1
  6
CONTINUOUS
 62
     7
 10
-126.2860983867823
 20
234.9636475447817
  0
VERTEX
  8
1
  6
CONTINUOUS
 62
     7
 10
-126.2501093186469
 20
234.9938459585804
  0
VERTEX
  8
1
  6
CONTINUOUS
 62
     7
 10
-126.2141202505116
 20
235.0240443723791
  0
VERTEX
  8
1
  6
CONTINUOUS
 62
     7
 10
-126.1781311823763
 20
235.054242786178
  0
VERTEX
  8
1
  6
CONTINUOUS
 62
     7
 10
-126.142142114241
 20
235.0844411999767
  0
VERTEX
  8
1
  6
CONTINUOUS
 62
     7
 10
-126.1061530461057
 20
235.1146396137755
  0
VERTEX
  8
1
  6
CONTINUOUS
 62
     7
 10
-126.0701639779704
 20
235.1448380275742
  0
VERTEX
  8
1
  6
CONTINUOUS
 62
     7
 10
-126.0341749098351
 20
235.1750364413729
  0
VERTEX
  8
1
  6
CONTINUOUS
 62
     7
 10
-126.0109850550259
 20
235.194503294404
  0
VERTEX
  8
1
  6
CONTINUOUS
 62
     7
 10
-126.00815136912
 20
235.1969788481178
  0
VERTEX
  8
1
  6
CONTINUOUS
 62
     7
 10
-126.005373710728
 20
235.1995172513041
  0
VERTEX
  8
1
  6
CONTINUOUS
 62
     7
 10
-126.0026532134842
 20
235.2021170265823
  0
VERTEX
  8
1
  6
CONTINUOUS
 62
     7
 10
-125.9999910110226
 20
235.2047766965714
  0
VERTEX
  8
1
  6
CONTINUOUS
 62
     7
 10
-125.9973882369775
 20
235.2074947838908
  0
VERTEX
  8
1
  6
CONTINUOUS
 62
     7
 10
-125.9948460249829
 20
235.2102698111597
  0
VERTEX
  8
1
  6
CONTINUOUS
 62
     7
 10
-125.992365508673
 20
235.2131003009972
  0
VERTEX
  8
1
  6
CONTINUOUS
 62
     7
 10
-125.9899478216819
 20
235.2159847760227
  0
VERTEX
  8
1
  6
CONTINUOUS
 62
     7
 10
-125.9875940976438
 20
235.2189217588553
  0
VERTEX
  8
1
  6
CONTINUOUS
 62
     7
 10
-125.9853054701928
 20
235.2219097721142
  0
VERTEX
  8
1
  6
CONTINUOUS
 62
     7
 10
-125.9830830729631
 20
235.2249473384188
  0
VERTEX
  8
1
  6
CONTINUOUS
 62
     7
 10
-125.9809280395887
 20
235.2280329803883
  0
VERTEX
  8
1
  6
CONTINUOUS
 62
     7
 10
-125.9788415037039
 20
235.2311652206418
  0
VERTEX
  8
1
  6
CONTINUOUS
 62
     7
 10
-125.9768245989426
 20
235.2343425817985
  0
VERTEX
  8
1
  6
CONTINUOUS
 62
     7
 10
-125.9748784589393
 20
235.2375635864778
  0
VERTEX
  8
1
  6
CONTINUOUS
 62
     7
 10
-125.9730042173278
 20
235.2408267572987
  0
VERTEX
  8
1
  6
CONTINUOUS
 62
     7
 10
-125.9712030077424
 20
235.2441306168807
  0
VERTEX
  8
1
  6
CONTINUOUS
 62
     7
 10
-125.9694759638172
 20
235.2474736878428
  0
VERTEX
  8
1
  6
CONTINUOUS
 62
     7
 10
-125.9678242191864
 20
235.2508544928043
  0
VERTEX
  8
1
  6
CONTINUOUS
 62
     7
 10
-125.9662488669173
 20
235.2542715354679
  0
VERTEX
  8
1
  6
CONTINUOUS
 62
     7
 10
-125.9647505712272
 20
235.25772311956
  0
VERTEX
  8
1
  6
CONTINUOUS
 62
     7
 10
-125.9633297386842
 20
235.2612074286636
  0
VERTEX
  8
1
  6
CONTINUOUS
 62
     7
 10
-125.9619867723418
 20
235.2647226447223
  0
VERTEX
  8
1
  6
CONTINUOUS
 62
     7
 10
-125.9607220752532
 20
235.2682669496801
  0
VERTEX
  8
1
  6
CONTINUOUS
 62
     7
 10
-125.9595360504717
 20
235.2718385254806
  0
VERTEX
  8
1
  6
CONTINUOUS
 62
     7
 10
-125.958429101051
 20
235.2754355540679
  0
VERTEX
  8
1
  6
CONTINUOUS
 62
     7
 10
-125.9574016300441
 20
235.2790562173856
  0
VERTEX
  8
1
  6
CONTINUOUS
 62
     7
 10
-125.9564540405045
 20
235.2826986973775
  0
VERTEX
  8
1
  6
CONTINUOUS
 62
     7
 10
-125.9555867354855
 20
235.2863611759875
  0
VERTEX
  8
1
  6
CONTINUOUS
 62
     7
 10
-125.9548001180405
 20
235.2900418351593
  0
VERTEX
  8
1
  6
CONTINUOUS
 62
     7
 10
-125.9540945912229
 20
235.2937388568369
  0
VERTEX
  8
1
  6
CONTINUOUS
 62
     7
 10
-125.953470558086
 20
235.297450422964
  0
VERTEX
  8
1
  6
CONTINUOUS
 62
     7
 10
-125.9529284216831
 20
235.3011747154845
  0
VERTEX
  8
1
  6
CONTINUOUS
 62
     7
 10
-125.9524685850676
 20
235.304909916342
  0
VERTEX
  8
1
  6
CONTINUOUS
 62
     7
 10
-125.9520914512928
 20
235.3086542074804
  0
VERTEX
  8
1
  6
CONTINUOUS
 62
     7
 10
-125.9517974234122
 20
235.3124057708436
  0
VERTEX
  8
1
  6
CONTINUOUS
 62
     7
 10
-125.951586904479
 20
235.3161627883754
  0
VERTEX
  8
1
  6
CONTINUOUS
 62
     7
 10
-125.9514602975466
 20
235.3199234420196
  0
VERTEX
  8
1
  6
CONTINUOUS
 62
     7
 10
-125.9514180056684
 20
235.3236859137199
  0
SEQEND
  8
1
  6
CONTINUOUS
 62
     7
  0
LINE
  8
1
  6
CONTINUOUS
 62
     7
 10
-153.050652520092
 20
245.3236859137199
 11
-153.3940907443049
 21
245.3236859137199
  0
LINE
  8
1
  6
CONTINUOUS
 62
     7
 10
-153.3940907443049
 20
248.3236859137199
 11
-153.0506525200919
 21
248.3236859137199
  0
LINE
  8
1
  6
CONTINUOUS
 62
     7
 10
-126.6059092556951
 20
245.3236859137199
 11
-126.9493474799081
 21
245.3236859137199
  0
LINE
  8
1
  6
CONTINUOUS
 62
     7
 10
-126.949347479908
 20
248.3236859137199
 11
-126.6059092556951
 21
248.3236859137199
  0
LINE
  8
1
  6
CONTINUOUS
 62
     7
 10
-129.9247421218543
 20
245.3236859137199
 11
-126.949347479908
 21
245.3236859137199
  0
LINE
  8
1
  6
CONTINUOUS
 62
     7
 10
-129.9247421218543
 20
248.3236859137199
 11
-126.949347479908
 21
248.3236859137199
  0
LINE
  8
1
  6
CONTINUOUS
 62
     7
 10
-153.050652520092
 20
245.3236859137199
 11
-150.0752578781457
 21
245.3236859137199
  0
LINE
  8
1
  6
CONTINUOUS
 62
     7
 10
-153.050652520092
 20
248.3236859137199
 11
-150.0752578781457
 21
248.3236859137199
  0
LINE
  8
1
  6
CONTINUOUS
 62
     7
 10
-154.1720969913886
 20
245.3236859137199
 11
-153.3940907443049
 21
245.3236859137199
  0
LINE
  8
1
  6
CONTINUOUS
 62
     7
 10
-154.1720969913886
 20
248.3236859137199
 11
-153.3940907443049
 21
248.3236859137199
  0
LINE
  8
1
  6
CONTINUOUS
 62
     7
 10
-126.6059092556951
 20
245.3236859137199
 11
-125.8279030086115
 21
245.3236859137199
  0
LINE
  8
1
  6
CONTINUOUS
 62
     7
 10
-126.6059092556951
 20
248.3236859137199
 11
-125.8279030086115
 21
248.3236859137199
  0
POLYLINE
  8
1
  6
CONTINUOUS
 62
     7
 66
     1
  0
VERTEX
  8
1
  6
CONTINUOUS
 62
     7
 10
-126.8806174773691
 20
250.4379716280056
  0
VERTEX
  8
1
  6
CONTINUOUS
 62
     7
 10
-126.8807197447399
 20
250.4309043315025
  0
VERTEX
  8
1
  6
CONTINUOUS
 62
     7
 10
-126.8810255182157
 20
250.4238425519491
  0
VERTEX
  8
1
  6
CONTINUOUS
 62
     7
 10
-126.8815332548411
 20
250.4167918062956
  0
VERTEX
  8
1
  6
CONTINUOUS
 62
     7
 10
-126.8822414116608
 20
250.4097576114916
  0
VERTEX
  8
1
  6
CONTINUOUS
 62
     7
 10
-126.8831484457196
 20
250.4027454844873
  0
VERTEX
  8
1
  6
CONTINUOUS
 62
     7
 10
-126.8842528140621
 20
250.3957609422323
  0
VERTEX
  8
1
  6
CONTINUOUS
 62
     7
 10
-126.8855529737332
 20
250.3888095016765
  0
VERTEX
  8
1
  6
CONTINUOUS
 62
     7
 10
-126.8870473817774
 20
250.3818966797701
  0
VERTEX
  8
1
  6
CONTINUOUS
 62
     7
 10
-126.8887344952396
 20
250.3750279934625
  0
VERTEX
  8
1
  6
CONTINUOUS
 62
     7
 10
-126.8906127711645
 20
250.368208959704
  0
VERTEX
  8
1
  6
CONTINUOUS
 62
     7
 10
-126.8926806665967
 20
250.3614450954442
  0
VERTEX
  8
1
  6
CONTINUOUS
 62
     7
 10
-126.894936638581
 20
250.3547419176331
  0
VERTEX
  8
1
  6
CONTINUOUS
 62
     7
 10
-126.8973791441622
 20
250.3481049432206
  0
VERTEX
  8
1
  6
CONTINUOUS
 62
     7
 10
-126.9000066403848
 20
250.3415396891564
  0
VERTEX
  8
1
  6
CONTINUOUS
 62
     7
 10
-126.9028175842938
 20
250.3350516723907
  0
VERTEX
  8
1
  6
CONTINUOUS
 62
     7
 10
-126.9058104329337
 20
250.3286464098732
  0
VERTEX
  8
1
  6
CONTINUOUS
 62
     7
 10
-126.9089836433493
 20
250.3223294185537
  0
VERTEX
  8
1
  6
CONTINUOUS
 62
     7
 10
-126.9123356725853
 20
250.3161062153821
  0
VERTEX
  8
1
  6
CONTINUOUS
 62
     7
 10
-126.9158649776865
 20
250.3099823173085
  0
VERTEX
  8
1
  6
CONTINUOUS
 62
     7
 10
-126.9195698524693
 20
250.3039631422332
  0
VERTEX
  8
1
  6
CONTINUOUS
 62
     7
 10
-126.9234470113598
 20
250.2980531496592
  0
VERTEX
  8
1
  6
CONTINUOUS
 62
     7
 10
-126.9274922830085
 20
250.2922562615878
  0
VERTEX
  8
1
  6
CONTINUOUS
 62
     7
 10
-126.9317014862786
 20
250.2865763940808
  0
VERTEX
  8
1
  6
CONTINUOUS
 62
     7
 10
-126.9360704400332
 20
250.2810174632002
  0
VERTEX
  8
1
  6
CONTINUOUS
 62
     7
 10
-126.9405949631354
 20
250.2755833850082
  0
VERTEX
  8
1
  6
CONTINUOUS
 62
     7
 10
-126.9452708744485
 20
250.2702780755666
  0
VERTEX
  8
1
  6
CONTINUOUS
 62
     7
 10
-126.9500939928355
 20
250.2651054509374
  0
VERTEX
  8
1
  6
CONTINUOUS
 62
     7
 10
-126.9550601371597
 20
250.2600694271827
  0
VERTEX
  8
1
  6
CONTINUOUS
 62
     7
 10
-126.9601651262842
 20
250.2551739203646
  0
VERTEX
  8
1
  6
CONTINUOUS
 62
     7
 10
-126.965404779072
 20
250.2504228465449
  0
VERTEX
  8
1
  6
CONTINUOUS
 62
     7
 10
-126.9707749143865
 20
250.2458201217857
  0
VERTEX
  8
1
  6
CONTINUOUS
 62
     7
 10
-126.9762713510906
 20
250.241369662149
  0
VERTEX
  8
1
  6
CONTINUOUS
 62
     7
 10
-126.9818899080476
 20
250.2370753836968
  0
VERTEX
  8
1
  6
CONTINUOUS
 62
     7
 10
-126.9876264041206
 20
250.2329412024911
  0
VERTEX
  8
1
  6
CONTINUOUS
 62
     7
 10
-126.9934766581729
 20
250.2289710345939
  0
VERTEX
  8
1
  6
CONTINUOUS
 62
     7
 10
-126.9994364890674
 20
250.2251687960674
  0
VERTEX
  8
1
  6
CONTINUOUS
 62
     7
 10
-127.0055017156674
 20
250.2215384029732
  0
VERTEX
  8
1
  6
CONTINUOUS
 62
     7
 10
-127.0116681568361
 20
250.2180837713737
  0
VERTEX
  8
1
  6
CONTINUOUS
 62
     7
 10
-127.0384160785192
 20
250.2041231515451
  0
VERTEX
  8
1
  6
CONTINUOUS
 62
     7
 10
-127.0915386621357
 20
250.1764692848742
  0
VERTEX
  8
1
  6
CONTINUOUS
 62
     7
 10
-127.1446612457522
 20
250.1488154182032
  0
VERTEX
  8
1
  6
CONTINUOUS
 62
     7
 10
-127.1977838293687
 20
250.1211615515322
  0
VERTEX
  8
1
  6
CONTINUOUS
 62
     7
 10
-127.2509064129852
 20
250.0935076848613
  0
VERTEX
  8
1
  6
CONTINUOUS
 62
     7
 10
-127.3040289966018
 20
250.0658538181904
  0
VERTEX
  8
1
  6
CONTINUOUS
 62
     7
 10
-127.3571515802183
 20
250.0381999515194
  0
VERTEX
  8
1
  6
CONTINUOUS
 62
     7
 10
-127.4102741638348
 20
250.0105460848485
  0
VERTEX
  8
1
  6
CONTINUOUS
 62
     7
 10
-127.4633967474513
 20
249.9828922181776
  0
VERTEX
  8
1
  6
CONTINUOUS
 62
     7
 10
-127.5165193310679
 20
249.9552383515066
  0
VERTEX
  8
1
  6
CONTINUOUS
 62
     7
 10
-127.5696419146844
 20
249.9275844848356
  0
VERTEX
  8
1
  6
CONTINUOUS
 62
     7
 10
-127.6227644983009
 20
249.8999306181647
  0
VERTEX
  8
1
  6
CONTINUOUS
 62
     7
 10
-127.6758870819174
 20
249.8722767514938
  0
VERTEX
  8
1
  6
CONTINUOUS
 62
     7
 10
-127.7290096655339
 20
249.8446228848228
  0
VERTEX
  8
1
  6
CONTINUOUS
 62
     7
 10
-127.7821322491505
 20
249.8169690181519
  0
VERTEX
  8
1
  6
CONTINUOUS
 62
     7
 10
-127.835254832767
 20
249.7893151514809
  0
VERTEX
  8
1
  6
CONTINUOUS
 62
     7
 10
-127.8883774163835
 20
249.7616612848101
  0
VERTEX
  8
1
  6
CONTINUOUS
 62
     7
 10
-127.9415
 20
249.7340074181391
  0
SEQEND
  8
1
  6
CONTINUOUS
 62
     7
  0
POLYLINE
  8
1
  6
CONTINUOUS
 62
     7
 66
     1
  0
VERTEX
  8
1
  6
CONTINUOUS
 62
     7
 10
-126.8806174773691
 20
261.3236859137199
  0
VERTEX
  8
1
  6
CONTINUOUS
 62
     7
 10
-126.8807197447399
 20
261.3307532102231
  0
VERTEX
  8
1
  6
CONTINUOUS
 62
     7
 10
-126.8810255182157
 20
261.3378149897763
  0
VERTEX
  8
1
  6
CONTINUOUS
 62
     7
 10
-126.8815332548411
 20
261.3448657354299
  0
VERTEX
  8
1
  6
CONTINUOUS
 62
     7
 10
-126.8822414116608
 20
261.3518999302338
  0
VERTEX
  8
1
  6
CONTINUOUS
 62
     7
 10
-126.8831484457196
 20
261.3589120572382
  0
VERTEX
  8
1
  6
CONTINUOUS
 62
     7
 10
-126.8842528140621
 20
261.3658965994932
  0
VERTEX
  8
1
  6
CONTINUOUS
 62
     7
 10
-126.8855529737332
 20
261.3728480400489
  0
VERTEX
  8
1
  6
CONTINUOUS
 62
     7
 10
-126.8870473817774
 20
261.3797608619554
  0
VERTEX
  8
1
  6
CONTINUOUS
 62
     7
 10
-126.8887344952396
 20
261.3866295482629
  0
VERTEX
  8
1
  6
CONTINUOUS
 62
     7
 10
-126.8906127711645
 20
261.3934485820216
  0
VERTEX
  8
1
  6
CONTINUOUS
 62
     7
 10
-126.8926806665967
 20
261.4002124462813
  0
VERTEX
  8
1
  6
CONTINUOUS
 62
     7
 10
-126.894936638581
 20
261.4069156240924
  0
VERTEX
  8
1
  6
CONTINUOUS
 62
     7
 10
-126.8973791441622
 20
261.4135525985049
  0
VERTEX
  8
1
  6
CONTINUOUS
 62
     7
 10
-126.9000066403849
 20
261.420117852569
  0
VERTEX
  8
1
  6
CONTINUOUS
 62
     7
 10
-126.9028175842938
 20
261.4266058693348
  0
VERTEX
  8
1
  6
CONTINUOUS
 62
     7
 10
-126.9058104329337
 20
261.4330111318524
  0
VERTEX
  8
1
  6
CONTINUOUS
 62
     7
 10
-126.9089836433493
 20
261.4393281231719
  0
VERTEX
  8
1
  6
CONTINUOUS
 62
     7
 10
-126.9123356725853
 20
261.4455513263433
  0
VERTEX
  8
1
  6
CONTINUOUS
 62
     7
 10
-126.9158649776865
 20
261.451675224417
  0
VERTEX
  8
1
  6
CONTINUOUS
 62
     7
 10
-126.9195698524693
 20
261.4576943994923
  0
VERTEX
  8
1
  6
CONTINUOUS
 62
     7
 10
-126.9234470113598
 20
261.4636043920663
  0
VERTEX
  8
1
  6
CONTINUOUS
 62
     7
 10
-126.9274922830085
 20
261.4694012801377
  0
VERTEX
  8
1
  6
CONTINUOUS
 62
     7
 10
-126.9317014862786
 20
261.4750811476447
  0
VERTEX
  8
1
  6
CONTINUOUS
 62
     7
 10
-126.9360704400332
 20
261.4806400785253
  0
VERTEX
  8
1
  6
CONTINUOUS
 62
     7
 10
-126.9405949631354
 20
261.4860741567173
  0
VERTEX
  8
1
  6
CONTINUOUS
 62
     7
 10
-126.9452708744485
 20
261.491379466159
  0
VERTEX
  8
1
  6
CONTINUOUS
 62
     7
 10
-126.9500939928355
 20
261.4965520907881
  0
VERTEX
  8
1
  6
CONTINUOUS
 62
     7
 10
-126.9550601371597
 20
261.5015881145428
  0
VERTEX
  8
1
  6
CONTINUOUS
 62
     7
 10
-126.9601651262842
 20
261.506483621361
  0
VERTEX
  8
1
  6
CONTINUOUS
 62
     7
 10
-126.965404779072
 20
261.5112346951807
  0
VERTEX
  8
1
  6
CONTINUOUS
 62
     7
 10
-126.9707749143864
 20
261.5158374199398
  0
VERTEX
  8
1
  6
CONTINUOUS
 62
     7
 10
-126.9762713510906
 20
261.5202878795766
  0
VERTEX
  8
1
  6
CONTINUOUS
 62
     7
 10
-126.9818899080476
 20
261.5245821580287
  0
VERTEX
  8
1
  6
CONTINUOUS
 62
     7
 10
-126.9876264041206
 20
261.5287163392344
  0
VERTEX
  8
1
  6
CONTINUOUS
 62
     7
 10
-126.9934766581729
 20
261.5326865071316
  0
VERTEX
  8
1
  6
CONTINUOUS
 62
     7
 10
-126.9994364890674
 20
261.5364887456582
  0
VERTEX
  8
1
  6
CONTINUOUS
 62
     7
 10
-127.0055017156675
 20
261.5401191387523
  0
VERTEX
  8
1
  6
CONTINUOUS
 62
     7
 10
-127.0116681568361
 20
261.5435737703518
  0
VERTEX
  8
1
  6
CONTINUOUS
 62
     7
 10
-127.0384160785192
 20
261.5575343901804
  0
VERTEX
  8
1
  6
CONTINUOUS
 62
     7
 10
-127.0915386621357
 20
261.5851882568514
  0
VERTEX
  8
1
  6
CONTINUOUS
 62
     7
 10
-127.1446612457522
 20
261.6128421235223
  0
VERTEX
  8
1
  6
CONTINUOUS
 62
     7
 10
-127.1977838293687
 20
261.6404959901932
  0
VERTEX
  8
1
  6
CONTINUOUS
 62
     7
 10
-127.2509064129853
 20
261.6681498568643
  0
VERTEX
  8
1
  6
CONTINUOUS
 62
     7
 10
-127.3040289966018
 20
261.6958037235352
  0
VERTEX
  8
1
  6
CONTINUOUS
 62
     7
 10
-127.3571515802183
 20
261.7234575902061
  0
VERTEX
  8
1
  6
CONTINUOUS
 62
     7
 10
-127.4102741638348
 20
261.7511114568771
  0
VERTEX
  8
1
  6
CONTINUOUS
 62
     7
 10
-127.4633967474513
 20
261.778765323548
  0
VERTEX
  8
1
  6
CONTINUOUS
 62
     7
 10
-127.5165193310679
 20
261.8064191902189
  0
VERTEX
  8
1
  6
CONTINUOUS
 62
     7
 10
-127.5696419146844
 20
261.8340730568898
  0
VERTEX
  8
1
  6
CONTINUOUS
 62
     7
 10
-127.6227644983009
 20
261.8617269235609
  0
VERTEX
  8
1
  6
CONTINUOUS
 62
     7
 10
-127.6758870819174
 20
261.8893807902318
  0
VERTEX
  8
1
  6
CONTINUOUS
 62
     7
 10
-127.729009665534
 20
261.9170346569027
  0
VERTEX
  8
1
  6
CONTINUOUS
 62
     7
 10
-127.7821322491505
 20
261.9446885235737
  0
VERTEX
  8
1
  6
CONTINUOUS
 62
     7
 10
-127.835254832767
 20
261.9723423902445
  0
VERTEX
  8
1
  6
CONTINUOUS
 62
     7
 10
-127.8883774163835
 20
261.9999962569155
  0
VERTEX
  8
1
  6
CONTINUOUS
 62
     7
 10
-127.9415
 20
262.0276501235864
  0
SEQEND
  8
1
  6
CONTINUOUS
 62
     7
  0
POLYLINE
  8
1
  6
CONTINUOUS
 62
     7
 66
     1
  0
VERTEX
  8
1
  6
CONTINUOUS
 62
     7
 10
-127.9415
 20
251.1419358378721
  0
VERTEX
  8
1
  6
CONTINUOUS
 62
     7
 10
-127.8883774163835
 20
251.1142819712012
  0
VERTEX
  8
1
  6
CONTINUOUS
 62
     7
 10
-127.835254832767
 20
251.0866281045303
  0
VERTEX
  8
1
  6
CONTINUOUS
 62
     7
 10
-127.7821322491505
 20
251.0589742378593
  0
VERTEX
  8
1
  6
CONTINUOUS
 62
     7
 10
-127.7290096655339
 20
251.0313203711884
  0
VERTEX
  8
1
  6
CONTINUOUS
 62
     7
 10
-127.6758870819174
 20
251.0036665045174
  0
VERTEX
  8
1
  6
CONTINUOUS
 62
     7
 10
-127.6227644983009
 20
250.9760126378465
  0
VERTEX
  8
1
  6
CONTINUOUS
 62
     7
 10
-127.5696419146844
 20
250.9483587711756
  0
VERTEX
  8
1
  6
CONTINUOUS
 62
     7
 10
-127.5165193310678
 20
250.9207049045046
  0
VERTEX
  8
1
  6
CONTINUOUS
 62
     7
 10
-127.4633967474513
 20
250.8930510378337
  0
VERTEX
  8
1
  6
CONTINUOUS
 62
     7
 10
-127.4102741638348
 20
250.8653971711627
  0
VERTEX
  8
1
  6
CONTINUOUS
 62
     7
 10
-127.3571515802183
 20
250.8377433044918
  0
VERTEX
  8
1
  6
CONTINUOUS
 62
     7
 10
-127.3040289966018
 20
250.8100894378209
  0
VERTEX
  8
1
  6
CONTINUOUS
 62
     7
 10
-127.2509064129852
 20
250.7824355711499
  0
VERTEX
  8
1
  6
CONTINUOUS
 62
     7
 10
-127.1977838293687
 20
250.754781704479
  0
VERTEX
  8
1
  6
CONTINUOUS
 62
     7
 10
-127.1446612457522
 20
250.7271278378081
  0
VERTEX
  8
1
  6
CONTINUOUS
 62
     7
 10
-127.0915386621357
 20
250.6994739711371
  0
VERTEX
  8
1
  6
CONTINUOUS
 62
     7
 10
-127.0384160785192
 20
250.6718201044662
  0
VERTEX
  8
1
  6
CONTINUOUS
 62
     7
 10
-127.0116681568361
 20
250.6578594846376
  0
VERTEX
  8
1
  6
CONTINUOUS
 62
     7
 10
-127.0055017156675
 20
250.654404853038
  0
VERTEX
  8
1
  6
CONTINUOUS
 62
     7
 10
-126.9994364890674
 20
250.6507744599439
  0
VERTEX
  8
1
  6
CONTINUOUS
 62
     7
 10
-126.9934766581729
 20
250.6469722214173
  0
VERTEX
  8
1
  6
CONTINUOUS
 62
     7
 10
-126.9876264041206
 20
250.6430020535201
  0
VERTEX
  8
1
  6
CONTINUOUS
 62
     7
 10
-126.9818899080476
 20
250.6388678723144
  0
VERTEX
  8
1
  6
CONTINUOUS
 62
     7
 10
-126.9762713510906
 20
250.6345735938623
  0
VERTEX
  8
1
  6
CONTINUOUS
 62
     7
 10
-126.9707749143864
 20
250.6301231342256
  0
VERTEX
  8
1
  6
CONTINUOUS
 62
     7
 10
-126.965404779072
 20
250.6255204094664
  0
VERTEX
  8
1
  6
CONTINUOUS
 62
     7
 10
-126.9601651262841
 20
250.6207693356467
  0
VERTEX
  8
1
  6
CONTINUOUS
 62
     7
 10
-126.9550601371597
 20
250.6158738288285
  0
VERTEX
  8
1
  6
CONTINUOUS
 62
     7
 10
-126.9500939928355
 20
250.6108378050739
  0
VERTEX
  8
1
  6
CONTINUOUS
 62
     7
 10
-126.9452708744485
 20
250.6056651804447
  0
VERTEX
  8
1
  6
CONTINUOUS
 62
     7
 10
-126.9405949631354
 20
250.6003598710031
  0
VERTEX
  8
1
  6
CONTINUOUS
 62
     7
 10
-126.9360704400332
 20
250.594925792811
  0
VERTEX
  8
1
  6
CONTINUOUS
 62
     7
 10
-126.9317014862786
 20
250.5893668619304
  0
VERTEX
  8
1
  6
CONTINUOUS
 62
     7
 10
-126.9274922830085
 20
250.5836869944234
  0
VERTEX
  8
1
  6
CONTINUOUS
 62
     7
 10
-126.9234470113598
 20
250.577890106352
  0
VERTEX
  8
1
  6
CONTINUOUS
 62
     7
 10
-126.9195698524693
 20
250.571980113778
  0
VERTEX
  8
1
  6
CONTINUOUS
 62
     7
 10
-126.9158649776865
 20
250.5659609387027
  0
VERTEX
  8
1
  6
CONTINUOUS
 62
     7
 10
-126.9123356725853
 20
250.5598370406291
  0
VERTEX
  8
1
  6
CONTINUOUS
 62
     7
 10
-126.9089836433493
 20
250.5536138374576
  0
VERTEX
  8
1
  6
CONTINUOUS
 62
     7
 10
-126.9058104329337
 20
250.5472968461381
  0
VERTEX
  8
1
  6
CONTINUOUS
 62
     7
 10
-126.9028175842938
 20
250.5408915836205
  0
VERTEX
  8
1
  6
CONTINUOUS
 62
     7
 10
-126.9000066403848
 20
250.5344035668548
  0
VERTEX
  8
1
  6
CONTINUOUS
 62
     7
 10
-126.8973791441622
 20
250.5278383127906
  0
VERTEX
  8
1
  6
CONTINUOUS
 62
     7
 10
-126.894936638581
 20
250.5212013383781
  0
VERTEX
  8
1
  6
CONTINUOUS
 62
     7
 10
-126.8926806665967
 20
250.514498160567
  0
VERTEX
  8
1
  6
CONTINUOUS
 62
     7
 10
-126.8906127711645
 20
250.5077342963073
  0
VERTEX
  8
1
  6
CONTINUOUS
 62
     7
 10
-126.8887344952396
 20
250.5009152625487
  0
VERTEX
  8
1
  6
CONTINUOUS
 62
     7
 10
-126.8870473817774
 20
250.4940465762412
  0
VERTEX
  8
1
  6
CONTINUOUS
 62
     7
 10
-126.8855529737332
 20
250.4871337543347
  0
VERTEX
  8
1
  6
CONTINUOUS
 62
     7
 10
-126.8842528140621
 20
250.480182313779
  0
VERTEX
  8
1
  6
CONTINUOUS
 62
     7
 10
-126.8831484457196
 20
250.4731977715239
  0
VERTEX
  8
1
  6
CONTINUOUS
 62
     7
 10
-126.8822414116608
 20
250.4661856445196
  0
VERTEX
  8
1
  6
CONTINUOUS
 62
     7
 10
-126.8815332548411
 20
250.4591514497157
  0
VERTEX
  8
1
  6
CONTINUOUS
 62
     7
 10
-126.8810255182157
 20
250.4521007040621
  0
VERTEX
  8
1
  6
CONTINUOUS
 62
     7
 10
-126.8807197447399
 20
250.4450389245088
  0
VERTEX
  8
1
  6
CONTINUOUS
 62
     7
 10
-126.8806174773691
 20
250.4379716280056
  0
SEQEND
  8
1
  6
CONTINUOUS
 62
     7
  0
LINE
  8
1
  6
CONTINUOUS
 62
     7
 10
-127.9415
 20
262.0276501235864
 11
-128.0722528808211
 21
261.9848332968012
  0
ARC
  8
1
  6
CONTINUOUS
 62
     7
 10
37.01544145753743
 20
-4718.614831299499
 40
4983.334924104412
 50
91.8984393484796
 51
92.1742766317286
  0
LINE
  8
1
  6
CONTINUOUS
 62
     7
 10
-154.3087098890453
 20
245.3236859137199
 11
-154.3087098890453
 21
248.3236859137199
  0
LINE
  8
1
  6
CONTINUOUS
 62
     7
 10
-154.1720969913886
 20
245.3236859137199
 11
-154.3087098890453
 21
245.3236859137199
  0
LINE
  8
1
  6
CONTINUOUS
 62
     7
 10
-154.3087098890453
 20
248.3236859137199
 11
-154.1720969913886
 21
248.3236859137199
  0
LINE
  8
1
  6
CONTINUOUS
 62
     7
 10
-125.6912901109547
 20
248.3236859137199
 11
-125.6912901109547
 21
245.3236859137199
  0
LINE
  8
1
  6
CONTINUOUS
 62
     7
 10
-125.6912901109547
 20
245.3236859137199
 11
-125.8279030086114
 21
245.3236859137199
  0
LINE
  8
1
  6
CONTINUOUS
 62
     7
 10
-125.8279030086114
 20
248.3236859137199
 11
-125.6912901109547
 21
248.3236859137199
  0
LINE
  8
1
  6
CONTINUOUS
 62
     7
 10
-126.61
 20
235.9555100068469
 11
-126.6982386356013
 21
235.8651245492095
  0
ARC
  8
1
  6
CONTINUOUS
 62
     7
 10
-134.96683403674
 20
278.2037213286235
 40
43.13845670811072
 50
272.53467652888
 51
281.0505943584808
  0
POLYLINE
  8
1
  6
CONTINUOUS
 62
     7
 66
     1
  0
VERTEX
  8
1
  6
CONTINUOUS
 62
     7
 10
-133.0590779391123
 20
235.1074695910361
  0
VERTEX
  8
1
  6
CONTINUOUS
 62
     7
 10
-133.1539249520069
 20
235.0720417501695
  0
VERTEX
  8
1
  6
CONTINUOUS
 62
     7
 10
-132.9934721667017
 20
235.0107954572756
  0
SEQEND
  8
1
  6
CONTINUOUS
 62
     7
  0
ARC
  8
1
  6
CONTINUOUS
 62
     7
 10
-136.1128813694015
 20
96.96102680089452
 40
138.0850076577983
 50
86.09244040071007
 51
88.70554964492158
  0
LINE
  8
1
  6
CONTINUOUS
 62
     7
 10
-126.7028127869965
 20
234.7250277195985
 11
-126.61
 21
234.6918618205929
  0
LINE
  8
1
  6
CONTINUOUS
 62
     7
 10
-126.61
 20
233.8236859137199
 11
-153.39
 21
233.8236859137199
  0
LINE
  8
1
  6
CONTINUOUS
 62
     7
 10
-152.0584999999995
 20
259.7126036748372
 11
-151.9276633178229
 21
259.7553995375214
  0
ARC
  8
1
  6
CONTINUOUS
 62
     7
 10
3613.425467006771
 20
-109165.3850075059
 40
109489.9047277748
 50
91.95831357934873
 51
91.97078799676024
  0
LINE
  8
1
  6
CONTINUOUS
 62
     7
 10
-152.058499999999
 20
257.8984402917855
 11
-151.9345464167445
 21
257.9399405363711
  0
ARC
  8
1
  6
CONTINUOUS
 62
     7
 10
-322.8691713090369
 20
5395.958825617772
 40
5140.861475418317
 50
271.9054468128766
 51
272.1729152162096
  0
LINE
  8
1
  6
CONTINUOUS
 62
     7
 10
-152.0584999999915
 20
256.0842538552646
 11
-151.9349969021096
 21
256.1254407290451
  0
ARC
  8
1
  6
CONTINUOUS
 62
     7
 10
-342.5152893367156
 20
5960.080502169983
 40
5707.138003483195
 50
271.9136521373154
 51
272.1545369346307
  0
LINE
  8
1
  6
CONTINUOUS
 62
     7
 10
-152.0584999999878
 20
254.2699669675154
 11
-151.9396599897685
 21
254.3103237795935
  0
ARC
  8
1
  6
CONTINUOUS
 62
     7
 10
-281.7640443088458
 20
4241.578201403941
 40
3989.3808415215
 50
271.8648765594401
 51
272.2095662909497
  0
LINE
  8
1
  6
CONTINUOUS
 62
     7
 10
-152.0584999999847
 20
252.4555808953156
 11
-151.9442860260623
 21
252.4952555543285
  0
ARC
  8
1
  6
CONTINUOUS
 62
     7
 10
-278.4652083613352
 20
4135.765238367155
 40
3885.330526892621
 50
271.8660951980419
 51
272.2201379609309
  0
LINE
  8
1
  6
CONTINUOUS
 62
     7
 10
-152.0584999999998
 20
250.6411736859062
 11
-151.9286668039315
 21
250.6837426209042
  0
ARC
  8
1
  6
CONTINUOUS
 62
     7
 10
-332.1335077727715
 20
5667.89618377466
 40
5420.208890559445
 50
271.9052549660049
 51
272.1588239660969
  0
LINE
  8
1
  6
CONTINUOUS
 62
     7
 10
-127.9415000000137
 20
252.9561401557606
 11
-128.0490769522128
 21
252.9173838690946
  0
ARC
  8
1
  6
CONTINUOUS
 62
     7
 10
20.22311685223821
 20
-4249.615724010331
 40
4504.973810246397
 50
91.88611650599442
 51
92.19148675788243
  0
LINE
  8
1
  6
CONTINUOUS
 62
     7
 10
-127.9415000000154
 20
254.7703006893384
 11
-128.0447304346411
 21
254.7325445227794
  0
ARC
  8
1
  6
CONTINUOUS
 62
     7
 10
24.02222776114796
 20
-4347.330938198892
 40
4604.575187655778
 50
91.89254798061909
 51
92.19138279531037
  0
LINE
  8
1
  6
CONTINUOUS
 62
     7
 10
-127.9415000000048
 20
256.5845329484076
 11
-128.0404287485525
 21
256.5477121921187
  0
ARC
  8
1
  6
CONTINUOUS
 62
     7
 10
17.72776990009456
 20
-4154.878513025705
 40
4413.833901301321
 50
91.89255456774093
 51
92.20440732958879
  0
LINE
  8
1
  6
CONTINUOUS
 62
     7
 10
-127.9415000000006
 20
258.3988748598431
 11
-128.0399421553339
 21
258.3621534645405
  0
ARC
  8
1
  6
CONTINUOUS
 62
     7
 10
39.39455210965411
 20
-4772.480290800262
 40
5033.627917207034
 50
91.90619171127152
 51
92.17959241363118
  0
LINE
  8
1
  6
CONTINUOUS
 62
     7
 10
-127.9415000000007
 20
260.2132858655052
 11
-128.106277723935
 21
260.1653878239984
  0
ARC
  8
1
  6
CONTINUOUS
 62
     7
 10
-4.515563500941677
 20
-3575.834318016322
 40
3837.990152130302
 50
91.84535406110206
 51
92.2029595266975
  0
LINE
  8
1
  6
CONTINUOUS
 62
     7
 10
-127.9415
 20
262.8236859137199
 11
-152.0585
 21
262.8236859137199
  0
LINE
  8
1
  6
CONTINUOUS
 62
     7
 10
-127.9415
 20
251.1419358378721
 11
-128.0352419266803
 21
251.0542082601309
  0
ARC
  8
1
  6
CONTINUOUS
 62
     7
 10
-142.0734171470709
 20
342.3427538227622
 40
92.36162035423044
 50
273.1186586292379
 51
278.7423508087079
  0
POLYLINE
  8
1
  6
CONTINUOUS
 62
     7
 66
     1
  0
VERTEX
  8
1
  6
CONTINUOUS
 62
     7
 10
-137.0485766537461
 20
250.1179204400142
  0
VERTEX
  8
1
  6
CONTINUOUS
 62
     7
 10
-137.1444821524627
 20
250.0792833850205
  0
VERTEX
  8
1
  6
CONTINUOUS
 62
     7
 10
-137.0662601429783
 20
249.9983980795168
  0
SEQEND
  8
1
  6
CONTINUOUS
 62
     7
  0
ARC
  8
1
  6
CONTINUOUS
 62
     7
 10
-47.13615287761522
 20
3196.112603950176
 40
2947.486444112282
 50
268.2515897985904
 51
268.4290392567056
  0
LINE
  8
1
  6
CONTINUOUS
 62
     7
 10
-122.757931039585
 20
245.3236859137199
 11
-122.757931039585
 21
245.6522516702672
  0
LINE
  8
1
  6
CONTINUOUS
 62
     7
 10
-122.7579310395851
 20
245.3236859137199
 11
-125.6912901109548
 21
245.3236859137199
  0
LINE
  8
1
  6
CONTINUOUS
 62
     7
 10
-122.7579310395851
 20
248.3236859137199
 11
-125.6912901109547
 21
248.3236859137199
  0
LINE
  8
1
  6
CONTINUOUS
 62
     7
 10
-157.242068960415
 20
245.3236859137199
 11
-157.242068960415
 21
248.3236859137199
  0
LINE
  8
1
  6
CONTINUOUS
 62
     7
 10
-154.3087098890453
 20
245.3236859137199
 11
-157.242068960415
 21
245.3236859137199
  0
LINE
  8
1
  6
CONTINUOUS
 62
     7
 10
-154.3087098890453
 20
248.3236859137199
 11
-157.242068960415
 21
248.3236859137199
  0
LINE
  8
1
  6
CONTINUOUS
 62
     7
 10
-122.757931039585
 20
245.3236859137199
 11
-120.6540093115587
 21
245.3236859137199
  0
LINE
  8
1
  6
CONTINUOUS
 62
     7
 10
-122.757931039585
 20
248.3236859137199
 11
-120.6540093115587
 21
248.3236859137199
  0
LINE
  8
1
  6
CONTINUOUS
 62
     7
 10
-159.3459906884413
 20
245.3236859137199
 11
-157.242068960415
 21
245.3236859137199
  0
LINE
  8
1
  6
CONTINUOUS
 62
     7
 10
-159.3459906884413
 20
248.3236859137199
 11
-157.242068960415
 21
248.3236859137199
  0
LINE
  8
1
  6
CONTINUOUS
 62
     7
 10
-159.3459906884413
 20
245.3236859137199
 11
-159.4922382793703
 21
245.3236859137199
  0
LINE
  8
1
  6
CONTINUOUS
 62
     7
 10
-159.4922382793703
 20
248.3236859137199
 11
-159.3459906884413
 21
248.3236859137199
  0
LINE
  8
1
  6
CONTINUOUS
 62
     7
 10
-120.5077617206297
 20
245.3236859137199
 11
-120.6540093115587
 21
245.3236859137199
  0
LINE
  8
1
  6
CONTINUOUS
 62
     7
 10
-120.6540093115587
 20
248.3236859137199
 11
-120.5077617206297
 21
248.3236859137199
  0
LINE
  8
1
  6
CONTINUOUS
 62
     7
 10
-159.5
 20
245.3236859137199
 11
-159.4922382793703
 21
245.3236859137199
  0
LINE
  8
1
  6
CONTINUOUS
 62
     7
 10
-159.5
 20
248.3236859137199
 11
-159.4922382793703
 21
248.3236859137199
  0
LINE
  8
1
  6
CONTINUOUS
 62
     7
 10
-120.5077617206297
 20
245.3236859137199
 11
-120.5
 21
245.3236859137199
  0
LINE
  8
1
  6
CONTINUOUS
 62
     7
 10
-120.5077617206297
 20
248.3236859137199
 11
-120.5
 21
248.3236859137199
  0
LINE
  8
1
  6
CONTINUOUS
 62
     7
 10
-126.750724728071
 20
242.5757416537206
 11
-125.9514180056684
 21
243.2611859134413
  0
LINE
  8
1
  6
CONTINUOUS
 62
     7
 10
-126.6371087444418
 20
241.0164057164004
 11
-126.0018951977832
 21
241.5510349553567
  0
POLYLINE
  8
1
  6
CONTINUOUS
 62
     7
 66
     1
  0
VERTEX
  8
1
  6
CONTINUOUS
 62
     7
 10
-126.0018951977832
 20
241.5510349553567
  0
VERTEX
  8
1
  6
CONTINUOUS
 62
     7
 10
-125.9543986420451
 20
241.6431688799087
  0
VERTEX
  8
1
  6
CONTINUOUS
 62
     7
 10
-125.9692880440236
 20
241.7500002829272
  0
VERTEX
  8
1
  6
CONTINUOUS
 62
     7
 10
-126.0155501464721
 20
241.8090887091098
  0
SEQEND
  8
1
  6
CONTINUOUS
 62
     7
  0
LINE
  8
1
  6
CONTINUOUS
 62
     7
 10
-126.0155501464721
 20
241.8090887091098
 11
-126.6099919597054
 21
242.3080201565187
  0
LINE
  8
1
  6
CONTINUOUS
 62
     7
 10
-126.6373225296036
 20
239.4290058058379
 11
-126.0022072997075
 21
239.9635512174376
  0
POLYLINE
  8
1
  6
CONTINUOUS
 62
     7
 66
     1
  0
VERTEX
  8
1
  6
CONTINUOUS
 62
     7
 10
-126.0022072997075
 20
239.9635512174376
  0
VERTEX
  8
1
  6
CONTINUOUS
 62
     7
 10
-125.954706073913
 20
240.0555693175159
  0
VERTEX
  8
1
  6
CONTINUOUS
 62
     7
 10
-125.9694349609664
 20
240.1622842569668
  0
VERTEX
  8
1
  6
CONTINUOUS
 62
     7
 10
-126.015515899272
 20
240.2213049420627
  0
SEQEND
  8
1
  6
CONTINUOUS
 62
     7
  0
LINE
  8
1
  6
CONTINUOUS
 62
     7
 10
-126.015515899272
 20
240.2213049420627
 11
-126.6099925943449
 21
240.720374220451
  0
LINE
  8
1
  6
CONTINUOUS
 62
     7
 10
-126.6385242697724
 20
237.8405530908559
 11
-126.0030162577472
 21
238.375073516291
  0
POLYLINE
  8
1
  6
CONTINUOUS
 62
     7
 66
     1
  0
VERTEX
  8
1
  6
CONTINUOUS
 62
     7
 10
-126.0030162577473
 20
238.375073516291
  0
VERTEX
  8
1
  6
CONTINUOUS
 62
     7
 10
-125.9548867300839
 20
238.4671166025347
  0
VERTEX
  8
1
  6
CONTINUOUS
 62
     7
 10
-125.9689838390556
 20
238.573831541986
  0
VERTEX
  8
1
  6
CONTINUOUS
 62
     7
 10
-126.0146646718039
 20
238.6328723178552
  0
SEQEND
  8
1
  6
CONTINUOUS
 62
     7
  0
LINE
  8
1
  6
CONTINUOUS
 62
     7
 10
-126.0146646718039
 20
238.6328723178552
 11
-126.6099922927758
 21
239.1329183841005
  0
LINE
  8
1
  6
CONTINUOUS
 62
     7
 10
-126.6387925874245
 20
236.2526873260262
 11
-126.0030300747275
 21
236.7872816235642
  0
POLYLINE
  8
1
  6
CONTINUOUS
 62
     7
 66
     1
  0
VERTEX
  8
1
  6
CONTINUOUS
 62
     7
 10
-126.0030300747275
 20
236.7872816235642
  0
VERTEX
  8
1
  6
CONTINUOUS
 62
     7
 10
-125.9546522570445
 20
236.8794504895349
  0
VERTEX
  8
1
  6
CONTINUOUS
 62
     7
 10
-125.9686548667364
 20
236.9862818925537
  0
VERTEX
  8
1
  6
CONTINUOUS
 62
     7
 10
-126.0143561910253
 20
237.0453984603333
  0
SEQEND
  8
1
  6
CONTINUOUS
 62
     7
  0
LINE
  8
1
  6
CONTINUOUS
 62
     7
 10
-126.0143561910253
 20
237.0453984603333
 11
-126.609991548266
 21
237.5456984337114
  0
LINE
  8
1
  6
CONTINUOUS
 62
     7
 10
-125.9514180056684
 20
235.3236859134413
 11
-126.7507249023486
 21
236.0091303210889
  0
LINE
  8
1
  6
CONTINUOUS
 62
     7
 10
-153.3620402487822
 20
236.7755515835142
 11
-153.9975494305688
 21
236.2410212196667
  0
POLYLINE
  8
1
  6
CONTINUOUS
 62
     7
 66
     1
  0
VERTEX
  8
1
  6
CONTINUOUS
 62
     7
 10
-153.9975494305688
 20
236.2410212196667
  0
VERTEX
  8
1
  6
CONTINUOUS
 62
     7
 10
-154.0456165275212
 20
236.1489698145539
  0
VERTEX
  8
1
  6
CONTINUOUS
 62
     7
 10
-154.031424221019
 20
236.0422442989035
  0
VERTEX
  8
1
  6
CONTINUOUS
 62
     7
 10
-153.9856675017444
 20
235.9832003406797
  0
SEQEND
  8
1
  6
CONTINUOUS
 62
     7
  0
LINE
  8
1
  6
CONTINUOUS
 62
     7
 10
-153.9856675017444
 20
235.9832003406797
 11
-153.3900076600385
 21
235.4829430885241
  0
LINE
  8
1
  6
CONTINUOUS
 62
     7
 10
-153.361340557428
 20
238.3633852854902
 11
-153.9970105863122
 21
237.8287815971964
  0
POLYLINE
  8
1
  6
CONTINUOUS
 62
     7
 66
     1
  0
VERTEX
  8
1
  6
CONTINUOUS
 62
     7
 10
-153.9970105863122
 20
237.8287815971964
  0
VERTEX
  8
1
  6
CONTINUOUS
 62
     7
 10
-154.0452452558298
 20
237.7366131863678
  0
VERTEX
  8
1
  6
CONTINUOUS
 62
     7
 10
-154.0310967363915
 20
237.6297766447896
  0
VERTEX
  8
1
  6
CONTINUOUS
 62
     7
 10
-153.9853038071459
 20
237.5706613388493
  0
SEQEND
  8
1
  6
CONTINUOUS
 62
     7
  0
LINE
  8
1
  6
CONTINUOUS
 62
     7
 10
-153.9853038071459
 20
237.5706613388493
 11
-153.3900084085545
 21
237.0706982973052
  0
LINE
  8
1
  6
CONTINUOUS
 62
     7
 10
-153.3617978854196
 20
239.9503176406753
 11
-153.9972566363207
 21
239.4157082044206
  0
POLYLINE
  8
1
  6
CONTINUOUS
 62
     7
 66
     1
  0
VERTEX
  8
1
  6
CONTINUOUS
 62
     7
 10
-153.9972566363207
 20
239.4157082044206
  0
VERTEX
  8
1
  6
CONTINUOUS
 62
     7
 10
-154.0451814222677
 20
239.3235610447236
  0
VERTEX
  8
1
  6
CONTINUOUS
 62
     7
 10
-154.0307388971123
 20
239.2167335466617
  0
VERTEX
  8
1
  6
CONTINUOUS
 62
     7
 10
-153.9847681567599
 20
239.157633293753
  0
SEQEND
  8
1
  6
CONTINUOUS
 62
     7
  0
LINE
  8
1
  6
CONTINUOUS
 62
     7
 10
-153.9847681567599
 20
239.157633293753
 11
-153.3900082615994
 21
238.6582324873341
  0
LINE
  8
1
  6
CONTINUOUS
 62
     7
 10
-153.3624777304466
 20
241.5372861699263
 11
-153.9977740414407
 21
241.0026588401421
  0
POLYLINE
  8
1
  6
CONTINUOUS
 62
     7
 66
     1
  0
VERTEX
  8
1
  6
CONTINUOUS
 62
     7
 10
-153.9977740414407
 20
241.0026588401422
  0
VERTEX
  8
1
  6
CONTINUOUS
 62
     7
 10
-154.0454154203804
 20
240.9105140708035
  0
VERTEX
  8
1
  6
CONTINUOUS
 62
     7
 10
-154.030671599211
 20
240.803677529225
  0
VERTEX
  8
1
  6
CONTINUOUS
 62
     7
 10
-153.9845003686241
 20
240.7445812695066
  0
SEQEND
  8
1
  6
CONTINUOUS
 62
     7
  0
LINE
  8
1
  6
CONTINUOUS
 62
     7
 10
-153.9845003686241
 20
240.7445812695066
 11
-153.3900081903098
 21
240.2455422491765
  0
LINE
  8
1
  6
CONTINUOUS
 62
     7
 10
-153.3629126464722
 20
243.1246757681882
 11
-153.998133596039
 21
242.5901272230913
  0
POLYLINE
  8
1
  6
CONTINUOUS
 62
     7
 66
     1
  0
VERTEX
  8
1
  6
CONTINUOUS
 62
     7
 10
-153.998133596039
 20
242.5901272230913
  0
VERTEX
  8
1
  6
CONTINUOUS
 62
     7
 10
-154.0457465132353
 20
242.4980939992272
  0
VERTEX
  8
1
  6
CONTINUOUS
 62
     7
 10
-154.0310993131997
 20
242.3913684835764
  0
VERTEX
  8
1
  6
CONTINUOUS
 62
     7
 10
-153.9850525786701
 20
242.332339155095
  0
SEQEND
  8
1
  6
CONTINUOUS
 62
     7
  0
LINE
  8
1
  6
CONTINUOUS
 62
     7
 10
-153.9850525786701
 20
242.332339155095
 11
-153.3900075151918
 21
241.8327909097854
  0
POLYLINE
  8
1
  6
CONTINUOUS
 62
     7
 66
     1
  0
VERTEX
  8
1
  6
CONTINUOUS
 62
     7
 10
-126.8806174773691
 20
250.437971628054
  0
VERTEX
  8
1
  6
CONTINUOUS
 62
     7
 10
-126.8856911888566
 20
250.4826593008216
  0
VERTEX
  8
1
  6
CONTINUOUS
 62
     7
 10
-126.900712707292
 20
250.5263428026727
  0
VERTEX
  8
1
  6
CONTINUOUS
 62
     7
 10
-126.9253750908391
 20
250.568017962692
  0
VERTEX
  8
1
  6
CONTINUOUS
 62
     7
 10
-126.9593449828247
 20
250.6066909820785
  0
VERTEX
  8
1
  6
CONTINUOUS
 62
     7
 10
-127.0020234178306
 20
250.6415246537927
  0
VERTEX
  8
1
  6
CONTINUOUS
 62
     7
 10
-127.0663923718636
 20
250.6785773332344
  0
VERTEX
  8
1
  6
CONTINUOUS
 62
     7
 10
-127.0842286437295
 20
250.6865652276223
  0
VERTEX
  8
1
  6
CONTINUOUS
 62
     7
 10
-127.0933913284998
 20
250.6903529286843
  0
VERTEX
  8
1
  6
CONTINUOUS
 62
     7
 10
-127.0980324511371
 20
250.6921940280952
  0
VERTEX
  8
1
  6
CONTINUOUS
 62
     7
 10
-127.0983238314227
 20
250.6923079176202
  0
VERTEX
  8
1
  6
CONTINUOUS
 62
     7
 10
-127.0984695791579
 20
250.692364810178
  0
VERTEX
  8
1
  6
CONTINUOUS
 62
     7
 10
-127.0984878003236
 20
250.6923719192999
  0
VERTEX
  8
1
  6
CONTINUOUS
 62
     7
 10
-127.0984935177724
 20
250.6923747441825
  0
VERTEX
  8
1
  6
CONTINUOUS
 62
     7
 10
-127.0984989481217
 20
250.6923774552135
  0
VERTEX
  8
1
  6
CONTINUOUS
 62
     7
 10
-127.1045084698508
 20
250.6953774222121
  0
SEQEND
  8
1
  6
CONTINUOUS
 62
     7
  0
LINE
  8
1
  6
CONTINUOUS
 62
     7
 10
-127.1045084698508
 20
250.6953774222121
 11
-128.1432809407775
 21
251.208502314986
  0
LINE
  8
1
  6
CONTINUOUS
 62
     7
 10
-127.9924279363819
 20
251.515345902336
 11
-127.0034696724811
 21
252.0320976290348
  0
POLYLINE
  8
1
  6
CONTINUOUS
 62
     7
 66
     1
  0
VERTEX
  8
1
  6
CONTINUOUS
 62
     7
 10
-127.0034696724811
 20
252.0320976290348
  0
VERTEX
  8
1
  6
CONTINUOUS
 62
     7
 10
-126.9913098190431
 20
252.0403318228629
  0
VERTEX
  8
1
  6
CONTINUOUS
 62
     7
 10
-126.972933945753
 20
252.0547359751612
  0
VERTEX
  8
1
  6
CONTINUOUS
 62
     7
 10
-126.9556247123123
 20
252.0708954251206
  0
VERTEX
  8
1
  6
CONTINUOUS
 62
     7
 10
-126.9395906010818
 20
252.0887600843496
  0
VERTEX
  8
1
  6
CONTINUOUS
 62
     7
 10
-126.9250557263507
 20
252.1082677314409
  0
VERTEX
  8
1
  6
CONTINUOUS
 62
     7
 10
-126.9146675722255
 20
252.1250064832727
  0
VERTEX
  8
1
  6
CONTINUOUS
 62
     7
 10
-126.9054993552642
 20
252.1426900786259
  0
VERTEX
  8
1
  6
CONTINUOUS
 62
     7
 10
-126.8976361595919
 20
252.1612363393523
  0
VERTEX
  8
1
  6
CONTINUOUS
 62
     7
 10
-126.8911646046376
 20
252.1805537338383
  0
VERTEX
  8
1
  6
CONTINUOUS
 62
     7
 10
-126.8861744885481
 20
252.200542043877
  0
VERTEX
  8
1
  6
CONTINUOUS
 62
     7
 10
-126.882758863918
 20
252.2210920759936
  0
VERTEX
  8
1
  6
CONTINUOUS
 62
     7
 10
-126.8810141141681
 20
252.2420853690931
  0
VERTEX
  8
1
  6
CONTINUOUS
 62
     7
 10
-126.881038016572
 20
252.2633938984314
  0
VERTEX
  8
1
  6
CONTINUOUS
 62
     7
 10
-126.8828919601199
 20
252.2848797759083
  0
VERTEX
  8
1
  6
CONTINUOUS
 62
     7
 10
-126.8866012274202
 20
252.3063949466831
  0
VERTEX
  8
1
  6
CONTINUOUS
 62
     7
 10
-126.891125353949
 20
252.3242325838921
  0
VERTEX
  8
1
  6
CONTINUOUS
 62
     7
 10
-126.8969645022356
 20
252.3418832168107
  0
VERTEX
  8
1
  6
CONTINUOUS
 62
     7
 10
-126.9041289373203
 20
252.359244070202
  0
VERTEX
  8
1
  6
CONTINUOUS
 62
     7
 10
-126.9126277424486
 20
252.3762069143428
  0
VERTEX
  8
1
  6
CONTINUOUS
 62
     7
 10
-126.9224682009904
 20
252.3926582890835
  0
VERTEX
  8
1
  6
CONTINUOUS
 62
     7
 10
-126.9336356344005
 20
252.4084915877993
  0
VERTEX
  8
1
  6
CONTINUOUS
 62
     7
 10
-126.9460868933839
 20
252.4236108560178
  0
VERTEX
  8
1
  6
CONTINUOUS
 62
     7
 10
-126.9597731905453
 20
252.4379167816899
  0
VERTEX
  8
1
  6
CONTINUOUS
 62
     7
 10
-126.9746415515487
 20
252.4513056595139
  0
VERTEX
  8
1
  6
CONTINUOUS
 62
     7
 10
-126.9865342696049
 20
252.4606805911053
  0
VERTEX
  8
1
  6
CONTINUOUS
 62
     7
 10
-126.9990340074274
 20
252.4694315853448
  0
VERTEX
  8
1
  6
CONTINUOUS
 62
     7
 10
-127.0121135812255
 20
252.4775098355497
  0
VERTEX
  8
1
  6
CONTINUOUS
 62
     7
 10
-127.0188619196721
 20
252.4812810207863
  0
VERTEX
  8
1
  6
CONTINUOUS
 62
     7
 10
-127.0197149689629
 20
252.4817393915801
  0
VERTEX
  8
1
  6
CONTINUOUS
 62
     7
 10
-127.0201422771739
 20
252.4819674763778
  0
VERTEX
  8
1
  6
CONTINUOUS
 62
     7
 10
-127.0201957273624
 20
252.4819959352709
  0
VERTEX
  8
1
  6
CONTINUOUS
 62
     7
 10
-127.0202090911817
 20
252.4820030481973
  0
VERTEX
  8
1
  6
CONTINUOUS
 62
     7
 10
-127.0202128331423
 20
252.4820050396879
  0
VERTEX
  8
1
  6
CONTINUOUS
 62
     7
 10
-127.0202180891569
 20
252.4820077956625
  0
SEQEND
  8
1
  6
CONTINUOUS
 62
     7
  0
LINE
  8
1
  6
CONTINUOUS
 62
     7
 10
-127.0202235262903
 20
252.4820106347446
 11
-127.9403667369957
 21
252.9621434357212
  0
LINE
  8
1
  6
CONTINUOUS
 62
     7
 10
-127.9877158761887
 20
253.3321995928328
 11
-127.0014654859113
 21
253.8481110509336
  0
POLYLINE
  8
1
  6
CONTINUOUS
 62
     7
 66
     1
  0
VERTEX
  8
1
  6
CONTINUOUS
 62
     7
 10
-127.0014654859113
 20
253.8481110509336
  0
VERTEX
  8
1
  6
CONTINUOUS
 62
     7
 10
-126.9896817484536
 20
253.856165959242
  0
VERTEX
  8
1
  6
CONTINUOUS
 62
     7
 10
-126.9751176504608
 20
253.8674834840311
  0
VERTEX
  8
1
  6
CONTINUOUS
 62
     7
 10
-126.9611935515873
 20
253.8799370360251
  0
VERTEX
  8
1
  6
CONTINUOUS
 62
     7
 10
-126.9480154988708
 20
253.8935027893256
  0
VERTEX
  8
1
  6
CONTINUOUS
 62
     7
 10
-126.9356958928012
 20
253.9081520428927
  0
VERTEX
  8
1
  6
CONTINUOUS
 62
     7
 10
-126.9243536855562
 20
253.9238510312986
  0
VERTEX
  8
1
  6
CONTINUOUS
 62
     7
 10
-126.9141139191268
 20
253.9405603310691
  0
VERTEX
  8
1
  6
CONTINUOUS
 62
     7
 10
-126.9050860331195
 20
253.958221379442
  0
VERTEX
  8
1
  6
CONTINUOUS
 62
     7
 10
-126.8973570154488
 20
253.976751998269
  0
VERTEX
  8
1
  6
CONTINUOUS
 62
     7
 10
-126.8910154378969
 20
253.9960606559367
  0
VERTEX
  8
1
  6
CONTINUOUS
 62
     7
 10
-126.8861530979856
 20
254.016047134238
  0
VERTEX
  8
1
  6
CONTINUOUS
 62
     7
 10
-126.8828650927561
 20
254.0366022396982
  0
VERTEX
  8
1
  6
CONTINUOUS
 62
     7
 10
-126.8812498928468
 20
254.0576075112224
  0
VERTEX
  8
1
  6
CONTINUOUS
 62
     7
 10
-126.8814074028952
 20
254.0789349240663
  0
VERTEX
  8
1
  6
CONTINUOUS
 62
     7
 10
-126.8834011778865
 20
254.1004465901298
  0
VERTEX
  8
1
  6
CONTINUOUS
 62
     7
 10
-126.8872587037791
 20
254.1219944545723
  0
VERTEX
  8
1
  6
CONTINUOUS
 62
     7
 10
-126.8919144297807
 20
254.1398646112189
  0
VERTEX
  8
1
  6
CONTINUOUS
 62
     7
 10
-126.8978938942566
 20
254.1575525587703
  0
VERTEX
  8
1
  6
CONTINUOUS
 62
     7
 10
-126.9052086870892
 20
254.1749555219896
  0
VERTEX
  8
1
  6
CONTINUOUS
 62
     7
 10
-126.9138692285219
 20
254.1919652711535
  0
VERTEX
  8
1
  6
CONTINUOUS
 62
     7
 10
-126.9238841497282
 20
254.2084683461124
  0
VERTEX
  8
1
  6
CONTINUOUS
 62
     7
 10
-126.935240131844
 20
254.2243581402415
  0
VERTEX
  8
1
  6
CONTINUOUS
 62
     7
 10
-126.9478953981995
 20
254.2395386990685
  0
VERTEX
  8
1
  6
CONTINUOUS
 62
     7
 10
-126.9618025445301
 20
254.2539107105443
  0
VERTEX
  8
1
  6
CONTINUOUS
 62
     7
 10
-126.976909989504
 20
254.267370469367
  0
VERTEX
  8
1
  6
CONTINUOUS
 62
     7
 10
-126.988994830507
 20
254.2768017085543
  0
VERTEX
  8
1
  6
CONTINUOUS
 62
     7
 10
-127.0016983323118
 20
254.2856117076869
  0
VERTEX
  8
1
  6
CONTINUOUS
 62
     7
 10
-127.0149939093484
 20
254.2937516600822
  0
VERTEX
  8
1
  6
CONTINUOUS
 62
     7
 10
-127.0218550269196
 20
254.2975547079004
  0
VERTEX
  8
1
  6
CONTINUOUS
 62
     7
 10
-127.0227224030666
 20
254.2980171089304
  0
VERTEX
  8
1
  6
CONTINUOUS
 62
     7
 10
-127.0231568940028
 20
254.2982472127973
  0
VERTEX
  8
1
  6
CONTINUOUS
 62
     7
 10
-127.023211242938
 20
254.2982759242592
  0
VERTEX
  8
1
  6
CONTINUOUS
 62
     7
 10
-127.0232248314754
 20
254.2982831003343
  0
VERTEX
  8
1
  6
CONTINUOUS
 62
     7
 10
-127.0232286363592
 20
254.2982851095069
  0
VERTEX
  8
1
  6
CONTINUOUS
 62
     7
 10
-127.0232339192217
 20
254.2982878732618
  0
SEQEND
  8
1
  6
CONTINUOUS
 62
     7
  0
LINE
  8
1
  6
CONTINUOUS
 62
     7
 10
-127.0232393400725
 20
254.2982907017348
 11
-127.940231629225
 21
254.7763509764936
  0
LINE
  8
1
  6
CONTINUOUS
 62
     7
 10
-127.9908884408697
 20
255.1447184375394
 11
-127.0043209220885
 21
255.6602981368196
  0
POLYLINE
  8
1
  6
CONTINUOUS
 62
     7
 66
     1
  0
VERTEX
  8
1
  6
CONTINUOUS
 62
     7
 10
-127.0043209220885
 20
255.6602981368196
  0
VERTEX
  8
1
  6
CONTINUOUS
 62
     7
 10
-126.9899644739232
 20
255.6700519729554
  0
VERTEX
  8
1
  6
CONTINUOUS
 62
     7
 10
-126.9749780502162
 20
255.6817726935701
  0
VERTEX
  8
1
  6
CONTINUOUS
 62
     7
 10
-126.9608764734201
 20
255.6944859248585
  0
VERTEX
  8
1
  6
CONTINUOUS
 62
     7
 10
-126.946365932932
 20
255.7096568799856
  0
VERTEX
  8
1
  6
CONTINUOUS
 62
     7
 10
-126.9331240434773
 20
255.7258775603309
  0
VERTEX
  8
1
  6
CONTINUOUS
 62
     7
 10
-126.9212462928211
 20
255.7430588678492
  0
VERTEX
  8
1
  6
CONTINUOUS
 62
     7
 10
-126.9108229344629
 20
255.7611085435222
  0
VERTEX
  8
1
  6
CONTINUOUS
 62
     7
 10
-126.9019062482006
 20
255.7799113020408
  0
VERTEX
  8
1
  6
CONTINUOUS
 62
     7
 10
-126.8945316811107
 20
255.799341667393
  0
VERTEX
  8
1
  6
CONTINUOUS
 62
     7
 10
-126.8887345610011
 20
255.8192741182133
  0
VERTEX
  8
1
  6
CONTINUOUS
 62
     7
 10
-126.8845501692126
 20
255.8395831331362
  0
VERTEX
  8
1
  6
CONTINUOUS
 62
     7
 10
-126.8820137386943
 20
255.8601431907965
  0
VERTEX
  8
1
  6
CONTINUOUS
 62
     7
 10
-126.8811604520782
 20
255.8808287698286
  0
VERTEX
  8
1
  6
CONTINUOUS
 62
     7
 10
-126.8820137385257
 20
255.9015143488672
  0
VERTEX
  8
1
  6
CONTINUOUS
 62
     7
 10
-126.8845501688789
 20
255.9220744065467
  0
VERTEX
  8
1
  6
CONTINUOUS
 62
     7
 10
-126.888734560506
 20
255.9423834215018
  0
VERTEX
  8
1
  6
CONTINUOUS
 62
     7
 10
-126.8945316804578
 20
255.9623158723671
  0
VERTEX
  8
1
  6
CONTINUOUS
 62
     7
 10
-126.9019062473934
 20
255.9817462377771
  0
VERTEX
  8
1
  6
CONTINUOUS
 62
     7
 10
-126.9108229335052
 20
256.0005489963664
  0
VERTEX
  8
1
  6
CONTINUOUS
 62
     7
 10
-126.9212462917165
 20
256.0185986721229
  0
VERTEX
  8
1
  6
CONTINUOUS
 62
     7
 10
-126.9331240422336
 20
256.035779979735
  0
VERTEX
  8
1
  6
CONTINUOUS
 62
     7
 10
-126.946365931559
 20
256.0520006601832
  0
VERTEX
  8
1
  6
CONTINUOUS
 62
     7
 10
-126.9608764719274
 20
256.0671716154224
  0
VERTEX
  8
1
  6
CONTINUOUS
 62
     7
 10
-126.973868793227
 20
256.0789479248585
  0
VERTEX
  8
1
  6
CONTINUOUS
 62
     7
 10
-126.9876205176751
 20
256.0898818234436
  0
VERTEX
  8
1
  6
CONTINUOUS
 62
     7
 10
-127.0020763604224
 20
256.0999217498092
  0
VERTEX
  8
1
  6
CONTINUOUS
 62
     7
 10
-127.0133470609301
 20
256.1068340079284
  0
VERTEX
  8
1
  6
CONTINUOUS
 62
     7
 10
-127.0191119846903
 20
256.1100838908553
  0
VERTEX
  8
1
  6
CONTINUOUS
 62
     7
 10
-127.0220255643491
 20
256.1116560811983
  0
VERTEX
  8
1
  6
CONTINUOUS
 62
     7
 10
-127.0222083395297
 20
256.1117531639064
  0
VERTEX
  8
1
  6
CONTINUOUS
 62
     7
 10
-127.0222997567687
 20
256.111801653056
  0
VERTEX
  8
1
  6
CONTINUOUS
 62
     7
 10
-127.0223111853126
 20
256.1118077117519
  0
VERTEX
  8
1
  6
CONTINUOUS
 62
     7
 10
-127.0223164512246
 20
256.1118104619204
  0
VERTEX
  8
1
  6
CONTINUOUS
 62
     7
 10
-127.0223215341202
 20
256.111813115178
  0
VERTEX
  8
1
  6
CONTINUOUS
 62
     7
 10
-127.2329727231305
 20
256.2217484328926
  0
VERTEX
  8
1
  6
CONTINUOUS
 62
     7
 10
-127.9414715927345
 20
256.5911870968829
  0
SEQEND
  8
1
  6
CONTINUOUS
 62
     7
  0
LINE
  8
1
  6
CONTINUOUS
 62
     7
 10
-127.9922348700565
 20
256.9582169499001
 11
-127.0034425933089
 21
257.4749681551285
  0
POLYLINE
  8
1
  6
CONTINUOUS
 62
     7
 66
     1
  0
VERTEX
  8
1
  6
CONTINUOUS
 62
     7
 10
-127.0034425933089
 20
257.4749681551285
  0
VERTEX
  8
1
  6
CONTINUOUS
 62
     7
 10
-126.9913110431407
 20
257.4831943663953
  0
VERTEX
  8
1
  6
CONTINUOUS
 62
     7
 10
-126.9729601171486
 20
257.4975986140676
  0
VERTEX
  8
1
  6
CONTINUOUS
 62
     7
 10
-126.9556757537786
 20
257.5137584168184
  0
VERTEX
  8
1
  6
CONTINUOUS
 62
     7
 10
-126.9396664759055
 20
257.531623686256
  0
VERTEX
  8
1
  6
CONTINUOUS
 62
     7
 10
-126.9251564363431
 20
257.5511322009733
  0
VERTEX
  8
1
  6
CONTINUOUS
 62
     7
 10
-126.9147881761449
 20
257.5678718322464
  0
VERTEX
  8
1
  6
CONTINUOUS
 62
     7
 10
-126.9056398952862
 20
257.5855564717879
  0
VERTEX
  8
1
  6
CONTINUOUS
 62
     7
 10
-126.897796695026
 20
257.6041039414496
  0
VERTEX
  8
1
  6
CONTINUOUS
 62
     7
 10
-126.8913452111426
 20
257.6234227096182
  0
VERTEX
  8
1
  6
CONTINUOUS
 62
     7
 10
-126.8863752572728
 20
257.6434125580865
  0
VERTEX
  8
1
  6
CONTINUOUS
 62
     7
 10
-126.8829799005759
 20
257.6639642933796
  0
VERTEX
  8
1
  6
CONTINUOUS
 62
     7
 10
-126.881255538042
 20
257.6849594544029
  0
VERTEX
  8
1
  6
CONTINUOUS
 62
     7
 10
-126.8812999594855
 20
257.7062700164121
  0
VERTEX
  8
1
  6
CONTINUOUS
 62
     7
 10
-126.8831745661615
 20
257.7277580913069
  0
VERTEX
  8
1
  6
CONTINUOUS
 62
     7
 10
-126.8869046528998
 20
257.7492756242468
  0
VERTEX
  8
1
  6
CONTINUOUS
 62
     7
 10
-126.8914462567607
 20
257.767115355775
  0
VERTEX
  8
1
  6
CONTINUOUS
 62
     7
 10
-126.8973030053764
 20
257.7847681974206
  0
VERTEX
  8
1
  6
CONTINUOUS
 62
     7
 10
-126.9044851698361
 20
257.8021313739467
  0
VERTEX
  8
1
  6
CONTINUOUS
 62
     7
 10
-126.9130018391021
 20
257.8190966556299
  0
VERTEX
  8
1
  6
CONTINUOUS
 62
     7
 10
-126.922860301939
 20
257.8355505823207
  0
VERTEX
  8
1
  6
CONTINUOUS
 62
     7
 10
-126.9340458855037
 20
257.8513865473943
  0
VERTEX
  8
1
  6
CONTINUOUS
 62
     7
 10
-126.9465154468659
 20
257.8665085963783
  0
VERTEX
  8
1
  6
CONTINUOUS
 62
     7
 10
-126.9602202050694
 20
257.8808174172236
  0
VERTEX
  8
1
  6
CONTINUOUS
 62
     7
 10
-126.9751071922761
 20
257.8942093046286
  0
VERTEX
  8
1
  6
CONTINUOUS
 62
     7
 10
-126.9870139923299
 20
257.9035865684857
  0
VERTEX
  8
1
  6
CONTINUOUS
 62
     7
 10
-126.9995279115788
 20
257.9123399593452
  0
VERTEX
  8
1
  6
CONTINUOUS
 62
     7
 10
-127.0126217691032
 20
257.9204206705245
  0
VERTEX
  8
1
  6
CONTINUOUS
 62
     7
 10
-127.0193772886881
 20
257.9241931103811
  0
VERTEX
  8
1
  6
CONTINUOUS
 62
     7
 10
-127.0202312374894
 20
257.9246516391337
  0
VERTEX
  8
1
  6
CONTINUOUS
 62
     7
 10
-127.0206589956121
 20
257.9248798030051
  0
VERTEX
  8
1
  6
CONTINUOUS
 62
     7
 10
-127.020712502047
 20
257.9249082717868
  0
VERTEX
  8
1
  6
CONTINUOUS
 62
     7
 10
-127.0207258799281
 20
257.9249153871855
  0
VERTEX
  8
1
  6
CONTINUOUS
 62
     7
 10
-127.020729625826
 20
257.9249173793683
  0
VERTEX
  8
1
  6
CONTINUOUS
 62
     7
 10
-127.0207348834293
 20
257.9249201356475
  0
SEQEND
  8
1
  6
CONTINUOUS
 62
     7
  0
LINE
  8
1
  6
CONTINUOUS
 62
     7
 10
-127.0207403193493
 20
257.924922973953
 11
-127.9403529304651
 21
258.4047599049012
  0
LINE
  8
1
  6
CONTINUOUS
 62
     7
 10
-127.9871158014157
 20
258.775135472522
 11
-127.0009703183058
 21
259.2910212695407
  0
POLYLINE
  8
1
  6
CONTINUOUS
 62
     7
 66
     1
  0
VERTEX
  8
1
  6
CONTINUOUS
 62
     7
 10
-127.0009703183058
 20
259.2910212695407
  0
VERTEX
  8
1
  6
CONTINUOUS
 62
     7
 10
-126.9892112433523
 20
259.2990667217889
  0
VERTEX
  8
1
  6
CONTINUOUS
 62
     7
 10
-126.974664613356
 20
259.3103814281978
  0
VERTEX
  8
1
  6
CONTINUOUS
 62
     7
 10
-126.9607581596571
 20
259.3228322878724
  0
VERTEX
  8
1
  6
CONTINUOUS
 62
     7
 10
-126.9475979577147
 20
259.3363954749141
  0
VERTEX
  8
1
  6
CONTINUOUS
 62
     7
 10
-126.9352964358353
 20
259.3510422882833
  0
VERTEX
  8
1
  6
CONTINUOUS
 62
     7
 10
-126.9239725732541
 20
259.3667389625521
  0
VERTEX
  8
1
  6
CONTINUOUS
 62
     7
 10
-126.9137514380771
 20
259.3834460742461
  0
VERTEX
  8
1
  6
CONTINUOUS
 62
     7
 10
-126.9047424943391
 20
259.4011050606032
  0
VERTEX
  8
1
  6
CONTINUOUS
 62
     7
 10
-126.8970327525065
 20
259.4196337434752
  0
VERTEX
  8
1
  6
CONTINUOUS
 62
     7
 10
-126.8907108056249
 20
259.4389405912487
  0
VERTEX
  8
1
  6
CONTINUOUS
 62
     7
 10
-126.8858684710759
 20
259.4589253857166
  0
VERTEX
  8
1
  6
CONTINUOUS
 62
     7
 10
-126.8826008641905
 20
259.4794789334039
  0
VERTEX
  8
1
  6
CONTINUOUS
 62
     7
 10
-126.8810064721547
 20
259.5004827732161
  0
VERTEX
  8
1
  6
CONTINUOUS
 62
     7
 10
-126.8811852142006
 20
259.5218088804088
  0
VERTEX
  8
1
  6
CONTINUOUS
 62
     7
 10
-126.8832006572104
 20
259.5433193668817
  0
VERTEX
  8
1
  6
CONTINUOUS
 62
     7
 10
-126.8870802964942
 20
259.5648661777944
  0
VERTEX
  8
1
  6
CONTINUOUS
 62
     7
 10
-126.8917547959071
 20
259.582735552796
  0
VERTEX
  8
1
  6
CONTINUOUS
 62
     7
 10
-126.8977533513826
 20
259.6004228062445
  0
VERTEX
  8
1
  6
CONTINUOUS
 62
     7
 10
-126.9050875549073
 20
259.617825162903
  0
VERTEX
  8
1
  6
CONTINUOUS
 62
     7
 10
-126.9137678277329
 20
259.6348343930483
  0
VERTEX
  8
1
  6
CONTINUOUS
 62
     7
 10
-126.9238028008994
 20
259.6513370365309
  0
VERTEX
  8
1
  6
CONTINUOUS
 62
     7
 10
-126.9351791541371
 20
259.6672264867258
  0
VERTEX
  8
1
  6
CONTINUOUS
 62
     7
 10
-126.9478551082036
 20
259.6824067891608
  0
VERTEX
  8
1
  6
CONTINUOUS
 62
     7
 10
-126.9617832553143
 20
259.6967786317867
  0
VERTEX
  8
1
  6
CONTINUOUS
 62
     7
 10
-126.9769120096841
 20
259.7102383093018
  0
VERTEX
  8
1
  6
CONTINUOUS
 62
     7
 10
-126.9890130320603
 20
259.7196695449579
  0
VERTEX
  8
1
  6
CONTINUOUS
 62
     7
 10
-127.0017328832155
 20
259.7284795898018
  0
VERTEX
  8
1
  6
CONTINUOUS
 62
     7
 10
-127.0150449746809
 20
259.7366196371509
  0
VERTEX
  8
1
  6
CONTINUOUS
 62
     7
 10
-127.0219144103873
 20
259.7404227509119
  0
VERTEX
  8
1
  6
CONTINUOUS
 62
     7
 10
-127.0227828291263
 20
259.7408851610504
  0
VERTEX
  8
1
  6
CONTINUOUS
 62
     7
 10
-127.023217841593
 20
259.7411152695436
  0
VERTEX
  8
1
  6
CONTINUOUS
 62
     7
 10
-127.0232722557305
 20
259.7411439815871
  0
VERTEX
  8
1
  6
CONTINUOUS
 62
     7
 10
-127.0232858605688
 20
259.7411511578078
  0
VERTEX
  8
1
  6
CONTINUOUS
 62
     7
 10
-127.023289670017
 20
259.7411531670212
  0
VERTEX
  8
1
  6
CONTINUOUS
 62
     7
 10
-127.0232949548708
 20
259.7411559307939
  0
SEQEND
  8
1
  6
CONTINUOUS
 62
     7
  0
LINE
  8
1
  6
CONTINUOUS
 62
     7
 10
-127.0233003744645
 20
259.7411587582091
 11
-127.9402274998429
 21
260.2191225251975
  0
LINE
  8
1
  6
CONTINUOUS
 62
     7
 10
-128.1432809560289
 20
260.5531552187077
 11
-127.0848503795251
 21
261.074828737835
  0
LINE
  8
1
  6
CONTINUOUS
 62
     7
 10
-127.0848503795251
 20
261.074828737835
 11
-126.8806174773691
 21
261.3236859137683
  0
LINE
  8
1
  6
CONTINUOUS
 62
     7
 10
-152.0125387843406
 20
261.1509051704476
 11
-152.9988322251251
 21
260.6350240718868
  0
POLYLINE
  8
1
  6
CONTINUOUS
 62
     7
 66
     1
  0
VERTEX
  8
1
  6
CONTINUOUS
 62
     7
 10
-152.9988322251251
 20
260.6350240718868
  0
VERTEX
  8
1
  6
CONTINUOUS
 62
     7
 10
-153.0106207529462
 20
260.626970861211
  0
VERTEX
  8
1
  6
CONTINUOUS
 62
     7
 10
-153.0251909772022
 20
260.6156555736028
  0
VERTEX
  8
1
  6
CONTINUOUS
 62
     7
 10
-153.0391215436489
 20
260.6032040828427
  0
VERTEX
  8
1
  6
CONTINUOUS
 62
     7
 10
-153.0523063376432
 20
260.5896402148295
  0
VERTEX
  8
1
  6
CONTINUOUS
 62
     7
 10
-153.0646328873591
 20
260.5749926706035
  0
VERTEX
  8
1
  6
CONTINUOUS
 62
     7
 10
-153.0759821654912
 20
260.5592952155926
  0
VERTEX
  8
1
  6
CONTINUOUS
 62
     7
 10
-153.0862290510981
 20
260.5425872732718
  0
VERTEX
  8
1
  6
CONTINUOUS
 62
     7
 10
-153.0952640223557
 20
260.5249274064062
  0
VERTEX
  8
1
  6
CONTINUOUS
 62
     7
 10
-153.1030000060888
 20
260.5063977931447
  0
VERTEX
  8
1
  6
CONTINUOUS
 62
     7
 10
-153.1093483416236
 20
260.4870899651018
  0
VERTEX
  8
1
  6
CONTINUOUS
 62
     7
 10
-153.1142171388998
 20
260.4671041404845
  0
VERTEX
  8
1
  6
CONTINUOUS
 62
     7
 10
-153.1175112047297
 20
260.4465495127684
  0
VERTEX
  8
1
  6
CONTINUOUS
 62
     7
 10
-153.1191319687775
 20
260.4255445430487
  0
VERTEX
  8
1
  6
CONTINUOUS
 62
     7
 10
-153.1189794232933
 20
260.4042172560701
  0
VERTEX
  8
1
  6
CONTINUOUS
 62
     7
 10
-153.1169899079982
 20
260.3827055399333
  0
VERTEX
  8
1
  6
CONTINUOUS
 62
     7
 10
-153.1131358296164
 20
260.3611574494795
  0
VERTEX
  8
1
  6
CONTINUOUS
 62
     7
 10
-153.1084822767269
 20
260.3432869700932
  0
VERTEX
  8
1
  6
CONTINUOUS
 62
     7
 10
-153.1025042796668
 20
260.3255985776238
  0
VERTEX
  8
1
  6
CONTINUOUS
 62
     7
 10
-153.0951901820457
 20
260.308195047308
  0
VERTEX
  8
1
  6
CONTINUOUS
 62
     7
 10
-153.0865294958818
 20
260.2911846088697
  0
VERTEX
  8
1
  6
CONTINUOUS
 62
     7
 10
-153.0765135211066
 20
260.2746807224584
  0
VERTEX
  8
1
  6
CONTINUOUS
 62
     7
 10
-153.0651555072016
 20
260.2587899946968
  0
VERTEX
  8
1
  6
CONTINUOUS
 62
     7
 10
-153.0524971611929
 20
260.243608380057
  0
VERTEX
  8
1
  6
CONTINUOUS
 62
     7
 10
-153.0385858167659
 20
260.2292351905883
  0
VERTEX
  8
1
  6
CONTINUOUS
 62
     7
 10
-153.0234729837046
 20
260.2157741315927
  0
VERTEX
  8
1
  6
CONTINUOUS
 62
     7
 10
-153.0113832772595
 20
260.2063418370953
  0
VERTEX
  8
1
  6
CONTINUOUS
 62
     7
 10
-152.9986741776912
 20
260.1975307139266
  0
VERTEX
  8
1
  6
CONTINUOUS
 62
     7
 10
-152.9853722616588
 20
260.1893895687693
  0
VERTEX
  8
1
  6
CONTINUOUS
 62
     7
 10
-152.9785076943893
 20
260.185585898798
  0
VERTEX
  8
1
  6
CONTINUOUS
 62
     7
 10
-152.9776398738344
 20
260.1851234187907
  0
VERTEX
  8
1
  6
CONTINUOUS
 62
     7
 10
-152.9772051595926
 20
260.1848932753346
  0
VERTEX
  8
1
  6
CONTINUOUS
 62
     7
 10
-152.9771507826926
 20
260.1848645589192
  0
VERTEX
  8
1
  6
CONTINUOUS
 62
     7
 10
-152.9771371871623
 20
260.1848573816058
  0
VERTEX
  8
1
  6
CONTINUOUS
 62
     7
 10
-152.9771333803202
 20
260.1848553720862
  0
VERTEX
  8
1
  6
CONTINUOUS
 62
     7
 10
-152.9771280829077
 20
260.1848526011013
  0
SEQEND
  8
1
  6
CONTINUOUS
 62
     7
  0
LINE
  8
1
  6
CONTINUOUS
 62
     7
 10
-152.9771226622118
 20
260.1848497728975
 11
-152.0597631440368
 21
259.7066372739691
  0
LINE
  8
1
  6
CONTINUOUS
 62
     7
 10
-152.009271936375
 20
259.3382795600028
 11
-152.9958857543462
 21
258.8226966379415
  0
POLYLINE
  8
1
  6
CONTINUOUS
 62
     7
 66
     1
  0
VERTEX
  8
1
  6
CONTINUOUS
 62
     7
 10
-152.9958857543462
 20
258.8226966379415
  0
VERTEX
  8
1
  6
CONTINUOUS
 62
     7
 10
-153.0102466792085
 20
258.8129417216264
  0
VERTEX
  8
1
  6
CONTINUOUS
 62
     7
 10
-153.02523672067
 20
258.8012205264261
  0
VERTEX
  8
1
  6
CONTINUOUS
 62
     7
 10
-153.0393417189
 20
258.7885068205595
  0
VERTEX
  8
1
  6
CONTINUOUS
 62
     7
 10
-153.053855805916
 20
258.7733353394481
  0
VERTEX
  8
1
  6
CONTINUOUS
 62
     7
 10
-153.0671009660419
 20
258.7571141331277
  0
VERTEX
  8
1
  6
CONTINUOUS
 62
     7
 10
-153.0789816932476
 20
258.7399322996436
  0
VERTEX
  8
1
  6
CONTINUOUS
 62
     7
 10
-153.0894077158876
 20
258.7218820980149
  0
VERTEX
  8
1
  6
CONTINUOUS
 62
     7
 10
-153.098326736759
 20
258.7030788135535
  0
VERTEX
  8
1
  6
CONTINUOUS
 62
     7
 10
-153.1057032918009
 20
258.6836479222713
  0
VERTEX
  8
1
  6
CONTINUOUS
 62
     7
 10
-153.1115020363821
 20
258.6637149455339
  0
VERTEX
  8
1
  6
CONTINUOUS
 62
     7
 10
-153.1156876725248
 20
258.6434054047066
  0
VERTEX
  8
1
  6
CONTINUOUS
 62
     7
 10
-153.1182249508558
 20
258.622844821155
  0
VERTEX
  8
1
  6
CONTINUOUS
 62
     7
 10
-153.1190786725593
 20
258.6021587162443
  0
VERTEX
  8
1
  6
CONTINUOUS
 62
     7
 10
-153.1182253927759
 20
258.5814726113401
  0
VERTEX
  8
1
  6
CONTINUOUS
 62
     7
 10
-153.1156885261137
 20
258.5609120278077
  0
VERTEX
  8
1
  6
CONTINUOUS
 62
     7
 10
-153.1115032411744
 20
258.5406024870126
  0
VERTEX
  8
1
  6
CONTINUOUS
 62
     7
 10
-153.1057047571941
 20
258.5206695103201
  0
VERTEX
  8
1
  6
CONTINUOUS
 62
     7
 10
-153.0983283421243
 20
258.5012386190958
  0
VERTEX
  8
1
  6
CONTINUOUS
 62
     7
 10
-153.0894093107122
 20
258.482435334705
  0
VERTEX
  8
1
  6
CONTINUOUS
 62
     7
 10
-153.0789830973085
 20
258.4643851331599
  0
VERTEX
  8
1
  6
CONTINUOUS
 62
     7
 10
-153.0671019696129
 20
258.4472032997695
  0
VERTEX
  8
1
  6
CONTINUOUS
 62
     7
 10
-153.0538561699931
 20
258.4309820935521
  0
VERTEX
  8
1
  6
CONTINUOUS
 62
     7
 10
-153.039341175437
 20
258.4158106125528
  0
VERTEX
  8
1
  6
CONTINUOUS
 62
     7
 10
-153.0263447192302
 20
258.4040338649903
  0
VERTEX
  8
1
  6
CONTINUOUS
 62
     7
 10
-153.012588468863
 20
258.393099528285
  0
VERTEX
  8
1
  6
CONTINUOUS
 62
     7
 10
-152.9981277032901
 20
258.3830591638057
  0
VERTEX
  8
1
  6
CONTINUOUS
 62
     7
 10
-152.9868530466922
 20
258.3761465771053
  0
VERTEX
  8
1
  6
CONTINUOUS
 62
     7
 10
-152.9810860591775
 20
258.3728965298892
  0
VERTEX
  8
1
  6
CONTINUOUS
 62
     7
 10
-152.978171426082
 20
258.3713242574019
  0
VERTEX
  8
1
  6
CONTINUOUS
 62
     7
 10
-152.9779885845832
 20
258.3712271695597
  0
VERTEX
  8
1
  6
CONTINUOUS
 62
     7
 10
-152.9778971341638
 20
258.3711786778432
  0
VERTEX
  8
1
  6
CONTINUOUS
 62
     7
 10
-152.9778857014714
 20
258.3711726188264
  0
VERTEX
  8
1
  6
CONTINUOUS
 62
     7
 10
-152.9778804216126
 20
258.3711698615579
  0
VERTEX
  8
1
  6
CONTINUOUS
 62
     7
 10
-152.9778753384214
 20
258.3711672082826
  0
VERTEX
  8
1
  6
CONTINUOUS
 62
     7
 10
-152.7672114666892
 20
258.2612311591246
  0
VERTEX
  8
1
  6
CONTINUOUS
 62
     7
 10
-152.0585286465175
 20
257.8917195556674
  0
SEQEND
  8
1
  6
CONTINUOUS
 62
     7
  0
LINE
  8
1
  6
CONTINUOUS
 62
     7
 10
-152.0073106495581
 20
257.5249481729426
 11
-152.9961947921014
 21
257.0082062263245
  0
POLYLINE
  8
1
  6
CONTINUOUS
 62
     7
 66
     1
  0
VERTEX
  8
1
  6
CONTINUOUS
 62
     7
 10
-152.9961947921014
 20
257.0082062263245
  0
VERTEX
  8
1
  6
CONTINUOUS
 62
     7
 10
-153.0083488471906
 20
256.9999744597131
  0
VERTEX
  8
1
  6
CONTINUOUS
 62
     7
 10
-153.02672066717
 20
256.9855711811456
  0
VERTEX
  8
1
  6
CONTINUOUS
 62
     7
 10
-153.0440266197255
 20
256.9694124602177
  0
VERTEX
  8
1
  6
CONTINUOUS
 62
     7
 10
-153.0600582114453
 20
256.9515483853219
  0
VERTEX
  8
1
  6
CONTINUOUS
 62
     7
 10
-153.0745913173156
 20
256.9320411778658
  0
VERTEX
  8
1
  6
CONTINUOUS
 62
     7
 10
-153.0849785897682
 20
256.9153026735606
  0
VERTEX
  8
1
  6
CONTINUOUS
 62
     7
 10
-153.0941463928781
 20
256.897619233131
  0
VERTEX
  8
1
  6
CONTINUOUS
 62
     7
 10
-153.1020096358982
 20
256.8790730347261
  0
VERTEX
  8
1
  6
CONTINUOUS
 62
     7
 10
-153.1084816926722
 20
256.8597556099601
  0
VERTEX
  8
1
  6
CONTINUOUS
 62
     7
 10
-153.1134727582536
 20
256.8397671770402
  0
VERTEX
  8
1
  6
CONTINUOUS
 62
     7
 10
-153.1168897731627
 20
256.819216929442
  0
VERTEX
  8
1
  6
CONTINUOUS
 62
     7
 10
-153.118636346998
 20
256.7982233282607
  0
VERTEX
  8
1
  6
CONTINUOUS
 62
     7
 10
-153.1186146953438
 20
256.7769143982409
  0
VERTEX
  8
1
  6
CONTINUOUS
 62
     7
 10
-153.1167634209054
 20
256.7554280274834
  0
VERTEX
  8
1
  6
CONTINUOUS
 62
     7
 10
-153.1130572316352
 20
256.7339122708293
  0
VERTEX
  8
1
  6
CONTINUOUS
 62
     7
 10
-153.1085359755229
 20
256.7160740746529
  0
VERTEX
  8
1
  6
CONTINUOUS
 62
     7
 10
-153.102699969198
 20
256.698422818463
  0
VERTEX
  8
1
  6
CONTINUOUS
 62
     7
 10
-153.0955389418224
 20
256.6810612774967
  0
VERTEX
  8
1
  6
CONTINUOUS
 62
     7
 10
-153.0870438042673
 20
256.6640976814775
  0
VERTEX
  8
1
  6
CONTINUOUS
 62
     7
 10
-153.077207267186
 20
256.6476454905551
  0
VERTEX
  8
1
  6
CONTINUOUS
 62
     7
 10
-153.0660440025698
 20
256.6318113113522
  0
VERTEX
  8
1
  6
CONTINUOUS
 62
     7
 10
-153.0535971524575
 20
256.6166910983409
  0
VERTEX
  8
1
  6
CONTINUOUS
 62
     7
 10
-153.0399154968896
 20
256.6023841635704
  0
VERTEX
  8
1
  6
CONTINUOUS
 62
     7
 10
-153.0250520028057
 20
256.5889942123427
  0
VERTEX
  8
1
  6
CONTINUOUS
 62
     7
 10
-153.0131630783463
 20
256.5796184334984
  0
VERTEX
  8
1
  6
CONTINUOUS
 62
     7
 10
-153.0006672535608
 20
256.5708665558344
  0
VERTEX
  8
1
  6
CONTINUOUS
 62
     7
 10
-152.987591709111
 20
256.5627873860337
  0
VERTEX
  8
1
  6
CONTINUOUS
 62
     7
 10
-152.9808454279798
 20
256.5590157274349
  0
VERTEX
  8
1
  6
CONTINUOUS
 62
     7
 10
-152.9799926378236
 20
256.558557296835
  0
VERTEX
  8
1
  6
CONTINUOUS
 62
     7
 10
-152.9795654593433
 20
256.5583291820813
  0
VERTEX
  8
1
  6
CONTINUOUS
 62
     7
 10
-152.9795120253787
 20
256.5583007194412
  0
VERTEX
  8
1
  6
CONTINUOUS
 62
     7
 10
-152.9794986656157
 20
256.5582936055779
  0
VERTEX
  8
1
  6
CONTINUOUS
 62
     7
 10
-152.9794949247909
 20
256.5582916138251
  0
VERTEX
  8
1
  6
CONTINUOUS
 62
     7
 10
-152.9794896557671
 20
256.5582888506574
  0
SEQEND
  8
1
  6
CONTINUOUS
 62
     7
  0
LINE
  8
1
  6
CONTINUOUS
 62
     7
 10
-152.9794842183472
 20
256.5582860112177
 11
-152.0596388639584
 21
256.0782723866404
  0
LINE
  8
1
  6
CONTINUOUS
 62
     7
 10
-152.0126470118022
 20
255.7078922855413
 11
-152.9987323451866
 21
255.1919934099546
  0
POLYLINE
  8
1
  6
CONTINUOUS
 62
     7
 66
     1
  0
VERTEX
  8
1
  6
CONTINUOUS
 62
     7
 10
-152.9987323451866
 20
255.1919934099546
  0
VERTEX
  8
1
  6
CONTINUOUS
 62
     7
 10
-153.0104862883456
 20
255.1839479457351
  0
VERTEX
  8
1
  6
CONTINUOUS
 62
     7
 10
-153.0250278769034
 20
255.1726323476903
  0
VERTEX
  8
1
  6
CONTINUOUS
 62
     7
 10
-153.0389293852211
 20
255.1601806724246
  0
VERTEX
  8
1
  6
CONTINUOUS
 62
     7
 10
-153.052084771603
 20
255.1466167458368
  0
VERTEX
  8
1
  6
CONTINUOUS
 62
     7
 10
-153.0643816420653
 20
255.1319692689671
  0
VERTEX
  8
1
  6
CONTINUOUS
 62
     7
 10
-153.0757010521984
 20
255.1162720072436
  0
VERTEX
  8
1
  6
CONTINUOUS
 62
     7
 10
-153.0859179691454
 20
255.099564384141
  0
VERTEX
  8
1
  6
CONTINUOUS
 62
     7
 10
-153.094922963915
 20
255.0819049624247
  0
VERTEX
  8
1
  6
CONTINUOUS
 62
     7
 10
-153.1026290605821
 20
255.0633759202435
  0
VERTEX
  8
1
  6
CONTINUOUS
 62
     7
 10
-153.108947700644
 20
255.0440687892118
  0
VERTEX
  8
1
  6
CONTINUOUS
 62
     7
 10
-153.1137871012131
 20
255.0240837875367
  0
VERTEX
  8
1
  6
CONTINUOUS
 62
     7
 10
-153.1170521813062
 20
255.0035301086938
  0
VERTEX
  8
1
  6
CONTINUOUS
 62
     7
 10
-153.118644487836
 20
254.9825262137782
  0
VERTEX
  8
1
  6
CONTINUOUS
 62
     7
 10
-153.1184641352581
 20
254.9612001275347
  0
VERTEX
  8
1
  6
CONTINUOUS
 62
     7
 10
-153.1164475888392
 20
254.9396897380641
  0
VERTEX
  8
1
  6
CONTINUOUS
 62
     7
 10
-153.1125673837433
 20
254.9181431002073
  0
VERTEX
  8
1
  6
CONTINUOUS
 62
     7
 10
-153.107892844843
 20
254.9002739275159
  0
VERTEX
  8
1
  6
CONTINUOUS
 62
     7
 10
-153.101894660354
 20
254.8825869291933
  0
VERTEX
  8
1
  6
CONTINUOUS
 62
     7
 10
-153.094561254371
 20
254.8651848804765
  0
VERTEX
  8
1
  6
CONTINUOUS
 62
     7
 10
-153.0858822211688
 20
254.8481760110892
  0
VERTEX
  8
1
  6
CONTINUOUS
 62
     7
 10
-153.0758489446236
 20
254.831673781181
  0
VERTEX
  8
1
  6
CONTINUOUS
 62
     7
 10
-153.0644747587421
 20
254.8157847973746
  0
VERTEX
  8
1
  6
CONTINUOUS
 62
     7
 10
-153.0518014551266
 20
254.800605014142
  0
VERTEX
  8
1
  6
CONTINUOUS
 62
     7
 10
-153.0378764531417
 20
254.7862337435326
  0
VERTEX
  8
1
  6
CONTINUOUS
 62
     7
 10
-153.0227513493982
 20
254.7727746908484
  0
VERTEX
  8
1
  6
CONTINUOUS
 62
     7
 10
-153.0106534028065
 20
254.7633439584749
  0
VERTEX
  8
1
  6
CONTINUOUS
 62
     7
 10
-152.9979369214108
 20
254.754534446622
  0
VERTEX
  8
1
  6
CONTINUOUS
 62
     7
 10
-152.9846284973902
 20
254.7463949619723
  0
VERTEX
  8
1
  6
CONTINUOUS
 62
     7
 10
-152.9777610081302
 20
254.7425921407015
  0
VERTEX
  8
1
  6
CONTINUOUS
 62
     7
 10
-152.9768928380114
 20
254.7421297676466
  0
VERTEX
  8
1
  6
CONTINUOUS
 62
     7
 10
-152.9764579502986
 20
254.7418996777386
  0
VERTEX
  8
1
  6
CONTINUOUS
 62
     7
 10
-152.9764035517762
 20
254.7418709680203
  0
VERTEX
  8
1
  6
CONTINUOUS
 62
     7
 10
-152.9763899508424
 20
254.7418637923811
  0
VERTEX
  8
1
  6
CONTINUOUS
 62
     7
 10
-152.9763861424875
 20
254.7418617833304
  0
VERTEX
  8
1
  6
CONTINUOUS
 62
     7
 10
-152.9763808446179
 20
254.7418590125517
  0
SEQEND
  8
1
  6
CONTINUOUS
 62
     7
  0
LINE
  8
1
  6
CONTINUOUS
 62
     7
 10
-152.9763754250391
 20
254.7418561850104
 11
-152.0597783455675
 21
254.2640392566489
  0
LINE
  8
1
  6
CONTINUOUS
 62
     7
 10
-152.0092433549696
 20
253.8956196671714
 11
-152.9958805476922
 21
253.3800372484836
  0
POLYLINE
  8
1
  6
CONTINUOUS
 62
     7
 66
     1
  0
VERTEX
  8
1
  6
CONTINUOUS
 62
     7
 10
-152.9958805476922
 20
253.3800372484836
  0
VERTEX
  8
1
  6
CONTINUOUS
 62
     7
 10
-153.0102437292738
 20
253.3702818287951
  0
VERTEX
  8
1
  6
CONTINUOUS
 62
     7
 10
-153.0252351060329
 20
253.3585606335947
  0
VERTEX
  8
1
  6
CONTINUOUS
 62
     7
 10
-153.0393411769298
 20
253.3458469277281
  0
VERTEX
  8
1
  6
CONTINUOUS
 62
     7
 10
-153.0538561713662
 20
253.3306754466167
  0
VERTEX
  8
1
  6
CONTINUOUS
 62
     7
 10
-153.0671019708567
 20
253.3144542402964
  0
VERTEX
  8
1
  6
CONTINUOUS
 62
     7
 10
-153.0789830984132
 20
253.2972724068123
  0
VERTEX
  8
1
  6
CONTINUOUS
 62
     7
 10
-153.08940931167
 20
253.2792222051836
  0
VERTEX
  8
1
  6
CONTINUOUS
 62
     7
 10
-153.0983283429316
 20
253.2604189207221
  0
VERTEX
  8
1
  6
CONTINUOUS
 62
     7
 10
-153.1057047578471
 20
253.2409880294399
  0
VERTEX
  8
1
  6
CONTINUOUS
 62
     7
 10
-153.1115032416695
 20
253.2210550527025
  0
VERTEX
  8
1
  6
CONTINUOUS
 62
     7
 10
-153.1156885264473
 20
253.2007455118753
  0
VERTEX
  8
1
  6
CONTINUOUS
 62
     7
 10
-153.1182253929446
 20
253.1801849283236
  0
VERTEX
  8
1
  6
CONTINUOUS
 62
     7
 10
-153.1190786725593
 20
253.1594988234129
  0
VERTEX
  8
1
  6
CONTINUOUS
 62
     7
 10
-153.1182249506871
 20
253.1388127185087
  0
VERTEX
  8
1
  6
CONTINUOUS
 62
     7
 10
-153.1156876721911
 20
253.1182521349763
  0
VERTEX
  8
1
  6
CONTINUOUS
 62
     7
 10
-153.111502035887
 20
253.0979425941812
  0
VERTEX
  8
1
  6
CONTINUOUS
 62
     7
 10
-153.1057032911479
 20
253.0780096174888
  0
VERTEX
  8
1
  6
CONTINUOUS
 62
     7
 10
-153.0983267359519
 20
253.0585787262645
  0
VERTEX
  8
1
  6
CONTINUOUS
 62
     7
 10
-153.0894077149298
 20
253.0397754418737
  0
VERTEX
  8
1
  6
CONTINUOUS
 62
     7
 10
-153.0789816921429
 20
253.0217252403284
  0
VERTEX
  8
1
  6
CONTINUOUS
 62
     7
 10
-153.0671009647981
 20
253.0045434069381
  0
VERTEX
  8
1
  6
CONTINUOUS
 62
     7
 10
-153.0538558045428
 20
252.9883222007207
  0
VERTEX
  8
1
  6
CONTINUOUS
 62
     7
 10
-153.0393417174073
 20
252.9731507197214
  0
VERTEX
  8
1
  6
CONTINUOUS
 62
     7
 10
-153.0263462429313
 20
252.961373972159
  0
VERTEX
  8
1
  6
CONTINUOUS
 62
     7
 10
-153.0125911969759
 20
252.9504396354536
  0
VERTEX
  8
1
  6
CONTINUOUS
 62
     7
 10
-152.9981318749035
 20
252.9403992709743
  0
VERTEX
  8
1
  6
CONTINUOUS
 62
     7
 10
-152.9868584676341
 20
252.933486684274
  0
VERTEX
  8
1
  6
CONTINUOUS
 62
     7
 10
-152.9810921607872
 20
252.9302366370579
  0
VERTEX
  8
1
  6
CONTINUOUS
 62
     7
 10
-152.9781778823986
 20
252.9286643645706
  0
VERTEX
  8
1
  6
CONTINUOUS
 62
     7
 10
-152.9779950633907
 20
252.9285672767284
  0
VERTEX
  8
1
  6
CONTINUOUS
 62
     7
 10
-152.977903624231
 20
252.9285187850118
  0
VERTEX
  8
1
  6
CONTINUOUS
 62
     7
 10
-152.9778921929467
 20
252.9285127259951
  0
VERTEX
  8
1
  6
CONTINUOUS
 62
     7
 10
-152.9778869131843
 20
252.9285099687266
  0
VERTEX
  8
1
  6
CONTINUOUS
 62
     7
 10
-152.9778818300683
 20
252.9285073154513
  0
VERTEX
  8
1
  6
CONTINUOUS
 62
     7
 10
-152.7672214220879
 20
252.8185712662933
  0
VERTEX
  8
1
  6
CONTINUOUS
 62
     7
 10
-152.0585283214685
 20
252.4490453916578
  0
SEQEND
  8
1
  6
CONTINUOUS
 62
     7
  0
LINE
  8
1
  6
CONTINUOUS
 62
     7
 10
-152.0080220927172
 20
252.0819707243436
 11
-152.9969404398105
 21
251.5651984092524
  0
POLYLINE
  8
1
  6
CONTINUOUS
 62
     7
 66
     1
  0
VERTEX
  8
1
  6
CONTINUOUS
 62
     7
 10
-152.9969404398105
 20
251.5651984092524
  0
VERTEX
  8
1
  6
CONTINUOUS
 62
     7
 10
-153.0090816798804
 20
251.5569676994091
  0
VERTEX
  8
1
  6
CONTINUOUS
 62
     7
 10
-153.0274383249557
 20
251.5425617155952
  0
VERTEX
  8
1
  6
CONTINUOUS
 62
     7
 10
-153.0447265547263
 20
251.5264005024693
  0
VERTEX
  8
1
  6
CONTINUOUS
 62
     7
 10
-153.06073795082
 20
251.5085341484237
  0
VERTEX
  8
1
  6
CONTINUOUS
 62
     7
 10
-153.075248468087
 20
251.4890248748661
  0
VERTEX
  8
1
  6
CONTINUOUS
 62
     7
 10
-153.0856160037631
 20
251.4722848710744
  0
VERTEX
  8
1
  6
CONTINUOUS
 62
     7
 10
-153.0947626402813
 20
251.4546000675091
  0
VERTEX
  8
1
  6
CONTINUOUS
 62
     7
 10
-153.1026033378496
 20
251.4360526423194
  0
VERTEX
  8
1
  6
CONTINUOUS
 62
     7
 10
-153.1090515237555
 20
251.4167341271194
  0
VERTEX
  8
1
  6
CONTINUOUS
 62
     7
 10
-153.114017448973
 20
251.3967447401165
  0
VERTEX
  8
1
  6
CONTINUOUS
 62
     7
 10
-153.1174081124852
 20
251.376193674786
  0
VERTEX
  8
1
  6
CONTINUOUS
 62
     7
 10
-153.1191271849546
 20
251.3551993922233
  0
VERTEX
  8
1
  6
CONTINUOUS
 62
     7
 10
-153.1190769457573
 20
251.3338899171729
  0
VERTEX
  8
1
  6
CONTINUOUS
 62
     7
 10
-153.1171960653951
 20
251.3124031377357
  0
VERTEX
  8
1
  6
CONTINUOUS
 62
     7
 10
-153.1134593231955
 20
251.2908871087529
  0
VERTEX
  8
1
  6
CONTINUOUS
 62
     7
 10
-153.1089119359158
 20
251.2730487897926
  0
VERTEX
  8
1
  6
CONTINUOUS
 62
     7
 10
-153.103049235509
 20
251.2553975055071
  0
VERTEX
  8
1
  6
CONTINUOUS
 62
     7
 10
-153.0958609957704
 20
251.2380360311331
  0
VERTEX
  8
1
  6
CONTINUOUS
 62
     7
 10
-153.0873381731246
 20
251.2210725963944
  0
VERTEX
  8
1
  6
CONTINUOUS
 62
     7
 10
-153.0774735246687
 20
251.2046206614406
  0
VERTEX
  8
1
  6
CONTINUOUS
 62
     7
 10
-153.0662817700434
 20
251.1887868328944
  0
VERTEX
  8
1
  6
CONTINUOUS
 62
     7
 10
-153.0538060999735
 20
251.1736670652279
  0
VERTEX
  8
1
  6
CONTINUOUS
 62
     7
 10
-153.0400953435512
 20
251.1593606704902
  0
VERTEX
  8
1
  6
CONTINUOUS
 62
     7
 10
-153.0252025170081
 20
251.1459713539835
  0
VERTEX
  8
1
  6
CONTINUOUS
 62
     7
 10
-153.0132914709523
 20
251.1365961133189
  0
VERTEX
  8
1
  6
CONTINUOUS
 62
     7
 10
-153.0007734429846
 20
251.1278448270969
  0
VERTEX
  8
1
  6
CONTINUOUS
 62
     7
 10
-152.9876756346463
 20
251.119766302
  0
VERTEX
  8
1
  6
CONTINUOUS
 62
     7
 10
-152.9809182053243
 20
251.1159949857265
  0
VERTEX
  8
1
  6
CONTINUOUS
 62
     7
 10
-152.9800640210735
 20
251.1155365988534
  0
VERTEX
  8
1
  6
CONTINUOUS
 62
     7
 10
-152.9796361455043
 20
251.1153085060412
  0
VERTEX
  8
1
  6
CONTINUOUS
 62
     7
 10
-152.9795826244017
 20
251.1152800461475
  0
VERTEX
  8
1
  6
CONTINUOUS
 62
     7
 10
-152.9795692428541
 20
251.1152729329709
  0
VERTEX
  8
1
  6
CONTINUOUS
 62
     7
 10
-152.9795654959297
 20
251.1152709414103
  0
VERTEX
  8
1
  6
CONTINUOUS
 62
     7
 10
-152.9795602242023
 20
251.1152681783273
  0
SEQEND
  8
1
  6
CONTINUOUS
 62
     7
  0
LINE
  8
1
  6
CONTINUOUS
 62
     7
 10
-152.9795547885936
 20
251.1152653404467
 11
-152.0596405582293
 21
250.6353123054123
  0
LINE
  8
1
  6
CONTINUOUS
 62
     7
 10
-126.61
 20
243.8930100068469
 11
-126.61
 21
245.3236859137199
  0
LINE
  8
1
  6
CONTINUOUS
 62
     7
 10
-126.61
 20
242.3053196146758
 11
-126.61
 21
242.6293618205929
  0
LINE
  8
1
  6
CONTINUOUS
 62
     7
 10
-126.61
 20
240.7175920541846
 11
-126.61
 21
241.0420713166413
  0
LINE
  8
1
  6
CONTINUOUS
 62
     7
 10
-126.61
 20
239.1300970898143
 11
-126.61
 21
239.4547633823313
  0
LINE
  8
1
  6
CONTINUOUS
 62
     7
 10
-126.61
 20
237.542834943605
 11
-126.61
 21
237.8672756544434
  0
LINE
  8
1
  6
CONTINUOUS
 62
     7
 10
-126.61
 20
235.9555100068469
 11
-126.61
 21
236.2795526471687
  0
LINE
  8
1
  6
CONTINUOUS
 62
     7
 10
-126.61
 20
233.8236859137199
 11
-126.61
 21
234.6918618205929
  0
LINE
  8
1
  6
CONTINUOUS
 62
     7
 10
-153.39
 20
235.4857295915033
 11
-153.39
 21
233.8236859137199
  0
LINE
  8
1
  6
CONTINUOUS
 62
     7
 10
-153.39
 20
237.0734132350356
 11
-153.39
 21
236.7491956239685
  0
LINE
  8
1
  6
CONTINUOUS
 62
     7
 10
-153.39
 20
238.6610599090211
 11
-153.39
 21
238.3364359192255
  0
LINE
  8
1
  6
CONTINUOUS
 62
     7
 10
-153.39
 20
240.2484329930959
 11
-153.39
 21
239.9238225137636
  0
LINE
  8
1
  6
CONTINUOUS
 62
     7
 10
-153.39
 20
241.8356778546805
 11
-153.39
 21
241.5114513236859
  0
LINE
  8
1
  6
CONTINUOUS
 62
     7
 10
-153.39
 20
245.3236859137199
 11
-153.39
 21
243.0991643046049
  0
LINE
  8
1
  6
CONTINUOUS
 62
     7
 10
-127.9415
 20
262.0276501235865
 11
-127.9415
 21
262.8236859137199
  0
LINE
  8
1
  6
CONTINUOUS
 62
     7
 10
-127.9415
 20
260.2132850077085
 11
-127.9415
 21
260.6197217038534
  0
LINE
  8
1
  6
CONTINUOUS
 62
     7
 10
-127.9415
 20
258.3988819102797
 11
-127.9415
 21
258.8055312774326
  0
LINE
  8
1
  6
CONTINUOUS
 62
     7
 10
-127.9415
 20
256.5845474257508
 11
-127.9415
 21
256.9913401400008
  0
LINE
  8
1
  6
CONTINUOUS
 62
     7
 10
-127.9415
 20
254.7703111381829
 11
-127.9415
 21
255.177112797108
  0
LINE
  8
1
  6
CONTINUOUS
 62
     7
 10
-127.9415
 20
252.9561357987968
 11
-127.9415
 21
253.3627807884353
  0
LINE
  8
1
  6
CONTINUOUS
 62
     7
 10
-127.9415
 20
251.1419358378721
 11
-127.9415
 21
251.5483757251427
  0
LINE
  8
1
  6
CONTINUOUS
 62
     7
 10
-127.9415
 20
248.3236859137199
 11
-127.9415
 21
249.7340074181391
  0
LINE
  8
1
  6
CONTINUOUS
 62
     7
 10
-152.0585
 20
250.6411913222158
 11
-152.0585
 21
248.3236859137199
  0
LINE
  8
1
  6
CONTINUOUS
 62
     7
 10
-152.0585
 20
252.4555688102489
 11
-152.0585
 21
252.0490158904072
  0
LINE
  8
1
  6
CONTINUOUS
 62
     7
 10
-152.0585
 20
254.2699497566696
 11
-152.0585
 21
253.8632289555294
  0
LINE
  8
1
  6
CONTINUOUS
 62
     7
 10
-152.0585
 20
256.0842451667697
 11
-152.0585
 21
255.6774147340532
  0
LINE
  8
1
  6
CONTINUOUS
 62
     7
 10
-152.0585
 20
257.8984345460758
 11
-152.0585
 21
257.4917024416893
  0
LINE
  8
1
  6
CONTINUOUS
 62
     7
 10
-152.0585
 20
259.7126222249989
 11
-152.0585
 21
259.3060885566364
  0
LINE
  8
1
  6
CONTINUOUS
 62
     7
 10
-152.0585
 20
262.8236859137199
 11
-152.0585
 21
261.1204833796509
  0
LINE
  8
1
  6
CONTINUOUS
 62
     7
 10
-159.5
 20
248.3236859137199
 11
-159.5
 21
245.3236859137199
  0
LINE
  8
1
  6
CONTINUOUS
 62
     7
 10
-120.5
 20
245.3236859137199
 11
-120.5
 21
248.3236859137199
  0
ENDBLK
  8
0
  0
BLOCK
  8
0
  2
D_FRAME_VIEW_1892
 70
     0
 10
0.0
 20
0.0
  0
CIRCLE
  8
1
  6
CONTINUOUS
 62
     7
 10
-140.0
 20
185.8333333333333
 40
13.39000000000001
  0
CIRCLE
  8
1
  6
CONTINUOUS
 62
     7
 10
-140.0
 20
185.8333333333333
 40
11.50000000000001
  0
LINE
  8
1
  6
CONTINUOUS
 62
     7
 10
-126.61
 20
185.8333333333333
 11
-125.9514180056684
 21
185.8333333333333
  0
LINE
  8
1
  6
CONTINUOUS
 62
     7
 10
-142.9935026247349
 20
203.0754022937483
 11
-140.8895808967086
 21
205.1793240217746
  0
ARC
  8
1
  6
CONTINUOUS
 62
     7
 10
-140.5360275061153
 20
204.8257706311813
 40
0.4999999999999872
 50
91.61664154233209
 51
134.9999999999999
  0
ARC
  8
1
  6
CONTINUOUS
 62
     7
 10
-140.0
 20
185.8333333333333
 40
19.50000000000001
 50
88.38335845766812
 51
91.61664154233212
  0
ARC
  8
1
  6
CONTINUOUS
 62
     7
 10
-139.4639724938847
 20
204.8257706311813
 40
0.5000000000000178
 50
44.99999999999991
 51
88.38335845766787
  0
LINE
  8
1
  6
CONTINUOUS
 62
     7
 10
-139.1104191032914
 20
205.1793240217746
 11
-137.0064973752651
 21
203.0754022937483
  0
ARC
  8
1
  6
CONTINUOUS
 62
     7
 10
-140.0
 20
185.8333333333333
 40
17.5
 50
54.84929797645277
 51
80.15070202354728
  0
LINE
  8
1
  6
CONTINUOUS
 62
     7
 10
-129.9247421218543
 20
200.1420432223786
 11
-126.949347479908
 21
200.1420432223786
  0
ARC
  8
1
  6
CONTINUOUS
 62
     7
 10
-126.949347479908
 20
199.6420432223786
 40
0.4999999999999842
 50
46.61664154233188
 51
89.99999999999982
  0
ARC
  8
1
  6
CONTINUOUS
 62
     7
 10
-140.0
 20
185.8333333333333
 40
19.5
 50
43.38335845766823
 51
46.6166415423321
  0
ARC
  8
1
  6
CONTINUOUS
 62
     7
 10
-126.1912901109547
 20
198.8839858534253
 40
0.5000000000000004
 50
359.9999999999998
 51
43.3833584576679
  0
LINE
  8
1
  6
CONTINUOUS
 62
     7
 10
-125.6912901109547
 20
198.8839858534253
 11
-125.6912901109547
 21
195.9085912114791
  0
ARC
  8
1
  6
CONTINUOUS
 62
     7
 10
-140.0
 20
185.8333333333333
 40
17.5
 50
9.849297976452798
 51
35.15070202354731
  0
LINE
  8
1
  6
CONTINUOUS
 62
     7
 10
-122.757931039585
 20
188.8268359580682
 11
-120.6540093115587
 21
186.722914230042
  0
ARC
  8
1
  6
CONTINUOUS
 62
     7
 10
-121.007562702152
 20
186.3693608394487
 40
0.5000000000000011
 50
1.616641542332095
 51
44.99999999999996
  0
ARC
  8
1
  6
CONTINUOUS
 62
     7
 10
-140.0
 20
185.8333333333333
 40
19.5
 50
358.3833584576681
 51
1.616641542332104
  0
ARC
  8
1
  6
CONTINUOUS
 62
     7
 10
-121.007562702152
 20
185.297305827218
 40
0.500000000000008
 50
314.9999999999998
 51
358.3833584576679
  0
LINE
  8
1
  6
CONTINUOUS
 62
     7
 10
-120.6540093115587
 20
184.9437524366247
 11
-122.757931039585
 21
182.8398307085984
  0
ARC
  8
1
  6
CONTINUOUS
 62
     7
 10
-140.0
 20
185.8333333333333
 40
17.5
 50
324.8492979764527
 51
350.1507020235472
  0
LINE
  8
1
  6
CONTINUOUS
 62
     7
 10
-125.6912901109547
 20
175.7580754551876
 11
-125.6912901109547
 21
172.7826808132414
  0
ARC
  8
1
  6
CONTINUOUS
 62
     7
 10
-126.1912901109547
 20
172.7826808132414
 40
0.4999999999999842
 50
316.616641542332
 51
0.0
  0
ARC
  8
1
  6
CONTINUOUS
 62
     7
 10
-140.0
 20
185.8333333333333
 40
19.5
 50
313.383358457668
 51
316.6166415423321
  0
ARC
  8
1
  6
CONTINUOUS
 62
     7
 10
-126.949347479908
 20
172.024623444288
 40
0.5000000000000004
 50
269.9999999999998
 51
313.3833584576678
  0
LINE
  8
1
  6
CONTINUOUS
 62
     7
 10
-126.949347479908
 20
171.5246234442881
 11
-129.9247421218543
 21
171.5246234442881
  0
ARC
  8
1
  6
CONTINUOUS
 62
     7
 10
-140.0
 20
185.8333333333333
 40
17.5
 50
279.8492979764528
 51
305.1507020235473
  0
LINE
  8
1
  6
CONTINUOUS
 62
     7
 10
-137.0064973752651
 20
168.5912643729184
 11
-139.1104191032914
 21
166.4873426448921
  0
ARC
  8
1
  6
CONTINUOUS
 62
     7
 10
-139.4639724938847
 20
166.8408960354853
 40
0.4999999999999872
 50
271.6166415423321
 51
314.9999999999999
  0
ARC
  8
1
  6
CONTINUOUS
 62
     7
 10
-140.0
 20
185.8333333333333
 40
19.50000000000001
 50
268.3833584576681
 51
271.6166415423321
  0
ARC
  8
1
  6
CONTINUOUS
 62
     7
 10
-140.5360275061153
 20
166.8408960354853
 40
0.5000000000000178
 50
224.9999999999999
 51
268.3833584576678
  0
LINE
  8
1
  6
CONTINUOUS
 62
     7
 10
-140.8895808967086
 20
166.4873426448921
 11
-142.9935026247349
 21
168.5912643729184
  0
ARC
  8
1
  6
CONTINUOUS
 62
     7
 10
-140.0
 20
185.8333333333333
 40
17.5
 50
234.8492979764528
 51
260.1507020235473
  0
LINE
  8
1
  6
CONTINUOUS
 62
     7
 10
-150.0752578781457
 20
171.5246234442881
 11
-153.050652520092
 21
171.524623444288
  0
ARC
  8
1
  6
CONTINUOUS
 62
     7
 10
-153.050652520092
 20
172.024623444288
 40
0.4999999999999842
 50
226.6166415423319
 51
270.0
  0
ARC
  8
1
  6
CONTINUOUS
 62
     7
 10
-140.0
 20
185.8333333333333
 40
19.5
 50
223.3833584576682
 51
226.6166415423321
  0
ARC
  8
1
  6
CONTINUOUS
 62
     7
 10
-153.8087098890453
 20
172.7826808132414
 40
0.5000000000000004
 50
179.9999999999998
 51
223.3833584576678
  0
LINE
  8
1
  6
CONTINUOUS
 62
     7
 10
-154.3087098890453
 20
172.7826808132414
 11
-154.3087098890453
 21
175.7580754551876
  0
ARC
  8
1
  6
CONTINUOUS
 62
     7
 10
-140.0
 20
185.8333333333333
 40
17.5
 50
189.8492979764528
 51
215.1507020235473
  0
LINE
  8
1
  6
CONTINUOUS
 62
     7
 10
-157.242068960415
 20
182.8398307085984
 11
-159.3459906884413
 21
184.9437524366247
  0
ARC
  8
1
  6
CONTINUOUS
 62
     7
 10
-158.992437297848
 20
185.297305827218
 40
0.4999999999999872
 50
181.6166415423321
 51
225.0
  0
ARC
  8
1
  6
CONTINUOUS
 62
     7
 10
-140.0
 20
185.8333333333333
 40
19.50000000000001
 50
178.3833584576681
 51
181.6166415423321
  0
ARC
  8
1
  6
CONTINUOUS
 62
     7
 10
-158.992437297848
 20
186.3693608394487
 40
0.5000000000000178
 50
134.9999999999999
 51
178.3833584576679
  0
LINE
  8
1
  6
CONTINUOUS
 62
     7
 10
-159.3459906884413
 20
186.722914230042
 11
-157.242068960415
 21
188.8268359580682
  0
ARC
  8
1
  6
CONTINUOUS
 62
     7
 10
-140.0
 20
185.8333333333333
 40
17.5
 50
144.8492979764528
 51
170.1507020235473
  0
LINE
  8
1
  6
CONTINUOUS
 62
     7
 10
-154.3087098890453
 20
195.9085912114791
 11
-154.3087098890453
 21
198.8839858534253
  0
ARC
  8
1
  6
CONTINUOUS
 62
     7
 10
-153.8087098890453
 20
198.8839858534253
 40
0.4999999999999842
 50
136.616641542332
 51
180.0
  0
ARC
  8
1
  6
CONTINUOUS
 62
     7
 10
-140.0
 20
185.8333333333333
 40
19.5
 50
133.383358457668
 51
136.6166415423321
  0
ARC
  8
1
  6
CONTINUOUS
 62
     7
 10
-153.050652520092
 20
199.6420432223786
 40
0.5000000000000004
 50
89.99999999999982
 51
133.3833584576678
  0
LINE
  8
1
  6
CONTINUOUS
 62
     7
 10
-153.050652520092
 20
200.1420432223786
 11
-150.0752578781457
 21
200.1420432223786
  0
ARC
  8
1
  6
CONTINUOUS
 62
     7
 10
-140.0
 20
185.8333333333333
 40
17.5
 50
99.84929797645275
 51
125.1507020235473
  0
CIRCLE
  8
1
  6
CONTINUOUS
 62
     7
 10
-140.0
 20
185.8333333333333
 40
11.00000000000001
  0
LINE
  8
1
  6
CONTINUOUS
 62
     7
 10
-123.4423698578047
 20
179.5775452875101
 11
-123.0131261893216
 21
180.8597915229043
  0
LINE
  8
1
  6
CONTINUOUS
 62
     7
 10
-123.4695452948553
 20
179.5060623731404
 11
-123.4419782324017
 21
179.5785819279022
  0
LINE
  8
1
  6
CONTINUOUS
 62
     7
 10
-122.9784183629633
 20
180.9799058255102
 11
-122.9568935266861
 21
181.0560410312773
  0
LINE
  8
1
  6
CONTINUOUS
 62
     7
 10
-124.5499765974127
 20
177.1969696969697
 11
-124.1744379421609
 21
177.9060647062483
  0
LINE
  8
1
  6
CONTINUOUS
 62
     7
 10
-124.985873697733
 20
176.4595923468675
 11
-124.5499765974127
 21
177.1969696969697
  0
LINE
  8
1
  6
CONTINUOUS
 62
     7
 10
-122.8457657318474
 20
181.4710634668124
 11
-122.7127868573368
 21
182.0330357449682
  0
LINE
  8
1
  6
CONTINUOUS
 62
     7
 10
-122.7127868573368
 20
182.0330357449682
 11
-122.6891019850891
 21
182.1424242424243
  0
LINE
  8
1
  6
CONTINUOUS
 62
     7
 10
-122.6891019850892
 20
182.1424242424243
 11
-122.6756560712394
 21
182.2060606060606
  0
LINE
  8
1
  6
CONTINUOUS
 62
     7
 10
-123.100202800365
 20
191.0951633012446
 11
-123.4198063114489
 21
192.029071969697
  0
LINE
  8
1
  6
CONTINUOUS
 62
     7
 10
-123.4198063114489
 20
192.029071969697
 11
-123.6334847096313
 21
192.029071969697
  0
LINE
  8
1
  6
CONTINUOUS
 62
     7
 10
-123.4198063114489
 20
192.029071969697
 11
-123.424068698111
 21
192.0404664457336
  0
LINE
  8
1
  6
CONTINUOUS
 62
     7
 10
-123.424068698111
 20
192.0404664457336
 11
-123.4254227189767
 21
192.0440811108063
  0
LINE
  8
1
  6
CONTINUOUS
 62
     7
 10
-123.4254227189767
 20
192.0440811108063
 11
-123.4269790614441
 21
192.0482329278711
  0
LINE
  8
1
  6
CONTINUOUS
 62
     7
 10
-123.5100618450774
 20
192.2654356060609
 11
-124.182928109408
 21
193.7775284975928
  0
LINE
  8
1
  6
CONTINUOUS
 62
     7
 10
-124.3789410781222
 20
194.1563446969697
 11
-125.3431297516437
 21
195.7563446969693
  0
LINE
  8
1
  6
CONTINUOUS
 62
     7
 10
-124.3789410781222
 20
194.1563446969697
 11
-124.6059270548441
 21
194.1563446969697
  0
LINE
  8
1
  6
CONTINUOUS
 62
     7
 10
-156.466881034157
 20
179.342429774743
 11
-156.4596981599429
 21
179.3242368919237
  0
LINE
  8
1
  6
CONTINUOUS
 62
     7
 10
-124.2834168495361
 20
193.9745257674451
 11
-124.3796561223058
 21
194.1576877133175
  0
LINE
  8
1
  6
CONTINUOUS
 62
     7
 10
-155.9462240905507
 20
178.1516709316171
 11
-155.7239328014991
 21
178.1516709316171
  0
ARC
  8
1
  6
CONTINUOUS
 62
     7
 10
-140.0
 20
185.8333333333333
 40
17.7
 50
201.5766472532987
 51
205.7211849822527
  0
LINE
  8
1
  6
CONTINUOUS
 62
     7
 10
-156.8820995492464
 20
180.5149957350479
 11
-156.6722909400797
 21
180.5149957350479
  0
ARC
  8
1
  6
CONTINUOUS
 62
     7
 10
-140.0
 20
185.8333333333333
 40
17.7
 50
197.4858977120202
 51
201.5133321247821
  0
LINE
  8
1
  6
CONTINUOUS
 62
     7
 10
-122.7360981750664
 20
189.7381628787879
 11
-122.7782314975152
 21
189.9199810606061
  0
LINE
  8
1
  6
CONTINUOUS
 62
     7
 10
-122.7360981750664
 20
189.7381628787879
 11
-122.9412102943689
 21
189.7381628787879
  0
LINE
  8
1
  6
CONTINUOUS
 62
     7
 10
-122.7782314975152
 20
189.9199810606061
 11
-122.9838514829831
 21
189.9199810606061
  0
LINE
  8
1
  6
CONTINUOUS
 62
     7
 10
-123.0131261893216
 20
180.8597915229043
 11
-122.9795325460799
 21
180.9759999445237
  0
LINE
  8
1
  6
CONTINUOUS
 62
     7
 10
-122.9795325460799
 20
180.9759999445237
 11
-122.9787371670094
 21
180.9787878787876
  0
LINE
  8
1
  6
CONTINUOUS
 62
     7
 10
-125.4912901109547
 20
198.4833333333333
 11
-125.4912901109547
 21
196.4833333333333
  0
LINE
  8
1
  6
CONTINUOUS
 62
     7
 10
-125.6912901109547
 20
196.4833333333333
 11
-125.4912901109547
 21
196.4833333333333
  0
LINE
  8
1
  6
CONTINUOUS
 62
     7
 10
-125.6912901109547
 20
198.4833333333333
 11
-125.4912901109547
 21
198.4833333333333
  0
LINE
  8
1
  6
CONTINUOUS
 62
     7
 10
-125.4912901109547
 20
175.1833333333334
 11
-125.4912901109547
 21
174.1833333333334
  0
LINE
  8
1
  6
CONTINUOUS
 62
     7
 10
-125.6912901109547
 20
174.1833333333334
 11
-125.4912901109547
 21
174.1833333333334
  0
LINE
  8
1
  6
CONTINUOUS
 62
     7
 10
-125.6912901109546
 20
175.1833333333334
 11
-125.4912901109547
 21
175.1833333333334
  0
LINE
  8
1
  6
CONTINUOUS
 62
     7
 10
-125.6912901109547
 20
173.1833333333333
 11
-125.4912901109547
 21
173.1833333333334
  0
LINE
  8
1
  6
CONTINUOUS
 62
     7
 10
-125.4912901109547
 20
174.1833333333334
 11
-125.4912901109547
 21
173.1833333333334
  0
LINE
  8
1
  6
CONTINUOUS
 62
     7
 10
-122.7782314975152
 20
189.9199810606061
 11
-123.0493906526809
 21
190.9291004922143
  0
LINE
  8
1
  6
CONTINUOUS
 62
     7
 10
-122.6448316911682
 20
189.3101325757576
 11
-122.7360981750664
 21
189.7381628787879
  0
LINE
  8
1
  6
CONTINUOUS
 62
     7
 10
-124.0669940338771
 20
178.1242622533147
 11
-123.6735143943528
 21
178.9969696969697
  0
LINE
  8
1
  6
CONTINUOUS
 62
     7
 10
-123.6735143943528
 20
178.9969696969697
 11
-123.8905576685161
 21
178.9969696969697
  0
LINE
  8
1
  6
CONTINUOUS
 62
     7
 10
-123.6735143943528
 20
178.9969696969697
 11
-123.5437732911058
 21
179.3154653916307
  0
LINE
  8
1
  6
CONTINUOUS
 62
     7
 10
-123.5437732911058
 20
179.3154653916307
 11
-123.5117295541927
 21
179.396957189495
  0
LINE
  8
1
  6
CONTINUOUS
 62
     7
 10
-123.636549052049
 20
179.0859284192939
 11
-123.6357449611929
 21
179.0878787878725
  0
LINE
  8
1
  6
CONTINUOUS
 62
     7
 10
-124.1197057526845
 20
178.0162843620988
 11
-124.100874793276
 21
178.0546562182376
  0
LINE
  8
1
  6
CONTINUOUS
 62
     7
 10
-124.100874793276
 20
178.0546562182376
 11
-124.0862158895233
 21
178.0846898852748
  0
LINE
  8
1
  6
CONTINUOUS
 62
     7
 10
-123.0991339577088
 20
191.091729193341
 11
-123.100202800365
 21
191.0951633012446
  0
ARC
  8
1
  6
CONTINUOUS
 62
     7
 10
-139.6554142096323
 20
185.2668940624808
 40
13.71569777320206
 50
2.366909275531307
 51
59.48416794881317
  0
LINE
  8
1
  6
CONTINUOUS
 62
     7
 10
-125.9514180056684
 20
185.8333333333336
 11
-125.9537244097481
 21
186.0867638076321
  0
LINE
  8
1
  6
CONTINUOUS
 62
     7
 10
-125.951676208185
 20
185.804531810944
 11
-125.9516906230481
 21
185.8593348878013
  0
ARC
  8
1
  6
CONTINUOUS
 62
     7
 10
-139.9996436822637
 20
185.8301776209943
 40
14.04798331790479
 50
0.1189202387152532
 51
357.4817865568346
  0
LINE
  8
1
  6
CONTINUOUS
 62
     7
 10
-125.9652264291436
 20
185.2129518394064
 11
-125.9514180056684
 21
185.8333333333333
  0
LINE
  8
1
  6
CONTINUOUS
 62
     7
 10
-123.656878976923
 20
179.5761458481242
 11
-123.4437153648687
 21
179.5761458481242
  0
LINE
  8
1
  6
CONTINUOUS
 62
     7
 10
-123.6838846585742
 20
179.5060606060606
 11
-123.4706260709374
 21
179.5060606060606
  0
LINE
  8
1
  6
CONTINUOUS
 62
     7
 10
-122.954671069592
 20
181.0606060606061
 11
-123.1624521409741
 21
181.0606060606061
  0
LINE
  8
1
  6
CONTINUOUS
 62
     7
 10
-124.1744620650841
 20
177.9060606060606
 11
-124.3984504901777
 21
177.9060606060606
  0
LINE
  8
1
  6
CONTINUOUS
 62
     7
 10
-125.2215703313554
 20
176.4606060606061
 11
-124.9852744456959
 21
176.4606060606061
  0
LINE
  8
1
  6
CONTINUOUS
 62
     7
 10
-123.0524071089701
 20
181.4710982181758
 11
-122.8107083334079
 21
181.4710982181758
  0
LINE
  8
1
  6
CONTINUOUS
 62
     7
 10
-122.6738238536864
 20
182.2060606060606
 11
-122.8800440256996
 21
182.2060606060606
  0
LINE
  8
1
  6
CONTINUOUS
 62
     7
 10
-123.4269766280478
 20
192.0482329278712
 11
-123.6407467588093
 21
192.0482329278712
  0
LINE
  8
1
  6
CONTINUOUS
 62
     7
 10
-124.1829262894788
 20
193.7775284975928
 11
-124.4070262940337
 21
193.7775284975928
  0
LINE
  8
1
  6
CONTINUOUS
 62
     7
 10
-123.7249268915479
 20
192.2654356060606
 11
-123.5100889904133
 21
192.2654356060606
  0
LINE
  8
1
  6
CONTINUOUS
 62
     7
 10
-125.3430385581129
 20
195.7563446969697
 11
-125.5850650520608
 21
195.7563446969697
  0
LINE
  8
1
  6
CONTINUOUS
 62
     7
 10
-124.5090034672938
 20
193.9745265151515
 11
-124.2834172424055
 21
193.9745265151515
  0
LINE
  8
1
  6
CONTINUOUS
 62
     7
 10
-124.2834172424055
 20
193.9745265151515
 11
-124.271744220101
 21
193.9745265151515
  0
LINE
  8
1
  6
CONTINUOUS
 62
     7
 10
-122.9787469776912
 20
180.9787878787879
 11
-123.1868090943524
 21
180.9787878787879
  0
LINE
  8
1
  6
CONTINUOUS
 62
     7
 10
-123.0493739458172
 20
190.929071969697
 11
-123.2583186202258
 21
190.929071969697
  0
LINE
  8
1
  6
CONTINUOUS
 62
     7
 10
-122.8488522325511
 20
189.3101325757576
 11
-122.6495397134397
 21
189.3101325757576
  0
LINE
  8
1
  6
CONTINUOUS
 62
     7
 10
-122.6495397134397
 20
189.3101325757576
 11
-122.6448329692149
 21
189.3101325757576
  0
LINE
  8
1
  6
CONTINUOUS
 62
     7
 10
-124.289452625219
 20
178.1242424242424
 11
-124.0676724588278
 21
178.1242424242424
  0
LINE
  8
1
  6
CONTINUOUS
 62
     7
 10
-123.5115227358921
 20
179.3969696969697
 11
-123.7263387407755
 21
179.3969696969697
  0
LINE
  8
1
  6
CONTINUOUS
 62
     7
 10
-124.3089190768788
 20
178.0847497982105
 11
-124.086162059229
 21
178.0847497982105
  0
LINE
  8
1
  6
CONTINUOUS
 62
     7
 10
-124.3434986967761
 20
178.0151515151515
 11
-124.1211389796948
 21
178.0151515151515
  0
LINE
  8
1
  6
CONTINUOUS
 62
     7
 10
-123.3087089615595
 20
191.0917291933409
 11
-123.1009388554657
 21
191.0917291933409
  0
LINE
  8
1
  6
CONTINUOUS
 62
     7
 10
-123.1009388554657
 20
191.0917291933409
 11
-123.0991386764643
 21
191.0917291933409
  0
ENDBLK
  8
0
  0
ENDSEC
  0
SECTION
  2
ENTITIES
  0
TEXT
  8
1
  6
CONTINUOUS
 62
     7
 10
-150.4553301237964
 20
151.6617533658455
 40
3.0
  1
MFPN-22PG21K
  0
LINE
  8
1
  6
CONTINUOUS
 62
     2
 10
-150.3704545454545
 20
151.1037878787879
 11
-129.6295454545455
 21
151.1037878787879
  0
INSERT
  8
1
  6
CONTINUOUS
 62
     7
  2
D_FRAME_VIEW_1491
 10
0.0
 20
0.0
 30
0.0
  0
LINE
  8
1
  6
CENTER
 62
     1
 10
-159.5
 20
185.8333333333333
 11
-120.5
 21
185.8333333333333
  0
LINE
  8
1
  6
CENTER
 62
     1
 10
-140.0
 20
166.3333333333334
 11
-140.0
 21
205.3333333333333
  0
LINE
  8
1
  6
CENTER
 62
     1
 10
-140.0
 20
264.8236859137199
 11
-140.0
 21
228.3333333333333
  0
LINE
  8
1
  6
CONTINUOUS
 62
     7
 10
-122.757931039585
 20
245.3236859137199
 11
-122.757931039585
 21
248.3236859137199
  0
INSERT
  8
1
  6
CONTINUOUS
 62
     7
  2
D_FRAME_VIEW_1892
 10
0.0
 20
0.0
 30
0.0
  0
ENDSEC
  0
EOF
