  0
SECTION
  2
HEADER
  9
$ACADVER
  1
AC1004
  9
$INSBASE
 10
0.0
 20
0.0
  9
$EXTMIN
 10
-196.0
 20
90.27045454545456
  9
$EXTMAX
 10
-149.0
 20
212.8677739913951
  9
$LIMMIN
 10
0.0
 20
0.0
  9
$LIMMAX
 10
12.0
 20
9.0
  9
$ORTHOMODE
 70
     0
  9
$REGENMODE
 70
     1
  9
$FILLMODE
 70
     1
  9
$QTEXTMODE
 70
     0
  9
$DRAGMODE
 70
     2
  9
$LTSCALE
 40
1.0
  9
$OSMODE
 70
    37
  9
$ATTMODE
 70
     1
  9
$TEXTSIZE
 40
0.2
  9
$TRACEWID
 40
0.05
  9
$TEXTSTYLE
  7
STANDARD
  9
$CLAYER
  8
0
  9
$CELTYPE
  6
BYLAYER
  9
$CECOLOR
 62
   256
  9
$DIMSCALE
 40
1.0
  9
$DIMASZ
 40
3.0
  9
$DIMEXO
 40
0.0625
  9
$DIMDLI
 40
0.38
  9
$DIMRND
 40
0.0
  9
$DIMDLE
 40
0.0
  9
$DIMEXE
 40
1.5
  9
$DIMTP
 40
0.0
  9
$DIMTM
 40
0.0
  9
$DIMTXT
 40
3.0
  9
$DIMCEN
 40
0.09
  9
$DIMTSZ
 40
0.0
  9
$DIMTOL
 70
     0
  9
$DIMLIM
 70
     0
  9
$DIMTIH
 70
     1
  9
$DIMTOH
 70
     1
  9
$DIMSE1
 70
     0
  9
$DIMSE2
 70
     0
  9
$DIMTAD
 70
     1
  9
$DIMZIN
 70
     0
  9
$DIMBLK
  1

  9
$DIMASO
 70
     1
  9
$DIMSHO
 70
     1
  9
$DIMPOST
  1

  9
$DIMAPOST
  1

  9
$DIMALT
 70
     0
  9
$DIMALTD
 70
     2
  9
$DIMALTF
 40
25.4
  9
$DIMLFAC
 40
1.0
  9
$DIMTOFL
 70
     0
  9
$DIMTVP
 40
0.0
  9
$DIMTIX
 70
     0
  9
$DIMSOXD
 70
     0
  9
$DIMSAH
 70
     0
  9
$DIMBLK1
  1

  9
$DIMBLK2
  1

  9
$LUNITS
 70
     2
  9
$LUPREC
 70
     4
  9
$SKETCHINC
 40
0.1
  9
$FILLETRAD
 40
0.5
  9
$AUNITS
 70
     0
  9
$AUPREC
 70
     0
  9
$MENU
  1
.
  9
$ELEVATION
 40
0.0
  9
$THICKNESS
 40
0.0
  9
$LIMCHECK
 70
     0
  9
$CHAMFERA
 40
0.0
  9
$CHAMFERB
 40
0.0
  9
$SKPOLY
 70
     0
  9
$TDCREATE
 40
2459460.41097059
  9
$TDUPDATE
 40
2459460.410970764
  9
$TDINDWG
 40
0.0000000116
  9
$TDUSRTIMER
 40
0.0000000116
  9
$USRTIMER
 70
     1
  9
$ANGBASE
 50
0.0
  9
$ANGDIR
 70
     0
  9
$PDMODE
 70
     0
  9
$PDSIZE
 40
0.0
  9
$PLINEWID
 40
0.0
  9
$COORDS
 70
     1
  9
$SPLFRAME
 70
     0
  9
$SPLINETYPE
 70
     6
  9
$SPLINESEGS
 70
     8
  9
$ATTDIA
 70
     0
  9
$ATTREQ
 70
     1
  9
$SURFTAB1
 70
     6
  9
$SURFTAB2
 70
     6
  9
$SURFTYPE
 70
     6
  9
$SURFU
 70
     6
  9
$SURFV
 70
     6
  9
$UCSNAME
  2

  9
$UCSORG
 10
0.0
 20
0.0
 30
0.0
  9
$UCSXDIR
 10
1.0
 20
0.0
 30
0.0
  9
$UCSYDIR
 10
0.0
 20
1.0
 30
0.0
  9
$USERI1
 70
     0
  9
$USERI2
 70
     0
  9
$USERI3
 70
     0
  9
$USERI4
 70
     0
  9
$USERI5
 70
     0
  9
$USERR1
 40
0.0
  9
$USERR2
 40
0.0
  9
$USERR3
 40
0.0
  9
$USERR4
 40
0.0
  9
$USERR5
 40
0.0
  9
$WORLDVIEW
 70
     1
  0
ENDSEC
  0
SECTION
  2
TABLES
  0
TABLE
  2
LTYPE
 70
     2
  0
LTYPE
  2
CONTINUOUS
 70
     0
  3
Solid line
 72
    65
 73
     0
 40
0.0
  0
LTYPE
  2
CENTER
 70
     0
  3

 72
    65
 73
     0
 40
0.0
  0
ENDTAB
  0
TABLE
  2
LAYER
 70
     2
  0
LAYER
  2
0
 70
     0
 62
     7
  6
CONTINUOUS
  0
LAYER
  2
1
 70
     0
 62
     7
  6
CONTINUOUS
  0
ENDTAB
  0
TABLE
  2
STYLE
 70
     2
  0
STYLE
  2
STANDARD
 70
     0
 40
0.0
 41
1.0
 50
0.0
 71
     0
 42
0.2
  3
txt
  4

  0
STYLE
  2
ＭＳ_ゴシック
 70
     0
 40
0.0
 41
1.0
 50
0.0
 71
     0
 42
0.2
  3
ＭＳ ゴシック.shx
  4

  0
ENDTAB
  0
TABLE
  2
VIEW
 70
     0
  0
ENDTAB
  0
ENDSEC
  0
SECTION
  2
BLOCKS
  0
BLOCK
  8
0
  2
D_FRAME_VIEW_1491
 70
     0
 10
0.0
 20
0.0
  0
LINE
  8
1
  6
CONTINUOUS
 62
     7
 10
-173.8084937553116
 20
192.867773991395
 11
-171.1915062446883
 21
192.867773991395
  0
LINE
  8
1
  6
CONTINUOUS
 62
     7
 10
-173.8084937553116
 20
195.867773991395
 11
-171.1915062446883
 21
195.867773991395
  0
LINE
  8
1
  6
CONTINUOUS
 62
     7
 10
-170.8657931467613
 20
192.867773991395
 11
-171.1915062446884
 21
192.867773991395
  0
LINE
  8
1
  6
CONTINUOUS
 62
     7
 10
-171.1915062446884
 20
195.867773991395
 11
-170.8657931467613
 21
195.867773991395
  0
LINE
  8
1
  6
CONTINUOUS
 62
     7
 10
-173.8084937553116
 20
192.867773991395
 11
-174.1342068532387
 21
192.867773991395
  0
LINE
  8
1
  6
CONTINUOUS
 62
     7
 10
-174.1342068532387
 20
195.867773991395
 11
-173.8084937553117
 21
195.867773991395
  0
LINE
  8
1
  6
CONTINUOUS
 62
     7
 10
-176.2884942399256
 20
192.867773991395
 11
-176.2884942399256
 21
195.867773991395
  0
LINE
  8
1
  6
CONTINUOUS
 62
     7
 10
-176.2884942399256
 20
192.867773991395
 11
-174.1342068532387
 21
192.867773991395
  0
LINE
  8
1
  6
CONTINUOUS
 62
     7
 10
-176.2884942399256
 20
195.867773991395
 11
-174.1342068532387
 21
195.867773991395
  0
LINE
  8
1
  6
CONTINUOUS
 62
     7
 10
-168.7115057600744
 20
192.867773991395
 11
-168.7115057600744
 21
195.867773991395
  0
LINE
  8
1
  6
CONTINUOUS
 62
     7
 10
-170.8657931467613
 20
192.867773991395
 11
-168.7115057600744
 21
192.867773991395
  0
LINE
  8
1
  6
CONTINUOUS
 62
     7
 10
-170.8657931467613
 20
195.867773991395
 11
-168.7115057600744
 21
195.867773991395
  0
LINE
  8
1
  6
CONTINUOUS
 62
     7
 10
-184.7860441884817
 20
192.867773991395
 11
-184.7860441884817
 21
195.867773991395
  0
LINE
  8
1
  6
CONTINUOUS
 62
     7
 10
-176.2884942399256
 20
192.867773991395
 11
-184.7860441884817
 21
192.867773991395
  0
LINE
  8
1
  6
CONTINUOUS
 62
     7
 10
-176.2884942399256
 20
195.867773991395
 11
-184.7860441884817
 21
195.867773991395
  0
LINE
  8
1
  6
CONTINUOUS
 62
     7
 10
-160.2139558115183
 20
192.867773991395
 11
-160.2139558115183
 21
195.867773991395
  0
LINE
  8
1
  6
CONTINUOUS
 62
     7
 10
-160.2139558115183
 20
192.867773991395
 11
-168.7115057600744
 21
192.867773991395
  0
LINE
  8
1
  6
CONTINUOUS
 62
     7
 10
-160.2139558115183
 20
195.867773991395
 11
-168.7115057600744
 21
195.867773991395
  0
LINE
  8
1
  6
CONTINUOUS
 62
     7
 10
-156.8340145322776
 20
192.867773991395
 11
-157.1673333720164
 21
192.867773991395
  0
LINE
  8
1
  6
CONTINUOUS
 62
     7
 10
-157.1673333720164
 20
195.867773991395
 11
-156.8340145322776
 21
195.867773991395
  0
LINE
  8
1
  6
CONTINUOUS
 62
     7
 10
-160.2139558115183
 20
192.867773991395
 11
-157.1673333720165
 21
192.867773991395
  0
LINE
  8
1
  6
CONTINUOUS
 62
     7
 10
-160.2139558115183
 20
195.867773991395
 11
-157.1673333720164
 21
195.867773991395
  0
LINE
  8
1
  6
CONTINUOUS
 62
     7
 10
-187.8326666279836
 20
192.867773991395
 11
-184.7860441884817
 21
192.867773991395
  0
LINE
  8
1
  6
CONTINUOUS
 62
     7
 10
-187.8326666279836
 20
195.867773991395
 11
-184.7860441884817
 21
195.867773991395
  0
LINE
  8
1
  6
CONTINUOUS
 62
     7
 10
-187.8326666279836
 20
192.867773991395
 11
-188.1659854677224
 21
192.867773991395
  0
LINE
  8
1
  6
CONTINUOUS
 62
     7
 10
-188.1659854677224
 20
195.867773991395
 11
-187.8326666279836
 21
195.867773991395
  0
LINE
  8
1
  6
CONTINUOUS
 62
     7
 10
-156.8340145322777
 20
192.867773991395
 11
-154.9835249172355
 21
192.867773991395
  0
LINE
  8
1
  6
CONTINUOUS
 62
     7
 10
-156.8340145322777
 20
195.867773991395
 11
-154.9835249172355
 21
195.867773991395
  0
LINE
  8
1
  6
CONTINUOUS
 62
     7
 10
-190.0164750827646
 20
192.867773991395
 11
-188.1659854677224
 21
192.867773991395
  0
LINE
  8
1
  6
CONTINUOUS
 62
     7
 10
-190.0164750827646
 20
195.867773991395
 11
-188.1659854677224
 21
195.867773991395
  0
POLYLINE
  8
1
  6
CONTINUOUS
 62
     7
 66
     1
  0
VERTEX
  8
1
  6
CONTINUOUS
 62
     7
 10
-155.9790871176883
 20
197.8223194459405
  0
VERTEX
  8
1
  6
CONTINUOUS
 62
     7
 10
-155.9792150956897
 20
197.8133750186884
  0
VERTEX
  8
1
  6
CONTINUOUS
 62
     7
 10
-155.9795977569646
 20
197.8044374175415
  0
VERTEX
  8
1
  6
CONTINUOUS
 62
     7
 10
-155.9802331924193
 20
197.7955134686051
  0
VERTEX
  8
1
  6
CONTINUOUS
 62
     7
 10
-155.9811194929599
 20
197.7866099979844
  0
VERTEX
  8
1
  6
CONTINUOUS
 62
     7
 10
-155.9822547494924
 20
197.7777338317847
  0
VERTEX
  8
1
  6
CONTINUOUS
 62
     7
 10
-155.983637052923
 20
197.7688917961111
  0
VERTEX
  8
1
  6
CONTINUOUS
 62
     7
 10
-155.9852644941579
 20
197.7600907170691
  0
VERTEX
  8
1
  6
CONTINUOUS
 62
     7
 10
-155.9871351641033
 20
197.7513374207637
  0
VERTEX
  8
1
  6
CONTINUOUS
 62
     7
 10
-155.9892471536653
 20
197.7426387333003
  0
VERTEX
  8
1
  6
CONTINUOUS
 62
     7
 10
-155.9915985537499
 20
197.734001480784
  0
VERTEX
  8
1
  6
CONTINUOUS
 62
     7
 10
-155.9941874552634
 20
197.7254324893201
  0
VERTEX
  8
1
  6
CONTINUOUS
 62
     7
 10
-155.9970119491119
 20
197.7169385850139
  0
VERTEX
  8
1
  6
CONTINUOUS
 62
     7
 10
-156.0000701262016
 20
197.7085265939706
  0
VERTEX
  8
1
  6
CONTINUOUS
 62
     7
 10
-156.0033600774385
 20
197.7002033422954
  0
VERTEX
  8
1
  6
CONTINUOUS
 62
     7
 10
-156.0068798937288
 20
197.6919756560936
  0
VERTEX
  8
1
  6
CONTINUOUS
 62
     7
 10
-156.0106276659788
 20
197.6838503614705
  0
VERTEX
  8
1
  6
CONTINUOUS
 62
     7
 10
-156.0146014850945
 20
197.6758342845311
  0
VERTEX
  8
1
  6
CONTINUOUS
 62
     7
 10
-156.018799441982
 20
197.6679342513809
  0
VERTEX
  8
1
  6
CONTINUOUS
 62
     7
 10
-156.0232196275475
 20
197.6601570881251
  0
VERTEX
  8
1
  6
CONTINUOUS
 62
     7
 10
-156.0278600649438
 20
197.652509579755
  0
VERTEX
  8
1
  6
CONTINUOUS
 62
     7
 10
-156.0327172144787
 20
197.6449975629047
  0
VERTEX
  8
1
  6
CONTINUOUS
 62
     7
 10
-156.0377859711004
 20
197.6376259243244
  0
VERTEX
  8
1
  6
CONTINUOUS
 62
     7
 10
-156.0430611615011
 20
197.6303995093458
  0
VERTEX
  8
1
  6
CONTINUOUS
 62
     7
 10
-156.0485376123729
 20
197.6233231633005
  0
VERTEX
  8
1
  6
CONTINUOUS
 62
     7
 10
-156.054210150408
 20
197.6164017315199
  0
VERTEX
  8
1
  6
CONTINUOUS
 62
     7
 10
-156.0600736022985
 20
197.6096400593357
  0
VERTEX
  8
1
  6
CONTINUOUS
 62
     7
 10
-156.0661227947367
 20
197.6030429920793
  0
VERTEX
  8
1
  6
CONTINUOUS
 62
     7
 10
-156.0723525544145
 20
197.5966153750825
  0
VERTEX
  8
1
  6
CONTINUOUS
 62
     7
 10
-156.0787577080241
 20
197.5903620536767
  0
VERTEX
  8
1
  6
CONTINUOUS
 62
     7
 10
-156.0853330822578
 20
197.5842878731935
  0
VERTEX
  8
1
  6
CONTINUOUS
 62
     7
 10
-156.0920735038076
 20
197.5783976789644
  0
VERTEX
  8
1
  6
CONTINUOUS
 62
     7
 10
-156.0989737993657
 20
197.572696316321
  0
VERTEX
  8
1
  6
CONTINUOUS
 62
     7
 10
-156.1060287956242
 20
197.567188630595
  0
VERTEX
  8
1
  6
CONTINUOUS
 62
     7
 10
-156.1132333192753
 20
197.5618794671177
  0
VERTEX
  8
1
  6
CONTINUOUS
 62
     7
 10
-156.1205821970111
 20
197.5567736712209
  0
VERTEX
  8
1
  6
CONTINUOUS
 62
     7
 10
-156.1280702555238
 20
197.551876088236
  0
VERTEX
  8
1
  6
CONTINUOUS
 62
     7
 10
-156.1356923215054
 20
197.5471915634946
  0
VERTEX
  8
1
  6
CONTINUOUS
 62
     7
 10
-156.1434432216482
 20
197.5427249423284
  0
VERTEX
  8
1
  6
CONTINUOUS
 62
     7
 10
-156.1513177826443
 20
197.5384810700688
  0
VERTEX
  8
1
  6
CONTINUOUS
 62
     7
 10
-156.2220203123684
 20
197.501675662484
  0
VERTEX
  8
1
  6
CONTINUOUS
 62
     7
 10
-156.2928002928454
 20
197.4648299368091
  0
VERTEX
  8
1
  6
CONTINUOUS
 62
     7
 10
-156.3635802733224
 20
197.4279842111341
  0
VERTEX
  8
1
  6
CONTINUOUS
 62
     7
 10
-156.4343602537994
 20
197.391138485459
  0
VERTEX
  8
1
  6
CONTINUOUS
 62
     7
 10
-156.5051402342763
 20
197.354292759784
  0
VERTEX
  8
1
  6
CONTINUOUS
 62
     7
 10
-156.5759202147533
 20
197.317447034109
  0
VERTEX
  8
1
  6
CONTINUOUS
 62
     7
 10
-156.6467001952303
 20
197.280601308434
  0
VERTEX
  8
1
  6
CONTINUOUS
 62
     7
 10
-156.7174801757073
 20
197.243755582759
  0
VERTEX
  8
1
  6
CONTINUOUS
 62
     7
 10
-156.7882601561842
 20
197.206909857084
  0
VERTEX
  8
1
  6
CONTINUOUS
 62
     7
 10
-156.8590401366612
 20
197.1700641314089
  0
VERTEX
  8
1
  6
CONTINUOUS
 62
     7
 10
-156.9298201171381
 20
197.1332184057339
  0
VERTEX
  8
1
  6
CONTINUOUS
 62
     7
 10
-157.0006000976151
 20
197.0963726800589
  0
VERTEX
  8
1
  6
CONTINUOUS
 62
     7
 10
-157.0713800780921
 20
197.059526954384
  0
VERTEX
  8
1
  6
CONTINUOUS
 62
     7
 10
-157.1421600585691
 20
197.022681228709
  0
VERTEX
  8
1
  6
CONTINUOUS
 62
     7
 10
-157.2129400390461
 20
196.985835503034
  0
VERTEX
  8
1
  6
CONTINUOUS
 62
     7
 10
-157.283720019523
 20
196.9489897773589
  0
VERTEX
  8
1
  6
CONTINUOUS
 62
     7
 10
-157.3545
 20
196.9121440516839
  0
SEQEND
  8
1
  6
CONTINUOUS
 62
     7
  0
POLYLINE
  8
1
  6
CONTINUOUS
 62
     7
 66
     1
  0
VERTEX
  8
1
  6
CONTINUOUS
 62
     7
 10
-155.9790871176883
 20
209.367773991395
  0
VERTEX
  8
1
  6
CONTINUOUS
 62
     7
 10
-155.9792150956897
 20
209.3767184186471
  0
VERTEX
  8
1
  6
CONTINUOUS
 62
     7
 10
-155.9795977569646
 20
209.385656019794
  0
VERTEX
  8
1
  6
CONTINUOUS
 62
     7
 10
-155.9802331924193
 20
209.3945799687305
  0
VERTEX
  8
1
  6
CONTINUOUS
 62
     7
 10
-155.9811194929598
 20
209.4034834393512
  0
VERTEX
  8
1
  6
CONTINUOUS
 62
     7
 10
-155.9822547494924
 20
209.4123596055509
  0
VERTEX
  8
1
  6
CONTINUOUS
 62
     7
 10
-155.983637052923
 20
209.4212016412244
  0
VERTEX
  8
1
  6
CONTINUOUS
 62
     7
 10
-155.985264494158
 20
209.4300027202665
  0
VERTEX
  8
1
  6
CONTINUOUS
 62
     7
 10
-155.9871351641033
 20
209.4387560165718
  0
VERTEX
  8
1
  6
CONTINUOUS
 62
     7
 10
-155.9892471536652
 20
209.4474547040353
  0
VERTEX
  8
1
  6
CONTINUOUS
 62
     7
 10
-155.9915985537499
 20
209.4560919565515
  0
VERTEX
  8
1
  6
CONTINUOUS
 62
     7
 10
-155.9941874552634
 20
209.4646609480154
  0
VERTEX
  8
1
  6
CONTINUOUS
 62
     7
 10
-155.9970119491119
 20
209.4731548523216
  0
VERTEX
  8
1
  6
CONTINUOUS
 62
     7
 10
-156.0000701262016
 20
209.4815668433649
  0
VERTEX
  8
1
  6
CONTINUOUS
 62
     7
 10
-156.0033600774385
 20
209.4898900950401
  0
VERTEX
  8
1
  6
CONTINUOUS
 62
     7
 10
-156.0068798937289
 20
209.4981177812419
  0
VERTEX
  8
1
  6
CONTINUOUS
 62
     7
 10
-156.0106276659788
 20
209.5062430758651
  0
VERTEX
  8
1
  6
CONTINUOUS
 62
     7
 10
-156.0146014850945
 20
209.5142591528044
  0
VERTEX
  8
1
  6
CONTINUOUS
 62
     7
 10
-156.018799441982
 20
209.5221591859546
  0
VERTEX
  8
1
  6
CONTINUOUS
 62
     7
 10
-156.0232196275475
 20
209.5299363492105
  0
VERTEX
  8
1
  6
CONTINUOUS
 62
     7
 10
-156.0278600649438
 20
209.5375838575805
  0
VERTEX
  8
1
  6
CONTINUOUS
 62
     7
 10
-156.0327172144787
 20
209.5450958744309
  0
VERTEX
  8
1
  6
CONTINUOUS
 62
     7
 10
-156.0377859711004
 20
209.5524675130111
  0
VERTEX
  8
1
  6
CONTINUOUS
 62
     7
 10
-156.0430611615011
 20
209.5596939279897
  0
VERTEX
  8
1
  6
CONTINUOUS
 62
     7
 10
-156.0485376123729
 20
209.5667702740351
  0
VERTEX
  8
1
  6
CONTINUOUS
 62
     7
 10
-156.054210150408
 20
209.5736917058157
  0
VERTEX
  8
1
  6
CONTINUOUS
 62
     7
 10
-156.0600736022986
 20
209.5804533779999
  0
VERTEX
  8
1
  6
CONTINUOUS
 62
     7
 10
-156.0661227947367
 20
209.5870504452562
  0
VERTEX
  8
1
  6
CONTINUOUS
 62
     7
 10
-156.0723525544145
 20
209.5934780622531
  0
VERTEX
  8
1
  6
CONTINUOUS
 62
     7
 10
-156.0787577080241
 20
209.5997313836589
  0
VERTEX
  8
1
  6
CONTINUOUS
 62
     7
 10
-156.0853330822578
 20
209.6058055641421
  0
VERTEX
  8
1
  6
CONTINUOUS
 62
     7
 10
-156.0920735038076
 20
209.6116957583712
  0
VERTEX
  8
1
  6
CONTINUOUS
 62
     7
 10
-156.0989737993658
 20
209.6173971210145
  0
VERTEX
  8
1
  6
CONTINUOUS
 62
     7
 10
-156.1060287956242
 20
209.6229048067406
  0
VERTEX
  8
1
  6
CONTINUOUS
 62
     7
 10
-156.1132333192753
 20
209.6282139702178
  0
VERTEX
  8
1
  6
CONTINUOUS
 62
     7
 10
-156.1205821970111
 20
209.6333197661147
  0
VERTEX
  8
1
  6
CONTINUOUS
 62
     7
 10
-156.1280702555238
 20
209.6382173490995
  0
VERTEX
  8
1
  6
CONTINUOUS
 62
     7
 10
-156.1356923215054
 20
209.6429018738409
  0
VERTEX
  8
1
  6
CONTINUOUS
 62
     7
 10
-156.1434432216482
 20
209.6473684950072
  0
VERTEX
  8
1
  6
CONTINUOUS
 62
     7
 10
-156.1513177826444
 20
209.6516123672668
  0
VERTEX
  8
1
  6
CONTINUOUS
 62
     7
 10
-156.2220203123684
 20
209.6884177748515
  0
VERTEX
  8
1
  6
CONTINUOUS
 62
     7
 10
-156.2928002928454
 20
209.7252635005265
  0
VERTEX
  8
1
  6
CONTINUOUS
 62
     7
 10
-156.3635802733224
 20
209.7621092262015
  0
VERTEX
  8
1
  6
CONTINUOUS
 62
     7
 10
-156.4343602537994
 20
209.7989549518765
  0
VERTEX
  8
1
  6
CONTINUOUS
 62
     7
 10
-156.5051402342764
 20
209.8358006775515
  0
VERTEX
  8
1
  6
CONTINUOUS
 62
     7
 10
-156.5759202147533
 20
209.8726464032265
  0
VERTEX
  8
1
  6
CONTINUOUS
 62
     7
 10
-156.6467001952303
 20
209.9094921289015
  0
VERTEX
  8
1
  6
CONTINUOUS
 62
     7
 10
-156.7174801757073
 20
209.9463378545765
  0
VERTEX
  8
1
  6
CONTINUOUS
 62
     7
 10
-156.7882601561842
 20
209.9831835802516
  0
VERTEX
  8
1
  6
CONTINUOUS
 62
     7
 10
-156.8590401366612
 20
210.0200293059265
  0
VERTEX
  8
1
  6
CONTINUOUS
 62
     7
 10
-156.9298201171382
 20
210.0568750316016
  0
VERTEX
  8
1
  6
CONTINUOUS
 62
     7
 10
-157.0006000976151
 20
210.0937207572766
  0
VERTEX
  8
1
  6
CONTINUOUS
 62
     7
 10
-157.0713800780921
 20
210.1305664829515
  0
VERTEX
  8
1
  6
CONTINUOUS
 62
     7
 10
-157.1421600585691
 20
210.1674122086266
  0
VERTEX
  8
1
  6
CONTINUOUS
 62
     7
 10
-157.2129400390461
 20
210.2042579343016
  0
VERTEX
  8
1
  6
CONTINUOUS
 62
     7
 10
-157.283720019523
 20
210.2411036599766
  0
VERTEX
  8
1
  6
CONTINUOUS
 62
     7
 10
-157.3545
 20
210.2779493856516
  0
SEQEND
  8
1
  6
CONTINUOUS
 62
     7
  0
POLYLINE
  8
1
  6
CONTINUOUS
 62
     7
 66
     1
  0
VERTEX
  8
1
  6
CONTINUOUS
 62
     7
 10
-157.3545
 20
198.7324948401971
  0
VERTEX
  8
1
  6
CONTINUOUS
 62
     7
 10
-157.2837200195231
 20
198.6956491145221
  0
VERTEX
  8
1
  6
CONTINUOUS
 62
     7
 10
-157.2129400390461
 20
198.658803388847
  0
VERTEX
  8
1
  6
CONTINUOUS
 62
     7
 10
-157.1421600585691
 20
198.621957663172
  0
VERTEX
  8
1
  6
CONTINUOUS
 62
     7
 10
-157.0713800780921
 20
198.5851119374971
  0
VERTEX
  8
1
  6
CONTINUOUS
 62
     7
 10
-157.0006000976151
 20
198.548266211822
  0
VERTEX
  8
1
  6
CONTINUOUS
 62
     7
 10
-156.9298201171382
 20
198.511420486147
  0
VERTEX
  8
1
  6
CONTINUOUS
 62
     7
 10
-156.8590401366612
 20
198.474574760472
  0
VERTEX
  8
1
  6
CONTINUOUS
 62
     7
 10
-156.7882601561842
 20
198.437729034797
  0
VERTEX
  8
1
  6
CONTINUOUS
 62
     7
 10
-156.7174801757072
 20
198.400883309122
  0
VERTEX
  8
1
  6
CONTINUOUS
 62
     7
 10
-156.6467001952303
 20
198.364037583447
  0
VERTEX
  8
1
  6
CONTINUOUS
 62
     7
 10
-156.5759202147533
 20
198.327191857772
  0
VERTEX
  8
1
  6
CONTINUOUS
 62
     7
 10
-156.5051402342763
 20
198.2903461320969
  0
VERTEX
  8
1
  6
CONTINUOUS
 62
     7
 10
-156.4343602537994
 20
198.253500406422
  0
VERTEX
  8
1
  6
CONTINUOUS
 62
     7
 10
-156.3635802733224
 20
198.216654680747
  0
VERTEX
  8
1
  6
CONTINUOUS
 62
     7
 10
-156.2928002928454
 20
198.1798089550719
  0
VERTEX
  8
1
  6
CONTINUOUS
 62
     7
 10
-156.2220203123684
 20
198.1429632293969
  0
VERTEX
  8
1
  6
CONTINUOUS
 62
     7
 10
-156.1513177826443
 20
198.1061578218122
  0
VERTEX
  8
1
  6
CONTINUOUS
 62
     7
 10
-156.1434432216482
 20
198.1019139495526
  0
VERTEX
  8
1
  6
CONTINUOUS
 62
     7
 10
-156.1356923215054
 20
198.0974473283864
  0
VERTEX
  8
1
  6
CONTINUOUS
 62
     7
 10
-156.1280702555237
 20
198.092762803645
  0
VERTEX
  8
1
  6
CONTINUOUS
 62
     7
 10
-156.1205821970111
 20
198.0878652206601
  0
VERTEX
  8
1
  6
CONTINUOUS
 62
     7
 10
-156.1132333192753
 20
198.0827594247633
  0
VERTEX
  8
1
  6
CONTINUOUS
 62
     7
 10
-156.1060287956242
 20
198.077450261286
  0
VERTEX
  8
1
  6
CONTINUOUS
 62
     7
 10
-156.0989737993657
 20
198.0719425755599
  0
VERTEX
  8
1
  6
CONTINUOUS
 62
     7
 10
-156.0920735038076
 20
198.0662412129166
  0
VERTEX
  8
1
  6
CONTINUOUS
 62
     7
 10
-156.0853330822578
 20
198.0603510186875
  0
VERTEX
  8
1
  6
CONTINUOUS
 62
     7
 10
-156.0787577080241
 20
198.0542768382043
  0
VERTEX
  8
1
  6
CONTINUOUS
 62
     7
 10
-156.0723525544145
 20
198.0480235167985
  0
VERTEX
  8
1
  6
CONTINUOUS
 62
     7
 10
-156.0661227947367
 20
198.0415958998016
  0
VERTEX
  8
1
  6
CONTINUOUS
 62
     7
 10
-156.0600736022986
 20
198.0349988325453
  0
VERTEX
  8
1
  6
CONTINUOUS
 62
     7
 10
-156.054210150408
 20
198.0282371603611
  0
VERTEX
  8
1
  6
CONTINUOUS
 62
     7
 10
-156.0485376123729
 20
198.0213157285805
  0
VERTEX
  8
1
  6
CONTINUOUS
 62
     7
 10
-156.0430611615011
 20
198.0142393825351
  0
VERTEX
  8
1
  6
CONTINUOUS
 62
     7
 10
-156.0377859711004
 20
198.0070129675566
  0
VERTEX
  8
1
  6
CONTINUOUS
 62
     7
 10
-156.0327172144787
 20
197.9996413289763
  0
VERTEX
  8
1
  6
CONTINUOUS
 62
     7
 10
-156.0278600649439
 20
197.992129312126
  0
VERTEX
  8
1
  6
CONTINUOUS
 62
     7
 10
-156.0232196275475
 20
197.9844818037559
  0
VERTEX
  8
1
  6
CONTINUOUS
 62
     7
 10
-156.018799441982
 20
197.9767046405001
  0
VERTEX
  8
1
  6
CONTINUOUS
 62
     7
 10
-156.0146014850944
 20
197.9688046073498
  0
VERTEX
  8
1
  6
CONTINUOUS
 62
     7
 10
-156.0106276659788
 20
197.9607885304105
  0
VERTEX
  8
1
  6
CONTINUOUS
 62
     7
 10
-156.0068798937289
 20
197.9526632357874
  0
VERTEX
  8
1
  6
CONTINUOUS
 62
     7
 10
-156.0033600774385
 20
197.9444355495855
  0
VERTEX
  8
1
  6
CONTINUOUS
 62
     7
 10
-156.0000701262016
 20
197.9361122979104
  0
VERTEX
  8
1
  6
CONTINUOUS
 62
     7
 10
-155.9970119491119
 20
197.9277003068671
  0
VERTEX
  8
1
  6
CONTINUOUS
 62
     7
 10
-155.9941874552634
 20
197.9192064025609
  0
VERTEX
  8
1
  6
CONTINUOUS
 62
     7
 10
-155.9915985537499
 20
197.910637411097
  0
VERTEX
  8
1
  6
CONTINUOUS
 62
     7
 10
-155.9892471536653
 20
197.9020001585807
  0
VERTEX
  8
1
  6
CONTINUOUS
 62
     7
 10
-155.9871351641033
 20
197.8933014711173
  0
VERTEX
  8
1
  6
CONTINUOUS
 62
     7
 10
-155.9852644941579
 20
197.8845481748119
  0
VERTEX
  8
1
  6
CONTINUOUS
 62
     7
 10
-155.983637052923
 20
197.8757470957698
  0
VERTEX
  8
1
  6
CONTINUOUS
 62
     7
 10
-155.9822547494923
 20
197.8669050600963
  0
VERTEX
  8
1
  6
CONTINUOUS
 62
     7
 10
-155.9811194929598
 20
197.8580288938966
  0
VERTEX
  8
1
  6
CONTINUOUS
 62
     7
 10
-155.9802331924193
 20
197.849125423276
  0
VERTEX
  8
1
  6
CONTINUOUS
 62
     7
 10
-155.9795977569647
 20
197.8402014743396
  0
VERTEX
  8
1
  6
CONTINUOUS
 62
     7
 10
-155.9792150956897
 20
197.8312638731926
  0
VERTEX
  8
1
  6
CONTINUOUS
 62
     7
 10
-155.9790871176883
 20
197.8223194459405
  0
SEQEND
  8
1
  6
CONTINUOUS
 62
     7
  0
LINE
  8
1
  6
CONTINUOUS
 62
     7
 10
-157.3545
 20
210.2779493856516
 11
-157.4720521865755
 21
210.2319155613319
  0
ARC
  8
1
  6
CONTINUOUS
 62
     7
 10
47.0366649000713
 20
-5850.775285142789
 40
6064.456455639832
 50
91.93252411909855
 51
92.21765091299116
  0
LINE
  8
1
  6
CONTINUOUS
 62
     7
 10
-157.3176419900553
 20
186.3565527928553
 11
-157.4310413141072
 21
186.3331588736031
  0
ARC
  8
1
  6
CONTINUOUS
 62
     7
 10
92.69530302798204
 20
-11182.2052207584
 40
11371.28964002323
 50
91.26039703865438
 51
91.41274111339563
  0
LINE
  8
1
  6
CONTINUOUS
 62
     7
 10
-187.6579930280452
 20
185.6279107882762
 11
-187.688
 21
185.6129152096637
  0
ARC
  8
1
  6
CONTINUOUS
 62
     7
 10
-476.5983254572281
 20
12913.92325832188
 40
12730.0712760147
 50
271.3006620475662
 51
271.4371755586621
  0
LINE
  8
1
  6
CONTINUOUS
 62
     7
 10
-187.6398950673468
 20
187.1319220140084
 11
-187.6879999999893
 21
187.1130800142169
  0
LINE
  8
1
  6
CONTINUOUS
 62
     7
 10
-157.3178628499609
 20
189.3563079756003
 11
-157.44561716499
 21
189.3312489327544
  0
ARC
  8
1
  6
CONTINUOUS
 62
     7
 10
42.36551866256622
 20
-9027.38423246856
 40
9218.881101039506
 50
91.24193285380842
 51
91.4297909368185
  0
LINE
  8
1
  6
CONTINUOUS
 62
     7
 10
-187.6637218649107
 20
188.6265804377331
 11
-187.687999999986
 21
188.6130814964701
  0
ARC
  8
1
  6
CONTINUOUS
 62
     7
 10
-30.85819790892627
 20
-6003.456300744561
 40
6195.567555289309
 50
91.17245072471925
 51
91.45026684743064
  0
LINE
  8
1
  6
CONTINUOUS
 62
     7
 10
-187.6632343409555
 20
190.1266294100916
 11
-187.6879999999839
 21
190.1129165308178
  0
POLYLINE
  8
1
  6
CONTINUOUS
 62
     7
 66
     1
  0
VERTEX
  8
1
  6
CONTINUOUS
 62
     7
 10
-156.6874806443234
 20
185.3677739913821
  0
VERTEX
  8
1
  6
CONTINUOUS
 62
     7
 10
-156.6875681258378
 20
185.3743165033236
  0
VERTEX
  8
1
  6
CONTINUOUS
 62
     7
 10
-156.68782978715
 20
185.3808546306742
  0
VERTEX
  8
1
  6
CONTINUOUS
 62
     7
 10
-156.6882644534125
 20
185.387383988843
  0
VERTEX
  8
1
  6
CONTINUOUS
 62
     7
 10
-156.6888709497776
 20
185.3939001932391
  0
VERTEX
  8
1
  6
CONTINUOUS
 62
     7
 10
-156.6896481013977
 20
185.4003988592716
  0
VERTEX
  8
1
  6
CONTINUOUS
 62
     7
 10
-156.6905947334253
 20
185.4068756023496
  0
VERTEX
  8
1
  6
CONTINUOUS
 62
     7
 10
-156.6917096710128
 20
185.4133260378823
  0
VERTEX
  8
1
  6
CONTINUOUS
 62
     7
 10
-156.6929917393125
 20
185.4197457812787
  0
VERTEX
  8
1
  6
CONTINUOUS
 62
     7
 10
-156.694439763477
 20
185.426130447948
  0
VERTEX
  8
1
  6
CONTINUOUS
 62
     7
 10
-156.6960525686586
 20
185.4324756532993
  0
VERTEX
  8
1
  6
CONTINUOUS
 62
     7
 10
-156.6978289800096
 20
185.4387770127416
  0
VERTEX
  8
1
  6
CONTINUOUS
 62
     7
 10
-156.6997678226826
 20
185.445030141684
  0
VERTEX
  8
1
  6
CONTINUOUS
 62
     7
 10
-156.7018679218299
 20
185.4512306555358
  0
VERTEX
  8
1
  6
CONTINUOUS
 62
     7
 10
-156.704128102604
 20
185.457374169706
  0
VERTEX
  8
1
  6
CONTINUOUS
 62
     7
 10
-156.7065471901572
 20
185.4634562996036
  0
VERTEX
  8
1
  6
CONTINUOUS
 62
     7
 10
-156.709124009642
 20
185.469472660638
  0
VERTEX
  8
1
  6
CONTINUOUS
 62
     7
 10
-156.7118573862108
 20
185.475418868218
  0
VERTEX
  8
1
  6
CONTINUOUS
 62
     7
 10
-156.7147461450159
 20
185.4812905377529
  0
VERTEX
  8
1
  6
CONTINUOUS
 62
     7
 10
-156.7177891112099
 20
185.4870832846517
  0
VERTEX
  8
1
  6
CONTINUOUS
 62
     7
 10
-156.720985109945
 20
185.4927927243236
  0
VERTEX
  8
1
  6
CONTINUOUS
 62
     7
 10
-156.7243326238498
 20
185.498414669934
  0
VERTEX
  8
1
  6
CONTINUOUS
 62
     7
 10
-156.7278287789777
 20
185.5039457178672
  0
VERTEX
  8
1
  6
CONTINUOUS
 62
     7
 10
-156.7314703655854
 20
185.5093826583799
  0
VERTEX
  8
1
  6
CONTINUOUS
 62
     7
 10
-156.7352541739295
 20
185.5147222817289
  0
VERTEX
  8
1
  6
CONTINUOUS
 62
     7
 10
-156.7391769942669
 20
185.5199613781707
  0
VERTEX
  8
1
  6
CONTINUOUS
 62
     7
 10
-156.7432356168542
 20
185.5250967379622
  0
VERTEX
  8
1
  6
CONTINUOUS
 62
     7
 10
-156.7474268319479
 20
185.53012515136
  0
VERTEX
  8
1
  6
CONTINUOUS
 62
     7
 10
-156.7517474298051
 20
185.5350434086207
  0
VERTEX
  8
1
  6
CONTINUOUS
 62
     7
 10
-156.756194200682
 20
185.5398483000012
  0
VERTEX
  8
1
  6
CONTINUOUS
 62
     7
 10
-156.7607639348358
 20
185.5445366157581
  0
VERTEX
  8
1
  6
CONTINUOUS
 62
     7
 10
-156.7654534225229
 20
185.549105146148
  0
VERTEX
  8
1
  6
CONTINUOUS
 62
     7
 10
-156.770259454
 20
185.5535506814278
  0
VERTEX
  8
1
  6
CONTINUOUS
 62
     7
 10
-156.7751788195239
 20
185.557870011854
  0
VERTEX
  8
1
  6
CONTINUOUS
 62
     7
 10
-156.7802083093513
 20
185.5620599276835
  0
VERTEX
  8
1
  6
CONTINUOUS
 62
     7
 10
-156.7853447137387
 20
185.5661172191727
  0
VERTEX
  8
1
  6
CONTINUOUS
 62
     7
 10
-156.790584822943
 20
185.5700386765786
  0
VERTEX
  8
1
  6
CONTINUOUS
 62
     7
 10
-156.7959254272209
 20
185.5738210901578
  0
VERTEX
  8
1
  6
CONTINUOUS
 62
     7
 10
-156.8013633168289
 20
185.5774612501669
  0
VERTEX
  8
1
  6
CONTINUOUS
 62
     7
 10
-156.8068952820239
 20
185.5809559468627
  0
VERTEX
  8
1
  6
CONTINUOUS
 62
     7
 10
-156.8126869808486
 20
185.5843994707895
  0
VERTEX
  8
1
  6
CONTINUOUS
 62
     7
 10
-156.8438940445456
 20
185.6024168774156
  0
VERTEX
  8
1
  6
CONTINUOUS
 62
     7
 10
-156.8751011082425
 20
185.6204342840416
  0
VERTEX
  8
1
  6
CONTINUOUS
 62
     7
 10
-156.9063081719395
 20
185.6384516906677
  0
VERTEX
  8
1
  6
CONTINUOUS
 62
     7
 10
-156.9375152356364
 20
185.6564690972938
  0
VERTEX
  8
1
  6
CONTINUOUS
 62
     7
 10
-156.9687222993334
 20
185.6744865039198
  0
VERTEX
  8
1
  6
CONTINUOUS
 62
     7
 10
-156.9999293630304
 20
185.6925039105459
  0
VERTEX
  8
1
  6
CONTINUOUS
 62
     7
 10
-157.0311364267273
 20
185.710521317172
  0
VERTEX
  8
1
  6
CONTINUOUS
 62
     7
 10
-157.0623434904243
 20
185.7285387237981
  0
VERTEX
  8
1
  6
CONTINUOUS
 62
     7
 10
-157.0935505541213
 20
185.7465561304241
  0
VERTEX
  8
1
  6
CONTINUOUS
 62
     7
 10
-157.1247576178182
 20
185.7645735370502
  0
VERTEX
  8
1
  6
CONTINUOUS
 62
     7
 10
-157.1559646815152
 20
185.7825909436762
  0
VERTEX
  8
1
  6
CONTINUOUS
 62
     7
 10
-157.1871717452121
 20
185.8006083503022
  0
VERTEX
  8
1
  6
CONTINUOUS
 62
     7
 10
-157.2183788089091
 20
185.8186257569283
  0
VERTEX
  8
1
  6
CONTINUOUS
 62
     7
 10
-157.2495858726061
 20
185.8366431635544
  0
VERTEX
  8
1
  6
CONTINUOUS
 62
     7
 10
-157.280792936303
 20
185.8546605701804
  0
VERTEX
  8
1
  6
CONTINUOUS
 62
     7
 10
-157.312
 20
185.8726779768065
  0
SEQEND
  8
1
  6
CONTINUOUS
 62
     7
  0
ARC
  8
1
  6
CONTINUOUS
 62
     7
 10
82.20697467032991
 20
-10489.32011378905
 40
10683.85863204984
 50
91.28490814690859
 51
91.44752614041408
  0
LINE
  8
1
  6
CONTINUOUS
 62
     7
 10
-157.3678505624552
 20
191.852067799483
 11
-157.312
 21
191.8726779768065
  0
ARC
  8
1
  6
CONTINUOUS
 62
     7
 10
455.9983738538036
 20
-26015.79363850001
 40
26213.32674741995
 50
91.34074132390873
 51
91.4070665016979
  0
LINE
  8
1
  6
CONTINUOUS
 62
     7
 10
-157.34668120189
 20
190.3565368012249
 11
-157.3120000000002
 21
190.3725439964174
  0
LINE
  8
1
  6
CONTINUOUS
 62
     7
 10
-187.6821759259306
 20
188.1291278023507
 11
-187.5441046176589
 21
188.1555232328758
  0
ARC
  8
1
  6
CONTINUOUS
 62
     7
 10
-361.4905257607015
 20
8290.895743986572
 40
8104.607112158376
 50
271.2298142249944
 51
271.4434629687112
  0
LINE
  8
1
  6
CONTINUOUS
 62
     7
 10
-157.3312864490959
 20
188.8604782368705
 11
-157.3120000000237
 21
188.8724376718002
  0
ARC
  8
1
  6
CONTINUOUS
 62
     7
 10
1634.09661676248
 20
-74763.79887930576
 40
74972.56539041633
 50
91.3691800584577
 51
91.39238279011568
  0
LINE
  8
1
  6
CONTINUOUS
 62
     7
 10
-157.3297810095231
 20
187.3609027924582
 11
-157.3120000000225
 21
187.3725422649421
  0
POLYLINE
  8
1
  6
CONTINUOUS
 62
     7
 66
     1
  0
VERTEX
  8
1
  6
CONTINUOUS
 62
     7
 10
-157.312
 20
191.8726779768065
  0
VERTEX
  8
1
  6
CONTINUOUS
 62
     7
 10
-157.280792936303
 20
191.8546605701804
  0
VERTEX
  8
1
  6
CONTINUOUS
 62
     7
 10
-157.2495858726061
 20
191.8366431635544
  0
VERTEX
  8
1
  6
CONTINUOUS
 62
     7
 10
-157.2183788089091
 20
191.8186257569283
  0
VERTEX
  8
1
  6
CONTINUOUS
 62
     7
 10
-157.1871717452121
 20
191.8006083503023
  0
VERTEX
  8
1
  6
CONTINUOUS
 62
     7
 10
-157.1559646815152
 20
191.7825909436762
  0
VERTEX
  8
1
  6
CONTINUOUS
 62
     7
 10
-157.1247576178182
 20
191.7645735370501
  0
VERTEX
  8
1
  6
CONTINUOUS
 62
     7
 10
-157.0935505541213
 20
191.7465561304241
  0
VERTEX
  8
1
  6
CONTINUOUS
 62
     7
 10
-157.0623434904243
 20
191.728538723798
  0
VERTEX
  8
1
  6
CONTINUOUS
 62
     7
 10
-157.0311364267273
 20
191.7105213171719
  0
VERTEX
  8
1
  6
CONTINUOUS
 62
     7
 10
-156.9999293630304
 20
191.6925039105459
  0
VERTEX
  8
1
  6
CONTINUOUS
 62
     7
 10
-156.9687222993334
 20
191.6744865039198
  0
VERTEX
  8
1
  6
CONTINUOUS
 62
     7
 10
-156.9375152356365
 20
191.6564690972938
  0
VERTEX
  8
1
  6
CONTINUOUS
 62
     7
 10
-156.9063081719395
 20
191.6384516906678
  0
VERTEX
  8
1
  6
CONTINUOUS
 62
     7
 10
-156.8751011082425
 20
191.6204342840417
  0
VERTEX
  8
1
  6
CONTINUOUS
 62
     7
 10
-156.8438940445455
 20
191.6024168774156
  0
VERTEX
  8
1
  6
CONTINUOUS
 62
     7
 10
-156.8126869808486
 20
191.5843994707896
  0
VERTEX
  8
1
  6
CONTINUOUS
 62
     7
 10
-156.8068952820239
 20
191.5809559468627
  0
VERTEX
  8
1
  6
CONTINUOUS
 62
     7
 10
-156.8013633168289
 20
191.5774612501669
  0
VERTEX
  8
1
  6
CONTINUOUS
 62
     7
 10
-156.7959254272209
 20
191.5738210901578
  0
VERTEX
  8
1
  6
CONTINUOUS
 62
     7
 10
-156.790584822943
 20
191.5700386765787
  0
VERTEX
  8
1
  6
CONTINUOUS
 62
     7
 10
-156.7853447137387
 20
191.5661172191728
  0
VERTEX
  8
1
  6
CONTINUOUS
 62
     7
 10
-156.7802083093512
 20
191.5620599276835
  0
VERTEX
  8
1
  6
CONTINUOUS
 62
     7
 10
-156.7751788195239
 20
191.557870011854
  0
VERTEX
  8
1
  6
CONTINUOUS
 62
     7
 10
-156.770259454
 20
191.5535506814278
  0
VERTEX
  8
1
  6
CONTINUOUS
 62
     7
 10
-156.7654534225229
 20
191.549105146148
  0
VERTEX
  8
1
  6
CONTINUOUS
 62
     7
 10
-156.7607639348358
 20
191.5445366157581
  0
VERTEX
  8
1
  6
CONTINUOUS
 62
     7
 10
-156.756194200682
 20
191.5398483000012
  0
VERTEX
  8
1
  6
CONTINUOUS
 62
     7
 10
-156.751747429805
 20
191.5350434086207
  0
VERTEX
  8
1
  6
CONTINUOUS
 62
     7
 10
-156.7474268319479
 20
191.5301251513599
  0
VERTEX
  8
1
  6
CONTINUOUS
 62
     7
 10
-156.7432356168541
 20
191.5250967379621
  0
VERTEX
  8
1
  6
CONTINUOUS
 62
     7
 10
-156.7391769942669
 20
191.5199613781707
  0
VERTEX
  8
1
  6
CONTINUOUS
 62
     7
 10
-156.7352541739295
 20
191.5147222817289
  0
VERTEX
  8
1
  6
CONTINUOUS
 62
     7
 10
-156.7314703655854
 20
191.5093826583799
  0
VERTEX
  8
1
  6
CONTINUOUS
 62
     7
 10
-156.7278287789777
 20
191.5039457178672
  0
VERTEX
  8
1
  6
CONTINUOUS
 62
     7
 10
-156.7243326238498
 20
191.4984146699339
  0
VERTEX
  8
1
  6
CONTINUOUS
 62
     7
 10
-156.720985109945
 20
191.4927927243236
  0
VERTEX
  8
1
  6
CONTINUOUS
 62
     7
 10
-156.7177891112099
 20
191.4870832846517
  0
VERTEX
  8
1
  6
CONTINUOUS
 62
     7
 10
-156.7147461450159
 20
191.4812905377528
  0
VERTEX
  8
1
  6
CONTINUOUS
 62
     7
 10
-156.7118573862107
 20
191.475418868218
  0
VERTEX
  8
1
  6
CONTINUOUS
 62
     7
 10
-156.709124009642
 20
191.469472660638
  0
VERTEX
  8
1
  6
CONTINUOUS
 62
     7
 10
-156.7065471901572
 20
191.4634562996037
  0
VERTEX
  8
1
  6
CONTINUOUS
 62
     7
 10
-156.704128102604
 20
191.457374169706
  0
VERTEX
  8
1
  6
CONTINUOUS
 62
     7
 10
-156.7018679218299
 20
191.4512306555358
  0
VERTEX
  8
1
  6
CONTINUOUS
 62
     7
 10
-156.6997678226826
 20
191.445030141684
  0
VERTEX
  8
1
  6
CONTINUOUS
 62
     7
 10
-156.6978289800096
 20
191.4387770127415
  0
VERTEX
  8
1
  6
CONTINUOUS
 62
     7
 10
-156.6960525686586
 20
191.4324756532993
  0
VERTEX
  8
1
  6
CONTINUOUS
 62
     7
 10
-156.694439763477
 20
191.426130447948
  0
VERTEX
  8
1
  6
CONTINUOUS
 62
     7
 10
-156.6929917393125
 20
191.4197457812787
  0
VERTEX
  8
1
  6
CONTINUOUS
 62
     7
 10
-156.6917096710128
 20
191.4133260378823
  0
VERTEX
  8
1
  6
CONTINUOUS
 62
     7
 10
-156.6905947334253
 20
191.4068756023496
  0
VERTEX
  8
1
  6
CONTINUOUS
 62
     7
 10
-156.6896481013978
 20
191.4003988592717
  0
VERTEX
  8
1
  6
CONTINUOUS
 62
     7
 10
-156.6888709497776
 20
191.3939001932391
  0
VERTEX
  8
1
  6
CONTINUOUS
 62
     7
 10
-156.6882644534125
 20
191.387383988843
  0
VERTEX
  8
1
  6
CONTINUOUS
 62
     7
 10
-156.68782978715
 20
191.3808546306742
  0
VERTEX
  8
1
  6
CONTINUOUS
 62
     7
 10
-156.6875681258378
 20
191.3743165033236
  0
VERTEX
  8
1
  6
CONTINUOUS
 62
     7
 10
-156.6874806443234
 20
191.3677739913821
  0
SEQEND
  8
1
  6
CONTINUOUS
 62
     7
  0
POLYLINE
  8
1
  6
CONTINUOUS
 62
     7
 66
     1
  0
VERTEX
  8
1
  6
CONTINUOUS
 62
     7
 10
-157.312
 20
184.8628700059836
  0
VERTEX
  8
1
  6
CONTINUOUS
 62
     7
 10
-157.280792936303
 20
184.8808874126097
  0
VERTEX
  8
1
  6
CONTINUOUS
 62
     7
 10
-157.2495858726061
 20
184.8989048192357
  0
VERTEX
  8
1
  6
CONTINUOUS
 62
     7
 10
-157.2183788089092
 20
184.9169222258618
  0
VERTEX
  8
1
  6
CONTINUOUS
 62
     7
 10
-157.1871717452121
 20
184.9349396324878
  0
VERTEX
  8
1
  6
CONTINUOUS
 62
     7
 10
-157.1559646815152
 20
184.9529570391139
  0
VERTEX
  8
1
  6
CONTINUOUS
 62
     7
 10
-157.1247576178182
 20
184.97097444574
  0
VERTEX
  8
1
  6
CONTINUOUS
 62
     7
 10
-157.0935505541213
 20
184.988991852366
  0
VERTEX
  8
1
  6
CONTINUOUS
 62
     7
 10
-157.0623434904243
 20
185.0070092589921
  0
VERTEX
  8
1
  6
CONTINUOUS
 62
     7
 10
-157.0311364267274
 20
185.0250266656182
  0
VERTEX
  8
1
  6
CONTINUOUS
 62
     7
 10
-156.9999293630303
 20
185.0430440722442
  0
VERTEX
  8
1
  6
CONTINUOUS
 62
     7
 10
-156.9687222993334
 20
185.0610614788703
  0
VERTEX
  8
1
  6
CONTINUOUS
 62
     7
 10
-156.9375152356365
 20
185.0790788854963
  0
VERTEX
  8
1
  6
CONTINUOUS
 62
     7
 10
-156.9063081719395
 20
185.0970962921224
  0
VERTEX
  8
1
  6
CONTINUOUS
 62
     7
 10
-156.8751011082425
 20
185.1151136987484
  0
VERTEX
  8
1
  6
CONTINUOUS
 62
     7
 10
-156.8438940445456
 20
185.1331311053744
  0
VERTEX
  8
1
  6
CONTINUOUS
 62
     7
 10
-156.8126869808486
 20
185.1511485120006
  0
VERTEX
  8
1
  6
CONTINUOUS
 62
     7
 10
-156.8068952820239
 20
185.1545920359274
  0
VERTEX
  8
1
  6
CONTINUOUS
 62
     7
 10
-156.801363316829
 20
185.1580867326231
  0
VERTEX
  8
1
  6
CONTINUOUS
 62
     7
 10
-156.7959254272211
 20
185.1617268926321
  0
VERTEX
  8
1
  6
CONTINUOUS
 62
     7
 10
-156.7905848229433
 20
185.1655093062111
  0
VERTEX
  8
1
  6
CONTINUOUS
 62
     7
 10
-156.7853447137392
 20
185.1694307636168
  0
VERTEX
  8
1
  6
CONTINUOUS
 62
     7
 10
-156.7802083093519
 20
185.1734880551059
  0
VERTEX
  8
1
  6
CONTINUOUS
 62
     7
 10
-156.7751788195249
 20
185.177677970935
  0
VERTEX
  8
1
  6
CONTINUOUS
 62
     7
 10
-156.7702594540012
 20
185.181997301361
  0
VERTEX
  8
1
  6
CONTINUOUS
 62
     7
 10
-156.7654534225244
 20
185.1864428366403
  0
VERTEX
  8
1
  6
CONTINUOUS
 62
     7
 10
-156.7607639348375
 20
185.1910113670299
  0
VERTEX
  8
1
  6
CONTINUOUS
 62
     7
 10
-156.7561942006841
 20
185.1956996827864
  0
VERTEX
  8
1
  6
CONTINUOUS
 62
     7
 10
-156.7517474298074
 20
185.2005045741665
  0
VERTEX
  8
1
  6
CONTINUOUS
 62
     7
 10
-156.7474268319505
 20
185.2054228314267
  0
VERTEX
  8
1
  6
CONTINUOUS
 62
     7
 10
-156.743235616857
 20
185.210451244824
  0
VERTEX
  8
1
  6
CONTINUOUS
 62
     7
 10
-156.73917699427
 20
185.2155866046149
  0
VERTEX
  8
1
  6
CONTINUOUS
 62
     7
 10
-156.7352541739329
 20
185.2208257010562
  0
VERTEX
  8
1
  6
CONTINUOUS
 62
     7
 10
-156.731470365589
 20
185.2261653244046
  0
VERTEX
  8
1
  6
CONTINUOUS
 62
     7
 10
-156.7278287789816
 20
185.2316022649167
  0
VERTEX
  8
1
  6
CONTINUOUS
 62
     7
 10
-156.7243326238539
 20
185.2371333128493
  0
VERTEX
  8
1
  6
CONTINUOUS
 62
     7
 10
-156.7209851099494
 20
185.2427552584591
  0
VERTEX
  8
1
  6
CONTINUOUS
 62
     7
 10
-156.7177891112144
 20
185.2484646981302
  0
VERTEX
  8
1
  6
CONTINUOUS
 62
     7
 10
-156.7147461450205
 20
185.2542574450284
  0
VERTEX
  8
1
  6
CONTINUOUS
 62
     7
 10
-156.7118573862155
 20
185.2601291145626
  0
VERTEX
  8
1
  6
CONTINUOUS
 62
     7
 10
-156.7091240096468
 20
185.2660753221419
  0
VERTEX
  8
1
  6
CONTINUOUS
 62
     7
 10
-156.706547190162
 20
185.2720916831755
  0
VERTEX
  8
1
  6
CONTINUOUS
 62
     7
 10
-156.7041281026087
 20
185.2781738130724
  0
VERTEX
  8
1
  6
CONTINUOUS
 62
     7
 10
-156.7018679218347
 20
185.2843173272418
  0
VERTEX
  8
1
  6
CONTINUOUS
 62
     7
 10
-156.6997678226872
 20
185.2905178410927
  0
VERTEX
  8
1
  6
CONTINUOUS
 62
     7
 10
-156.6978289800141
 20
185.2967709700344
  0
VERTEX
  8
1
  6
CONTINUOUS
 62
     7
 10
-156.6960525686629
 20
185.3030723294758
  0
VERTEX
  8
1
  6
CONTINUOUS
 62
     7
 10
-156.6944397634811
 20
185.3094175348261
  0
VERTEX
  8
1
  6
CONTINUOUS
 62
     7
 10
-156.6929917393164
 20
185.3158022014944
  0
VERTEX
  8
1
  6
CONTINUOUS
 62
     7
 10
-156.6917096710163
 20
185.3222219448898
  0
VERTEX
  8
1
  6
CONTINUOUS
 62
     7
 10
-156.6905947334285
 20
185.3286723804215
  0
VERTEX
  8
1
  6
CONTINUOUS
 62
     7
 10
-156.6896481014005
 20
185.3351491234985
  0
VERTEX
  8
1
  6
CONTINUOUS
 62
     7
 10
-156.6888709497799
 20
185.3416477895299
  0
VERTEX
  8
1
  6
CONTINUOUS
 62
     7
 10
-156.6882644534143
 20
185.3481639939249
  0
VERTEX
  8
1
  6
CONTINUOUS
 62
     7
 10
-156.6878297871513
 20
185.3546933520925
  0
VERTEX
  8
1
  6
CONTINUOUS
 62
     7
 10
-156.6875681258385
 20
185.3612314794419
  0
VERTEX
  8
1
  6
CONTINUOUS
 62
     7
 10
-156.6874806443234
 20
185.3677739913821
  0
SEQEND
  8
1
  6
CONTINUOUS
 62
     7
  0
LINE
  8
1
  6
CONTINUOUS
 62
     7
 10
-154.8562158764432
 20
195.867773991395
 11
-154.8562158764432
 21
192.867773991395
  0
LINE
  8
1
  6
CONTINUOUS
 62
     7
 10
-154.8562158764432
 20
192.867773991395
 11
-154.9835249172354
 21
192.867773991395
  0
LINE
  8
1
  6
CONTINUOUS
 62
     7
 10
-154.9835249172354
 20
195.867773991395
 11
-154.8562158764432
 21
195.867773991395
  0
LINE
  8
1
  6
CONTINUOUS
 62
     7
 10
-190.1437841235568
 20
192.867773991395
 11
-190.1437841235568
 21
195.867773991395
  0
LINE
  8
1
  6
CONTINUOUS
 62
     7
 10
-190.0164750827646
 20
192.867773991395
 11
-190.1437841235568
 21
192.867773991395
  0
LINE
  8
1
  6
CONTINUOUS
 62
     7
 10
-190.1437841235568
 20
195.867773991395
 11
-190.0164750827646
 21
195.867773991395
  0
LINE
  8
1
  6
CONTINUOUS
 62
     7
 10
-157.312
 20
183.8677739913951
 11
-187.688
 21
183.8677739913951
  0
LINE
  8
1
  6
CONTINUOUS
 62
     7
 10
-157.312
 20
185.8726779768065
 11
-157.4254793101127
 21
185.7985163916737
  0
ARC
  8
1
  6
CONTINUOUS
 62
     7
 10
-170.4915155334674
 20
290.2247931388933
 40
105.240527259592
 50
273.5683432277341
 51
277.1319050704138
  0
POLYLINE
  8
1
  6
CONTINUOUS
 62
     7
 66
     1
  0
VERTEX
  8
1
  6
CONTINUOUS
 62
     7
 10
-163.9414413773287
 20
185.1882989741222
  0
VERTEX
  8
1
  6
CONTINUOUS
 62
     7
 10
-164.0380337981611
 20
185.1531254514278
  0
VERTEX
  8
1
  6
CONTINUOUS
 62
     7
 10
-163.955916799935
 20
185.0863616675754
  0
SEQEND
  8
1
  6
CONTINUOUS
 62
     7
  0
ARC
  8
1
  6
CONTINUOUS
 62
     7
 10
-141.2337224377768
 20
761.701070478867
 40
577.0622328087001
 50
267.7433586616568
 51
268.4034015280257
  0
LINE
  8
1
  6
CONTINUOUS
 62
     7
 10
-187.6454999999905
 20
207.3030816601484
 11
-187.5183099221873
 21
207.3509091425124
  0
ARC
  8
1
  6
CONTINUOUS
 62
     7
 10
1289.093069161936
 20
-41361.10253624136
 40
41594.67156987643
 50
91.99305774438848
 51
92.03442838200539
  0
LINE
  8
1
  6
CONTINUOUS
 62
     7
 10
-187.6454999999986
 20
204.9941137182471
 11
-187.5260174971719
 21
205.040306583638
  0
ARC
  8
1
  6
CONTINUOUS
 62
     7
 10
-389.4541847067011
 20
6198.709334249585
 40
5997.069567540022
 50
271.9295789221121
 51
272.2178839700008
  0
LINE
  8
1
  6
CONTINUOUS
 62
     7
 10
-187.6454999999905
 20
202.68508437835
 11
-187.5266081943031
 21
202.7309605149535
  0
ARC
  8
1
  6
CONTINUOUS
 62
     7
 10
-393.5731485769397
 20
6305.515556242442
 40
6106.26194972443
 50
271.9337261890095
 51
272.2168901926863
  0
LINE
  8
1
  6
CONTINUOUS
 62
     7
 10
-187.6454999999746
 20
200.3759292508149
 11
-187.5413667137734
 21
200.4189290575694
  0
ARC
  8
1
  6
CONTINUOUS
 62
     7
 10
364.2403594771754
 20
-15029.21145572707
 40
15239.62285394602
 50
91.96199579887877
 51
92.07496445731317
  0
POLYLINE
  8
1
  6
CONTINUOUS
 62
     7
 66
     1
  0
VERTEX
  8
1
  6
CONTINUOUS
 62
     7
 10
-157.5124315262771
 20
201.4772600071562
  0
VERTEX
  8
1
  6
CONTINUOUS
 62
     7
 10
-157.3744314765908
 20
201.5116875371658
  0
VERTEX
  8
1
  6
CONTINUOUS
 62
     7
 10
-157.3707427216805
 20
201.513514307062
  0
SEQEND
  8
1
  6
CONTINUOUS
 62
     7
  0
LINE
  8
1
  6
CONTINUOUS
 62
     7
 10
-187.6454999999814
 20
198.0667158204257
 11
-187.549715415138
 21
198.1081312398197
  0
ARC
  8
1
  6
CONTINUOUS
 62
     7
 10
-479.7625863253061
 20
8666.57264417807
 40
8473.504562388576
 50
271.9762642938965
 51
272.1804463212483
  0
LINE
  8
1
  6
CONTINUOUS
 62
     7
 10
-157.3545000000236
 20
201.0414982955288
 11
-157.4670740192289
 21
200.9965708615484
  0
ARC
  8
1
  6
CONTINUOUS
 62
     7
 10
69.33065936574181
 20
-6477.329116056479
 40
6682.175633161529
 50
91.94503255013734
 51
92.20382564362527
  0
LINE
  8
1
  6
CONTINUOUS
 62
     7
 10
-157.3545000000255
 20
203.3504801211066
 11
-157.462012560398
 21
203.3067899846122
  0
ARC
  8
1
  6
CONTINUOUS
 62
     7
 10
93.54307803357867
 20
-7143.343375160925
 40
7350.936824958914
 50
91.95680208208182
 51
92.19207426973428
  0
LINE
  8
1
  6
CONTINUOUS
 62
     7
 10
-157.3545000000246
 20
205.6595721137371
 11
-157.4569984640987
 21
205.616973115633
  0
ARC
  8
1
  6
CONTINUOUS
 62
     7
 10
94.0541247268328
 20
-7142.341199464672
 40
7352.261363082685
 50
91.96039520931974
 51
92.19567893490633
  0
LINE
  8
1
  6
CONTINUOUS
 62
     7
 10
-157.3545000000222
 20
207.9687728858447
 11
-157.5029511728129
 21
207.9172461576601
  0
ARC
  8
1
  6
CONTINUOUS
 62
     7
 10
38.0259235512079
 20
-5630.760567549234
 40
5841.950885887689
 50
91.9180359806298
 51
92.21370830527158
  0
LINE
  8
1
  6
CONTINUOUS
 62
     7
 10
-157.3545
 20
198.7324948401971
 11
-157.4722234928623
 21
198.6246089165051
  0
ARC
  8
1
  6
CONTINUOUS
 62
     7
 10
-175.8805807722929
 20
324.6838362267213
 40
127.396218184748
 50
272.5514594417459
 51
278.3081462745922
  0
POLYLINE
  8
1
  6
CONTINUOUS
 62
     7
 66
     1
  0
VERTEX
  8
1
  6
CONTINUOUS
 62
     7
 10
-170.2093277230958
 20
197.4139132416425
  0
VERTEX
  8
1
  6
CONTINUOUS
 62
     7
 10
-170.3223373622526
 20
197.3897509984006
  0
VERTEX
  8
1
  6
CONTINUOUS
 62
     7
 10
-170.4334852200691
 20
197.3587095897863
  0
VERTEX
  8
1
  6
CONTINUOUS
 62
     7
 10
-170.5246219307958
 20
197.3122309928031
  0
VERTEX
  8
1
  6
CONTINUOUS
 62
     7
 10
-170.4314452828282
 20
197.2316516612944
  0
VERTEX
  8
1
  6
CONTINUOUS
 62
     7
 10
-170.2919643883417
 20
197.2012516839039
  0
SEQEND
  8
1
  6
CONTINUOUS
 62
     7
  0
ARC
  8
1
  6
CONTINUOUS
 62
     7
 10
-102.8206208510392
 20
2926.902000765889
 40
2730.534482795901
 50
268.584080605813
 51
268.8556200658824
  0
LINE
  8
1
  6
CONTINUOUS
 62
     7
 10
-157.3545
 20
210.867773991395
 11
-187.6455
 21
210.867773991395
  0
LINE
  8
1
  6
CONTINUOUS
 62
     7
 10
-193.6635845591915
 20
192.867773991395
 11
-193.6635845591915
 21
195.867773991395
  0
LINE
  8
1
  6
CONTINUOUS
 62
     7
 10
-190.1437841235568
 20
192.867773991395
 11
-193.6635845591915
 21
192.867773991395
  0
LINE
  8
1
  6
CONTINUOUS
 62
     7
 10
-190.1437841235568
 20
195.867773991395
 11
-193.6635845591915
 21
195.867773991395
  0
LINE
  8
1
  6
CONTINUOUS
 62
     7
 10
-151.3364154408085
 20
192.867773991395
 11
-151.3364154408085
 21
195.867773991395
  0
LINE
  8
1
  6
CONTINUOUS
 62
     7
 10
-151.3364154408085
 20
192.867773991395
 11
-154.8562158764432
 21
192.867773991395
  0
LINE
  8
1
  6
CONTINUOUS
 62
     7
 10
-151.3364154408085
 20
195.867773991395
 11
-154.8562158764432
 21
195.867773991395
  0
LINE
  8
1
  6
CONTINUOUS
 62
     7
 10
-151.3364154408085
 20
192.867773991395
 11
-149.1821280541216
 21
192.867773991395
  0
LINE
  8
1
  6
CONTINUOUS
 62
     7
 10
-151.3364154408085
 20
195.867773991395
 11
-149.1821280541216
 21
195.867773991395
  0
LINE
  8
1
  6
CONTINUOUS
 62
     7
 10
-195.8178719458784
 20
192.867773991395
 11
-193.6635845591915
 21
192.867773991395
  0
LINE
  8
1
  6
CONTINUOUS
 62
     7
 10
-195.8178719458784
 20
195.867773991395
 11
-193.6635845591915
 21
195.867773991395
  0
LINE
  8
1
  6
CONTINUOUS
 62
     7
 10
-149.0364571282956
 20
192.867773991395
 11
-149.1821280541216
 21
192.867773991395
  0
LINE
  8
1
  6
CONTINUOUS
 62
     7
 10
-149.1821280541216
 20
195.867773991395
 11
-149.0364571282956
 21
195.867773991395
  0
LINE
  8
1
  6
CONTINUOUS
 62
     7
 10
-195.8178719458784
 20
192.867773991395
 11
-195.9635428717044
 21
192.867773991395
  0
LINE
  8
1
  6
CONTINUOUS
 62
     7
 10
-195.9635428717044
 20
195.867773991395
 11
-195.8178719458785
 21
195.867773991395
  0
LINE
  8
1
  6
CONTINUOUS
 62
     7
 10
-149.0364571282957
 20
192.867773991395
 11
-149.0000000000001
 21
192.867773991395
  0
LINE
  8
1
  6
CONTINUOUS
 62
     7
 10
-149.0364571282957
 20
195.867773991395
 11
-149.0000000000001
 21
195.867773991395
  0
LINE
  8
1
  6
CONTINUOUS
 62
     7
 10
-196.0
 20
192.867773991395
 11
-195.9635428717044
 21
192.867773991395
  0
LINE
  8
1
  6
CONTINUOUS
 62
     7
 10
-196.0
 20
195.867773991395
 11
-195.9635428717044
 21
195.867773991395
  0
POLYLINE
  8
1
  6
CONTINUOUS
 62
     7
 66
     1
  0
VERTEX
  8
1
  6
CONTINUOUS
 62
     7
 10
-155.9790871176883
 20
197.8223194434145
  0
VERTEX
  8
1
  6
CONTINUOUS
 62
     7
 10
-155.9848277119369
 20
197.878027298842
  0
VERTEX
  8
1
  6
CONTINUOUS
 62
     7
 10
-156.0018079797242
 20
197.9324926964507
  0
VERTEX
  8
1
  6
CONTINUOUS
 62
     7
 10
-156.02965877389
 20
197.9844731783599
  0
VERTEX
  8
1
  6
CONTINUOUS
 62
     7
 10
-156.0679851005158
 20
198.0327367854151
  0
VERTEX
  8
1
  6
CONTINUOUS
 62
     7
 10
-156.1160789283201
 20
198.0762372670487
  0
VERTEX
  8
1
  6
CONTINUOUS
 62
     7
 10
-156.1506650687733
 20
198.1006118057655
  0
VERTEX
  8
1
  6
CONTINUOUS
 62
     7
 10
-156.1884450723458
 20
198.1225639197687
  0
VERTEX
  8
1
  6
CONTINUOUS
 62
     7
 10
-156.2291779332422
 20
198.1418782950684
  0
VERTEX
  8
1
  6
CONTINUOUS
 62
     7
 10
-156.2295071482261
 20
198.1420182371597
  0
VERTEX
  8
1
  6
CONTINUOUS
 62
     7
 10
-156.2295894778201
 20
198.1420531954617
  0
VERTEX
  8
1
  6
CONTINUOUS
 62
     7
 10
-156.229630646493
 20
198.1420706705285
  0
VERTEX
  8
1
  6
CONTINUOUS
 62
     7
 10
-156.229640939065
 20
198.1420750388697
  0
VERTEX
  8
1
  6
CONTINUOUS
 62
     7
 10
-156.2296425529549
 20
198.1420757238101
  0
VERTEX
  8
1
  6
CONTINUOUS
 62
     7
 10
-156.2296447666834
 20
198.1420767566288
  0
VERTEX
  8
1
  6
CONTINUOUS
 62
     7
 10
-156.2296589297523
 20
198.1420839415106
  0
VERTEX
  8
1
  6
CONTINUOUS
 62
     7
 10
-156.4908229717881
 20
198.2743674123579
  0
VERTEX
  8
1
  6
CONTINUOUS
 62
     7
 10
-157.0212992998749
 20
198.5419062824188
  0
VERTEX
  8
1
  6
CONTINUOUS
 62
     7
 10
-157.5544263745389
 20
198.8094451524795
  0
SEQEND
  8
1
  6
CONTINUOUS
 62
     7
  0
LINE
  8
1
  6
CONTINUOUS
 62
     7
 10
-157.4213283188779
 20
199.1780735707088
 11
-156.1352789898712
 21
199.8501763207001
  0
POLYLINE
  8
1
  6
CONTINUOUS
 62
     7
 66
     1
  0
VERTEX
  8
1
  6
CONTINUOUS
 62
     7
 10
-156.1352789898712
 20
199.8501763207001
  0
VERTEX
  8
1
  6
CONTINUOUS
 62
     7
 10
-156.1180807616728
 20
199.8620004672816
  0
VERTEX
  8
1
  6
CONTINUOUS
 62
     7
 10
-156.0949698782527
 20
199.8804711670003
  0
VERTEX
  8
1
  6
CONTINUOUS
 62
     7
 10
-156.0732081153643
 20
199.9011343371925
  0
VERTEX
  8
1
  6
CONTINUOUS
 62
     7
 10
-156.0530573863829
 20
199.9239282331629
  0
VERTEX
  8
1
  6
CONTINUOUS
 62
     7
 10
-156.0347990275164
 20
199.9487761020671
  0
VERTEX
  8
1
  6
CONTINUOUS
 62
     7
 10
-156.0217553799936
 20
199.9700708165068
  0
VERTEX
  8
1
  6
CONTINUOUS
 62
     7
 10
-156.0102453559534
 20
199.9925456384301
  0
VERTEX
  8
1
  6
CONTINUOUS
 62
     7
 10
-156.0003754772639
 20
200.0160984512298
  0
VERTEX
  8
1
  6
CONTINUOUS
 62
     7
 10
-155.9922549132379
 20
200.0406160031218
  0
VERTEX
  8
1
  6
CONTINUOUS
 62
     7
 10
-155.9859967912491
 20
200.0659742944276
  0
VERTEX
  8
1
  6
CONTINUOUS
 62
     7
 10
-155.9817182888729
 20
200.0920382203981
  0
VERTEX
  8
1
  6
CONTINUOUS
 62
     7
 10
-155.979540726623
 20
200.118661209488
  0
VERTEX
  8
1
  6
CONTINUOUS
 62
     7
 10
-155.9795871693226
 20
200.145684857079
  0
VERTEX
  8
1
  6
CONTINUOUS
 62
     7
 10
-155.9819356760936
 20
200.1729385546535
  0
VERTEX
  8
1
  6
CONTINUOUS
 62
     7
 10
-155.9866196475567
 20
200.2002391144191
  0
VERTEX
  8
1
  6
CONTINUOUS
 62
     7
 10
-155.9936682117804
 20
200.2273903893815
  0
VERTEX
  8
1
  6
CONTINUOUS
 62
     7
 10
-156.0031076634433
 20
200.2541828888686
  0
VERTEX
  8
1
  6
CONTINUOUS
 62
     7
 10
-156.0149613502172
 20
200.2803933895043
  0
VERTEX
  8
1
  6
CONTINUOUS
 62
     7
 10
-156.0292495342572
 20
200.3057845560726
  0
VERTEX
  8
1
  6
CONTINUOUS
 62
     7
 10
-156.0459656223084
 20
200.3301188994839
  0
VERTEX
  8
1
  6
CONTINUOUS
 62
     7
 10
-156.0616930168502
 20
200.3494391045432
  0
VERTEX
  8
1
  6
CONTINUOUS
 62
     7
 10
-156.0789917189551
 20
200.3677571467832
  0
VERTEX
  8
1
  6
CONTINUOUS
 62
     7
 10
-156.0977975918314
 20
200.3849446256202
  0
VERTEX
  8
1
  6
CONTINUOUS
 62
     7
 10
-156.112849509755
 20
200.3970129320869
  0
VERTEX
  8
1
  6
CONTINUOUS
 62
     7
 10
-156.128678974768
 20
200.4083114613595
  0
VERTEX
  8
1
  6
CONTINUOUS
 62
     7
 10
-156.1452529515546
 20
200.4187797877855
  0
VERTEX
  8
1
  6
CONTINUOUS
 62
     7
 10
-156.1538083237334
 20
200.4236832360832
  0
VERTEX
  8
1
  6
CONTINUOUS
 62
     7
 10
-156.1581511468773
 20
200.4260488180877
  0
VERTEX
  8
1
  6
CONTINUOUS
 62
     7
 10
-156.1586970111544
 20
200.4263404044866
  0
VERTEX
  8
1
  6
CONTINUOUS
 62
     7
 10
-156.1589701929011
 20
200.4264858527342
  0
VERTEX
  8
1
  6
CONTINUOUS
 62
     7
 10
-156.1591068461145
 20
200.426558490512
  0
VERTEX
  8
1
  6
CONTINUOUS
 62
     7
 10
-156.1591410159086
 20
200.4265766409569
  0
VERTEX
  8
1
  6
CONTINUOUS
 62
     7
 10
-156.1591581017791
 20
200.426585714829
  0
VERTEX
  8
1
  6
CONTINUOUS
 62
     7
 10
-156.1591628859391
 20
200.426588255352
  0
VERTEX
  8
1
  6
CONTINUOUS
 62
     7
 10
-156.159164064764
 20
200.426588881326
  0
VERTEX
  8
1
  6
CONTINUOUS
 62
     7
 10
-156.1591713602884
 20
200.4265926904004
  0
VERTEX
  8
1
  6
CONTINUOUS
 62
     7
 10
-156.1591854864666
 20
200.4266000644133
  0
VERTEX
  8
1
  6
CONTINUOUS
 62
     7
 10
-156.1878797133925
 20
200.4415784508817
  0
VERTEX
  8
1
  6
CONTINUOUS
 62
     7
 10
-157.3529369933451
 20
201.0492939949259
  0
SEQEND
  8
1
  6
CONTINUOUS
 62
     7
  0
LINE
  8
1
  6
CONTINUOUS
 62
     7
 10
-157.4190786568411
 20
201.4883237107809
 11
-156.1343547896559
 21
202.1600426555417
  0
POLYLINE
  8
1
  6
CONTINUOUS
 62
     7
 66
     1
  0
VERTEX
  8
1
  6
CONTINUOUS
 62
     7
 10
-156.1343547896559
 20
202.1600426555417
  0
VERTEX
  8
1
  6
CONTINUOUS
 62
     7
 10
-156.11734844594
 20
202.1717785535951
  0
VERTEX
  8
1
  6
CONTINUOUS
 62
     7
 10
-156.0988848608112
 20
202.186332696308
  0
VERTEX
  8
1
  6
CONTINUOUS
 62
     7
 10
-156.0812441222494
 20
202.202297429176
  0
VERTEX
  8
1
  6
CONTINUOUS
 62
     7
 10
-156.0645573201895
 20
202.219643389388
  0
VERTEX
  8
1
  6
CONTINUOUS
 62
     7
 10
-156.0489633782544
 20
202.2383351837709
  0
VERTEX
  8
1
  6
CONTINUOUS
 62
     7
 10
-156.0346092990495
 20
202.258331154636
  0
VERTEX
  8
1
  6
CONTINUOUS
 62
     7
 10
-156.0216490269892
 20
202.2795823017777
  0
VERTEX
  8
1
  6
CONTINUOUS
 62
     7
 10
-156.010213809684
 20
202.3020139028864
  0
VERTEX
  8
1
  6
CONTINUOUS
 62
     7
 10
-156.000410093311
 20
202.3255238413552
  0
VERTEX
  8
1
  6
CONTINUOUS
 62
     7
 10
-155.992346975733
 20
202.3499988653999
  0
VERTEX
  8
1
  6
CONTINUOUS
 62
     7
 10
-155.98613751764
 20
202.3753149753419
  0
VERTEX
  8
1
  6
CONTINUOUS
 62
     7
 10
-155.981898835234
 20
202.4013370664323
  0
VERTEX
  8
1
  6
CONTINUOUS
 62
     7
 10
-155.979752193543
 20
202.4279185671257
  0
VERTEX
  8
1
  6
CONTINUOUS
 62
     7
 10
-155.9798206084388
 20
202.4549010728036
  0
VERTEX
  8
1
  6
CONTINUOUS
 62
     7
 10
-155.9821820979837
 20
202.4821139749488
  0
VERTEX
  8
1
  6
CONTINUOUS
 62
     7
 10
-155.9868700303571
 20
202.5093740857687
  0
VERTEX
  8
1
  6
CONTINUOUS
 62
     7
 10
-155.9925748657279
 20
202.5319857949968
  0
VERTEX
  8
1
  6
CONTINUOUS
 62
     7
 10
-155.9999308965492
 20
202.5543737384066
  0
VERTEX
  8
1
  6
CONTINUOUS
 62
     7
 10
-156.0089520640777
 20
202.5764107525193
  0
VERTEX
  8
1
  6
CONTINUOUS
 62
     7
 10
-156.0196508558021
 20
202.5979629250373
  0
VERTEX
  8
1
  6
CONTINUOUS
 62
     7
 10
-156.0320378906666
 20
202.6188896592299
  0
VERTEX
  8
1
  6
CONTINUOUS
 62
     7
 10
-156.0460999418382
 20
202.6390568233586
  0
VERTEX
  8
1
  6
CONTINUOUS
 62
     7
 10
-156.0617859867257
 20
202.6583450293196
  0
VERTEX
  8
1
  6
CONTINUOUS
 62
     7
 10
-156.0790370804333
 20
202.676631313075
  0
VERTEX
  8
1
  6
CONTINUOUS
 62
     7
 10
-156.0977891052007
 20
202.693787274041
  0
VERTEX
  8
1
  6
CONTINUOUS
 62
     7
 10
-156.1127965553724
 20
202.7058321000072
  0
VERTEX
  8
1
  6
CONTINUOUS
 62
     7
 10
-156.1285780653981
 20
202.7171072841244
  0
VERTEX
  8
1
  6
CONTINUOUS
 62
     7
 10
-156.1451006109737
 20
202.7275524007402
  0
VERTEX
  8
1
  6
CONTINUOUS
 62
     7
 10
-156.153628967582
 20
202.7324442948872
  0
VERTEX
  8
1
  6
CONTINUOUS
 62
     7
 10
-156.1579579586043
 20
202.734804112505
  0
VERTEX
  8
1
  6
CONTINUOUS
 62
     7
 10
-156.1585020786768
 20
202.7350949789503
  0
VERTEX
  8
1
  6
CONTINUOUS
 62
     7
 10
-156.158774387056
 20
202.7352400672707
  0
VERTEX
  8
1
  6
CONTINUOUS
 62
     7
 10
-156.1589106032693
 20
202.7353125250973
  0
VERTEX
  8
1
  6
CONTINUOUS
 62
     7
 10
-156.1589446637805
 20
202.7353306305556
  0
VERTEX
  8
1
  6
CONTINUOUS
 62
     7
 10
-156.1589616950045
 20
202.7353396819347
  0
VERTEX
  8
1
  6
CONTINUOUS
 62
     7
 10
-156.158966463863
 20
202.7353422161596
  0
VERTEX
  8
1
  6
CONTINUOUS
 62
     7
 10
-156.158974931556
 20
202.7353466484369
  0
VERTEX
  8
1
  6
CONTINUOUS
 62
     7
 10
-156.158989052594
 20
202.7353540202725
  0
VERTEX
  8
1
  6
CONTINUOUS
 62
     7
 10
-156.1876727985154
 20
202.7503279893713
  0
VERTEX
  8
1
  6
CONTINUOUS
 62
     7
 10
-157.3529563180642
 20
203.3582417665245
  0
SEQEND
  8
1
  6
CONTINUOUS
 62
     7
  0
LINE
  8
1
  6
CONTINUOUS
 62
     7
 10
-157.4165372091616
 20
203.7987019099106
 11
-156.1327786104897
 21
204.4703045166814
  0
POLYLINE
  8
1
  6
CONTINUOUS
 62
     7
 66
     1
  0
VERTEX
  8
1
  6
CONTINUOUS
 62
     7
 10
-156.1327786104897
 20
204.4703045166815
  0
VERTEX
  8
1
  6
CONTINUOUS
 62
     7
 10
-156.1159567211572
 20
204.4819793489469
  0
VERTEX
  8
1
  6
CONTINUOUS
 62
     7
 10
-156.097612297529
 20
204.4965222560866
  0
VERTEX
  8
1
  6
CONTINUOUS
 62
     7
 10
-156.0800891516743
 20
204.5124769360732
  0
VERTEX
  8
1
  6
CONTINUOUS
 62
     7
 10
-156.063518648514
 20
204.5298140260956
  0
VERTEX
  8
1
  6
CONTINUOUS
 62
     7
 10
-156.0480399917734
 20
204.5484981329808
  0
VERTEX
  8
1
  6
CONTINUOUS
 62
     7
 10
-156.0338004689723
 20
204.5684875990398
  0
VERTEX
  8
1
  6
CONTINUOUS
 62
     7
 10
-156.0209543138288
 20
204.5897334240672
  0
VERTEX
  8
1
  6
CONTINUOUS
 62
     7
 10
-156.0096330662114
 20
204.6121608857533
  0
VERTEX
  8
1
  6
CONTINUOUS
 62
     7
 10
-155.9999434680249
 20
204.6356678674913
  0
VERTEX
  8
1
  6
CONTINUOUS
 62
     7
 10
-155.9919949174985
 20
204.6601411174969
  0
VERTEX
  8
1
  6
CONTINUOUS
 62
     7
 10
-155.9859007799252
 20
204.6854566360917
  0
VERTEX
  8
1
  6
CONTINUOUS
 62
     7
 10
-155.9817784798227
 20
204.7114793185266
  0
VERTEX
  8
1
  6
CONTINUOUS
 62
     7
 10
-155.9797495936616
 20
204.7380625932562
  0
VERTEX
  8
1
  6
CONTINUOUS
 62
     7
 10
-155.9799374512451
 20
204.7650480556621
  0
VERTEX
  8
1
  6
CONTINUOUS
 62
     7
 10
-155.9824203870949
 20
204.7922650972271
  0
VERTEX
  8
1
  6
CONTINUOUS
 62
     7
 10
-155.9872320894185
 20
204.8195305301584
  0
VERTEX
  8
1
  6
CONTINUOUS
 62
     7
 10
-155.993042074705
 20
204.8421475779246
  0
VERTEX
  8
1
  6
CONTINUOUS
 62
     7
 10
-156.000505282473
 20
204.8645416811862
  0
VERTEX
  8
1
  6
CONTINUOUS
 62
     7
 10
-156.0096358440168
 20
204.8865856764643
  0
VERTEX
  8
1
  6
CONTINUOUS
 62
     7
 10
-156.0204464378985
 20
204.9081456514615
  0
VERTEX
  8
1
  6
CONTINUOUS
 62
     7
 10
-156.0329478749876
 20
204.929081009447
  0
VERTEX
  8
1
  6
CONTINUOUS
 62
     7
 10
-156.0471271224035
 20
204.9492576186823
  0
VERTEX
  8
1
  6
CONTINUOUS
 62
     7
 10
-156.0629333551196
 20
204.9685560910637
  0
VERTEX
  8
1
  6
CONTINUOUS
 62
     7
 10
-156.0803078283153
 20
204.9868534625532
  0
VERTEX
  8
1
  6
CONTINUOUS
 62
     7
 10
-156.099186626755
 20
205.004021332567
  0
VERTEX
  8
1
  6
CONTINUOUS
 62
     7
 10
-156.1142915078869
 20
205.0160756293062
  0
VERTEX
  8
1
  6
CONTINUOUS
 62
     7
 10
-156.1301725609231
 20
205.0273607461854
  0
VERTEX
  8
1
  6
CONTINUOUS
 62
     7
 10
-156.1467968499798
 20
205.037816257552
  0
VERTEX
  8
1
  6
CONTINUOUS
 62
     7
 10
-156.1553769313966
 20
205.0427135223204
  0
VERTEX
  8
1
  6
CONTINUOUS
 62
     7
 10
-156.1597320030087
 20
205.0450760685603
  0
VERTEX
  8
1
  6
CONTINUOUS
 62
     7
 10
-156.1602793934858
 20
205.0453672781136
  0
VERTEX
  8
1
  6
CONTINUOUS
 62
     7
 10
-156.1605533379315
 20
205.0455125381572
  0
VERTEX
  8
1
  6
CONTINUOUS
 62
     7
 10
-156.1606903723943
 20
205.0455850818877
  0
VERTEX
  8
1
  6
CONTINUOUS
 62
     7
 10
-156.1607246374903
 20
205.0456032088264
  0
VERTEX
  8
1
  6
CONTINUOUS
 62
     7
 10
-156.1607417710102
 20
205.0456122709463
  0
VERTEX
  8
1
  6
CONTINUOUS
 62
     7
 10
-156.1607465685119
 20
205.0456148081787
  0
VERTEX
  8
1
  6
CONTINUOUS
 62
     7
 10
-156.160747750624
 20
205.0456154333419
  0
VERTEX
  8
1
  6
CONTINUOUS
 62
     7
 10
-156.1607550481141
 20
205.0456192417794
  0
VERTEX
  8
1
  6
CONTINUOUS
 62
     7
 10
-156.1607691776958
 20
205.0456266146547
  0
VERTEX
  8
1
  6
CONTINUOUS
 62
     7
 10
-156.189470278165
 20
205.060602702923
  0
VERTEX
  8
1
  6
CONTINUOUS
 62
     7
 10
-157.3528964978259
 20
205.6672783997474
  0
SEQEND
  8
1
  6
CONTINUOUS
 62
     7
  0
LINE
  8
1
  6
CONTINUOUS
 62
     7
 10
-157.4172546941763
 20
206.1072717251402
 11
-156.1328267973897
 21
206.7791405579943
  0
POLYLINE
  8
1
  6
CONTINUOUS
 62
     7
 66
     1
  0
VERTEX
  8
1
  6
CONTINUOUS
 62
     7
 10
-156.1328267973897
 20
206.7791405579943
  0
VERTEX
  8
1
  6
CONTINUOUS
 62
     7
 10
-156.1159296654705
 20
206.79086053403
  0
VERTEX
  8
1
  6
CONTINUOUS
 62
     7
 10
-156.0975310077436
 20
206.8054385642388
  0
VERTEX
  8
1
  6
CONTINUOUS
 62
     7
 10
-156.0799596008169
 20
206.8214290920369
  0
VERTEX
  8
1
  6
CONTINUOUS
 62
     7
 10
-156.06334716714
 20
206.8388027546132
  0
VERTEX
  8
1
  6
CONTINUOUS
 62
     7
 10
-156.0478332730223
 20
206.8575241587947
  0
VERTEX
  8
1
  6
CONTINUOUS
 62
     7
 10
-156.0335655729761
 20
206.8775516468926
  0
VERTEX
  8
1
  6
CONTINUOUS
 62
     7
 10
-156.0206986713443
 20
206.8988362187014
  0
VERTEX
  8
1
  6
CONTINUOUS
 62
     7
 10
-156.0093644808887
 20
206.9213031519114
  0
VERTEX
  8
1
  6
CONTINUOUS
 62
     7
 10
-155.9996701175997
 20
206.9448503299157
  0
VERTEX
  8
1
  6
CONTINUOUS
 62
     7
 10
-155.9917253545005
 20
206.9693645009302
  0
VERTEX
  8
1
  6
CONTINUOUS
 62
     7
 10
-155.9856439315058
 20
206.9947216652762
  0
VERTEX
  8
1
  6
CONTINUOUS
 62
     7
 10
-155.9815436466004
 20
207.0207867182049
  0
VERTEX
  8
1
  6
CONTINUOUS
 62
     7
 10
-155.9795464474941
 20
207.0474130881707
  0
VERTEX
  8
1
  6
CONTINUOUS
 62
     7
 10
-155.9797760318104
 20
207.0744423705554
  0
VERTEX
  8
1
  6
CONTINUOUS
 62
     7
 10
-155.9823110969321
 20
207.1017039568416
  0
VERTEX
  8
1
  6
CONTINUOUS
 62
     7
 10
-155.9871856885499
 20
207.1290146592366
  0
VERTEX
  8
1
  6
CONTINUOUS
 62
     7
 10
-155.9944295861617
 20
207.1561783307462
  0
VERTEX
  8
1
  6
CONTINUOUS
 62
     7
 10
-156.0040697412387
 20
207.1829854806984
  0
VERTEX
  8
1
  6
CONTINUOUS
 62
     7
 10
-156.0161301625873
 20
207.2092128857171
  0
VERTEX
  8
1
  6
CONTINUOUS
 62
     7
 10
-156.0306317767976
 20
207.2346232105861
  0
VERTEX
  8
1
  6
CONTINUOUS
 62
     7
 10
-156.0475686595961
 20
207.258978966216
  0
VERTEX
  8
1
  6
CONTINUOUS
 62
     7
 10
-156.0634861653512
 20
207.2783187365335
  0
VERTEX
  8
1
  6
CONTINUOUS
 62
     7
 10
-156.0809809620684
 20
207.2966579092526
  0
VERTEX
  8
1
  6
CONTINUOUS
 62
     7
 10
-156.0999893139589
 20
207.3138680837893
  0
VERTEX
  8
1
  6
CONTINUOUS
 62
     7
 10
-156.1151975242013
 20
207.3259544392068
  0
VERTEX
  8
1
  6
CONTINUOUS
 62
     7
 10
-156.1311872724505
 20
207.337271897867
  0
VERTEX
  8
1
  6
CONTINUOUS
 62
     7
 10
-156.1479256968209
 20
207.3477600341172
  0
VERTEX
  8
1
  6
CONTINUOUS
 62
     7
 10
-156.156564908991
 20
207.3526737174908
  0
VERTEX
  8
1
  6
CONTINUOUS
 62
     7
 10
-156.1609500657838
 20
207.3550444995741
  0
VERTEX
  8
1
  6
CONTINUOUS
 62
     7
 10
-156.1615012413586
 20
207.355336739852
  0
VERTEX
  8
1
  6
CONTINUOUS
 62
     7
 10
-156.1617770803933
 20
207.3554825153615
  0
VERTEX
  8
1
  6
CONTINUOUS
 62
     7
 10
-156.1619150626607
 20
207.3555553168509
  0
VERTEX
  8
1
  6
CONTINUOUS
 62
     7
 10
-156.1619495647611
 20
207.355573508232
  0
VERTEX
  8
1
  6
CONTINUOUS
 62
     7
 10
-156.1619668167911
 20
207.3555826025736
  0
VERTEX
  8
1
  6
CONTINUOUS
 62
     7
 10
-156.1619716474766
 20
207.355585148828
  0
VERTEX
  8
1
  6
CONTINUOUS
 62
     7
 10
-156.1619728377653
 20
207.3555857762143
  0
VERTEX
  8
1
  6
CONTINUOUS
 62
     7
 10
-156.1619801412023
 20
207.3555895863985
  0
VERTEX
  8
1
  6
CONTINUOUS
 62
     7
 10
-156.1619942813212
 20
207.3555969623928
  0
VERTEX
  8
1
  6
CONTINUOUS
 62
     7
 10
-156.1907168374495
 20
207.3705793874742
  0
VERTEX
  8
1
  6
CONTINUOUS
 62
     7
 10
-157.3528400910609
 20
207.9763423720368
  0
SEQEND
  8
1
  6
CONTINUOUS
 62
     7
  0
LINE
  8
1
  6
CONTINUOUS
 62
     7
 10
-157.5544255202755
 20
208.380648733225
 11
-156.2144222554184
 21
209.0547436398706
  0
POLYLINE
  8
1
  6
CONTINUOUS
 62
     7
 66
     1
  0
VERTEX
  8
1
  6
CONTINUOUS
 62
     7
 10
-156.2144222554184
 20
209.0547436398706
  0
VERTEX
  8
1
  6
CONTINUOUS
 62
     7
 10
-156.1693784787107
 20
209.0780687538311
  0
VERTEX
  8
1
  6
CONTINUOUS
 62
     7
 10
-156.1160788907816
 20
209.1138562069122
  0
VERTEX
  8
1
  6
CONTINUOUS
 62
     7
 10
-156.0679850761032
 20
209.1573566846697
  0
VERTEX
  8
1
  6
CONTINUOUS
 62
     7
 10
-156.0296587603708
 20
209.2056202849836
  0
VERTEX
  8
1
  6
CONTINUOUS
 62
     7
 10
-156.0018079741037
 20
209.2576007578103
  0
VERTEX
  8
1
  6
CONTINUOUS
 62
     7
 10
-155.9848277109029
 20
209.3120661447867
  0
VERTEX
  8
1
  6
CONTINUOUS
 62
     7
 10
-155.9790871176883
 20
209.367773988869
  0
SEQEND
  8
1
  6
CONTINUOUS
 62
     7
  0
LINE
  8
1
  6
CONTINUOUS
 62
     7
 10
-187.5832942327798
 20
209.1642323966288
 11
-188.8672703753429
 21
208.4926208307981
  0
POLYLINE
  8
1
  6
CONTINUOUS
 62
     7
 66
     1
  0
VERTEX
  8
1
  6
CONTINUOUS
 62
     7
 10
-188.867270375343
 20
208.4926208307982
  0
VERTEX
  8
1
  6
CONTINUOUS
 62
     7
 10
-188.8841291860102
 20
208.4809352409908
  0
VERTEX
  8
1
  6
CONTINUOUS
 62
     7
 10
-188.9024996561797
 20
208.4663901778229
  0
VERTEX
  8
1
  6
CONTINUOUS
 62
     7
 10
-188.9200485556616
 20
208.4504332999383
  0
VERTEX
  8
1
  6
CONTINUOUS
 62
     7
 10
-188.9366444618671
 20
208.4330939701324
  0
VERTEX
  8
1
  6
CONTINUOUS
 62
     7
 10
-188.9521481103758
 20
208.4144075815622
  0
VERTEX
  8
1
  6
CONTINUOUS
 62
     7
 10
-188.96641214989
 20
208.3944157919001
  0
VERTEX
  8
1
  6
CONTINUOUS
 62
     7
 10
-188.9792822797683
 20
208.3731676013128
  0
VERTEX
  8
1
  6
CONTINUOUS
 62
     7
 10
-188.9906268903783
 20
208.3507377319605
  0
VERTEX
  8
1
  6
CONTINUOUS
 62
     7
 10
-189.0003391678023
 20
208.3272283004056
  0
VERTEX
  8
1
  6
CONTINUOUS
 62
     7
 10
-189.0083096391156
 20
208.3027525584081
  0
VERTEX
  8
1
  6
CONTINUOUS
 62
     7
 10
-189.0144248616197
 20
208.277434505622
  0
VERTEX
  8
1
  6
CONTINUOUS
 62
     7
 10
-189.018567330717
 20
208.2514092467714
  0
VERTEX
  8
1
  6
CONTINUOUS
 62
     7
 10
-189.0206153872334
 20
208.2248233533767
  0
VERTEX
  8
1
  6
CONTINUOUS
 62
     7
 10
-189.0204456161043
 20
208.1978352300308
  0
VERTEX
  8
1
  6
CONTINUOUS
 62
     7
 10
-189.0179795960329
 20
208.1706154852251
  0
VERTEX
  8
1
  6
CONTINUOUS
 62
     7
 10
-189.013183551347
 20
208.1433473067264
  0
VERTEX
  8
1
  6
CONTINUOUS
 62
     7
 10
-189.0073855887741
 20
208.1207279386353
  0
VERTEX
  8
1
  6
CONTINUOUS
 62
     7
 10
-188.9999334157243
 20
208.0983314856217
  0
VERTEX
  8
1
  6
CONTINUOUS
 62
     7
 10
-188.9908128477252
 20
208.0762851111484
  0
VERTEX
  8
1
  6
CONTINUOUS
 62
     7
 10
-188.9800111523343
 20
208.0547227274974
  0
VERTEX
  8
1
  6
CONTINUOUS
 62
     7
 10
-188.9675174641383
 20
208.0337849313928
  0
VERTEX
  8
1
  6
CONTINUOUS
 62
     7
 10
-188.9533447613152
 20
208.0136058546786
  0
VERTEX
  8
1
  6
CONTINUOUS
 62
     7
 10
-188.9375438148347
 20
207.9943048854836
  0
VERTEX
  8
1
  6
CONTINUOUS
 62
     7
 10
-188.9201733152377
 20
207.9760049878341
  0
VERTEX
  8
1
  6
CONTINUOUS
 62
     7
 10
-188.9012971231195
 20
207.9588345623022
  0
VERTEX
  8
1
  6
CONTINUOUS
 62
     7
 10
-188.8861932663779
 20
207.9467783296512
  0
VERTEX
  8
1
  6
CONTINUOUS
 62
     7
 10
-188.8703124143613
 20
207.9354912603346
  0
VERTEX
  8
1
  6
CONTINUOUS
 62
     7
 10
-188.8536874794842
 20
207.9250337799998
  0
VERTEX
  8
1
  6
CONTINUOUS
 62
     7
 10
-188.845106750711
 20
207.9201355245468
  0
VERTEX
  8
1
  6
CONTINUOUS
 62
     7
 10
-188.8407512737986
 20
207.9177724814141
  0
VERTEX
  8
1
  6
CONTINUOUS
 62
     7
 10
-188.8402038288323
 20
207.9174812096765
  0
VERTEX
  8
1
  6
CONTINUOUS
 62
     7
 10
-188.8399298568231
 20
207.9173359185348
  0
VERTEX
  8
1
  6
CONTINUOUS
 62
     7
 10
-188.8397928084989
 20
207.9172633592537
  0
VERTEX
  8
1
  6
CONTINUOUS
 62
     7
 10
-188.8397585399291
 20
207.9172452284272
  0
VERTEX
  8
1
  6
CONTINUOUS
 62
     7
 10
-188.8397414046712
 20
207.9172361643633
  0
VERTEX
  8
1
  6
CONTINUOUS
 62
     7
 10
-188.8397366066827
 20
207.9172336265866
  0
VERTEX
  8
1
  6
CONTINUOUS
 62
     7
 10
-188.8397288902942
 20
207.9172295904777
  0
VERTEX
  8
1
  6
CONTINUOUS
 62
     7
 10
-188.8397147601752
 20
207.9172222174148
  0
VERTEX
  8
1
  6
CONTINUOUS
 62
     7
 10
-188.8110125531399
 20
207.9022457479775
  0
VERTEX
  8
1
  6
CONTINUOUS
 62
     7
 10
-187.647094959917
 20
207.2953335733136
  0
SEQEND
  8
1
  6
CONTINUOUS
 62
     7
  0
LINE
  8
1
  6
CONTINUOUS
 62
     7
 10
-187.5821345515717
 20
206.855675806505
 11
-188.8666892355638
 21
206.183810648538
  0
POLYLINE
  8
1
  6
CONTINUOUS
 62
     7
 66
     1
  0
VERTEX
  8
1
  6
CONTINUOUS
 62
     7
 10
-188.8666892355638
 20
206.183810648538
  0
VERTEX
  8
1
  6
CONTINUOUS
 62
     7
 10
-188.8836213086612
 20
206.1720812971121
  0
VERTEX
  8
1
  6
CONTINUOUS
 62
     7
 10
-188.9020447725259
 20
206.1575026310646
  0
VERTEX
  8
1
  6
CONTINUOUS
 62
     7
 10
-188.9196417320708
 20
206.1415114471179
  0
VERTEX
  8
1
  6
CONTINUOUS
 62
     7
 10
-188.9362804492888
 20
206.1241371080674
  0
VERTEX
  8
1
  6
CONTINUOUS
 62
     7
 10
-188.9518213394813
 20
206.1054150070699
  0
VERTEX
  8
1
  6
CONTINUOUS
 62
     7
 10
-188.9661167267431
 20
206.0853868017981
  0
VERTEX
  8
1
  6
CONTINUOUS
 62
     7
 10
-188.9790119820998
 20
206.0641014924185
  0
VERTEX
  8
1
  6
CONTINUOUS
 62
     7
 10
-188.9903751641399
 20
206.0416338010913
  0
VERTEX
  8
1
  6
CONTINUOUS
 62
     7
 10
-189.0000991246314
 20
206.0180858443789
  0
VERTEX
  8
1
  6
CONTINUOUS
 62
     7
 10
-189.0080740550498
 20
205.9935708740414
  0
VERTEX
  8
1
  6
CONTINUOUS
 62
     7
 10
-189.0141861765994
 20
205.9682128897328
  0
VERTEX
  8
1
  6
CONTINUOUS
 62
     7
 10
-189.0183176489272
 20
205.9421469961771
  0
VERTEX
  8
1
  6
CONTINUOUS
 62
     7
 10
-189.0203464783662
 20
205.9155197648948
  0
VERTEX
  8
1
  6
CONTINUOUS
 62
     7
 10
-189.0201489175803
 20
205.8884896004786
  0
VERTEX
  8
1
  6
CONTINUOUS
 62
     7
 10
-189.0176462153436
 20
205.8612271114202
  0
VERTEX
  8
1
  6
CONTINUOUS
 62
     7
 10
-189.0128042688899
 20
205.8339154854861
  0
VERTEX
  8
1
  6
CONTINUOUS
 62
     7
 10
-189.0055932385746
 20
205.8067508696442
  0
VERTEX
  8
1
  6
CONTINUOUS
 62
     7
 10
-188.9959861096961
 20
205.7799427545397
  0
VERTEX
  8
1
  6
CONTINUOUS
 62
     7
 10
-188.9839588071619
 20
205.7537143635219
  0
VERTEX
  8
1
  6
CONTINUOUS
 62
     7
 10
-188.9694903350749
 20
205.7283030317809
  0
VERTEX
  8
1
  6
CONTINUOUS
 62
     7
 10
-188.9525865454144
 20
205.7039462485234
  0
VERTEX
  8
1
  6
CONTINUOUS
 62
     7
 10
-188.9366965264143
 20
205.6846056060517
  0
VERTEX
  8
1
  6
CONTINUOUS
 62
     7
 10
-188.9192290871811
 20
205.6662655468042
  0
VERTEX
  8
1
  6
CONTINUOUS
 62
     7
 10
-188.900247918836
 20
205.6490544713532
  0
VERTEX
  8
1
  6
CONTINUOUS
 62
     7
 10
-188.8850599547752
 20
205.6369674308019
  0
VERTEX
  8
1
  6
CONTINUOUS
 62
     7
 10
-188.8690903098293
 20
205.6256492789044
  0
VERTEX
  8
1
  6
CONTINUOUS
 62
     7
 10
-188.8523718261856
 20
205.615160441308
  0
VERTEX
  8
1
  6
CONTINUOUS
 62
     7
 10
-188.8437425171975
 20
205.610246404219
  0
VERTEX
  8
1
  6
CONTINUOUS
 62
     7
 10
-188.8393622941049
 20
205.607875444517
  0
VERTEX
  8
1
  6
CONTINUOUS
 62
     7
 10
-188.8388117343808
 20
205.6075831820012
  0
VERTEX
  8
1
  6
CONTINUOUS
 62
     7
 10
-188.8385362031991
 20
205.6074373953697
  0
VERTEX
  8
1
  6
CONTINUOUS
 62
     7
 10
-188.8383983748399
 20
205.6073645883186
  0
VERTEX
  8
1
  6
CONTINUOUS
 62
     7
 10
-188.8383639112147
 20
205.607346395547
  0
VERTEX
  8
1
  6
CONTINUOUS
 62
     7
 10
-188.838346678422
 20
205.6073373005101
  0
VERTEX
  8
1
  6
CONTINUOUS
 62
     7
 10
-188.838341853123
 20
205.607334754061
  0
VERTEX
  8
1
  6
CONTINUOUS
 62
     7
 10
-188.8383341251962
 20
205.6073307141362
  0
VERTEX
  8
1
  6
CONTINUOUS
 62
     7
 10
-188.8383199867
 20
205.607323338075
  0
VERTEX
  8
1
  6
CONTINUOUS
 62
     7
 10
-188.8096007147302
 20
205.5923407773435
  0
VERTEX
  8
1
  6
CONTINUOUS
 62
     7
 10
-187.6471508759992
 20
204.9863434214587
  0
SEQEND
  8
1
  6
CONTINUOUS
 62
     7
  0
LINE
  8
1
  6
CONTINUOUS
 62
     7
 10
-187.5807236837666
 20
204.5473580991234
 11
-188.8658205452376
 21
203.8753918575041
  0
POLYLINE
  8
1
  6
CONTINUOUS
 62
     7
 66
     1
  0
VERTEX
  8
1
  6
CONTINUOUS
 62
     7
 10
-188.8658205452376
 20
203.8753918575041
  0
VERTEX
  8
1
  6
CONTINUOUS
 62
     7
 10
-188.8828510793115
 20
203.8636258307671
  0
VERTEX
  8
1
  6
CONTINUOUS
 62
     7
 10
-188.9013327189232
 20
203.8490399025882
  0
VERTEX
  8
1
  6
CONTINUOUS
 62
     7
 10
-188.9189860960036
 20
203.8330426408311
  0
VERTEX
  8
1
  6
CONTINUOUS
 62
     7
 10
-188.9356797962826
 20
203.815663408291
  0
VERTEX
  8
1
  6
CONTINUOUS
 62
     7
 10
-188.9512745678828
 20
203.7969375981248
  0
VERTEX
  8
1
  6
CONTINUOUS
 62
     7
 10
-188.9656230766642
 20
203.7769068680052
  0
VERTEX
  8
1
  6
CONTINUOUS
 62
     7
 10
-188.9785710441201
 20
203.7556202180987
  0
VERTEX
  8
1
  6
CONTINUOUS
 62
     7
 10
-188.9899868870515
 20
203.7331523705656
  0
VERTEX
  8
1
  6
CONTINUOUS
 62
     7
 10
-188.9997638232847
 20
203.7096054419681
  0
VERTEX
  8
1
  6
CONTINUOUS
 62
     7
 10
-189.0077924187769
 20
203.6850926840665
  0
VERTEX
  8
1
  6
CONTINUOUS
 62
     7
 10
-189.0139592772588
 20
203.6597380965146
  0
VERTEX
  8
1
  6
CONTINUOUS
 62
     7
 10
-189.0181469484657
 20
203.6336767840366
  0
VERTEX
  8
1
  6
CONTINUOUS
 62
     7
 10
-189.0202338358221
 20
203.6070553181528
  0
VERTEX
  8
1
  6
CONTINUOUS
 62
     7
 10
-189.0200965954407
 20
203.580032103456
  0
VERTEX
  8
1
  6
CONTINUOUS
 62
     7
 10
-189.0176568852543
 20
203.5527777484379
  0
VERTEX
  8
1
  6
CONTINUOUS
 62
     7
 10
-189.0128810175373
 20
203.5254754408651
  0
VERTEX
  8
1
  6
CONTINUOUS
 62
     7
 10
-189.0057395734401
 20
203.4983213277053
  0
VERTEX
  8
1
  6
CONTINUOUS
 62
     7
 10
-188.9962059642236
 20
203.4715248996038
  0
VERTEX
  8
1
  6
CONTINUOUS
 62
     7
 10
-188.9842565453073
 20
203.44530937991
  0
VERTEX
  8
1
  6
CONTINUOUS
 62
     7
 10
-188.9698707552199
 20
203.4199121038138
  0
VERTEX
  8
1
  6
CONTINUOUS
 62
     7
 10
-188.9530548843039
 20
203.3955705605221
  0
VERTEX
  8
1
  6
CONTINUOUS
 62
     7
 10
-188.9372424513293
 20
203.3762435227114
  0
VERTEX
  8
1
  6
CONTINUOUS
 62
     7
 10
-188.9198568025357
 20
203.35791789057
  0
VERTEX
  8
1
  6
CONTINUOUS
 62
     7
 10
-188.900961890971
 20
203.3407220646701
  0
VERTEX
  8
1
  6
CONTINUOUS
 62
     7
 10
-188.8858417094364
 20
203.3286470010119
  0
VERTEX
  8
1
  6
CONTINUOUS
 62
     7
 10
-188.8699426203648
 20
203.3173412886327
  0
VERTEX
  8
1
  6
CONTINUOUS
 62
     7
 10
-188.8532975791648
 20
203.3068653531799
  0
VERTEX
  8
1
  6
CONTINUOUS
 62
     7
 10
-188.8447061094755
 20
203.3019579406472
  0
VERTEX
  8
1
  6
CONTINUOUS
 62
     7
 10
-188.8403450918171
 20
203.2995903365945
  0
VERTEX
  8
1
  6
CONTINUOUS
 62
     7
 10
-188.8397969463001
 20
203.2992984955679
  0
VERTEX
  8
1
  6
CONTINUOUS
 62
     7
 10
-188.8395226233533
 20
203.2991529198504
  0
VERTEX
  8
1
  6
CONTINUOUS
 62
     7
 10
-188.8393853993947
 20
203.2990802182987
  0
VERTEX
  8
1
  6
CONTINUOUS
 62
     7
 10
-188.8393510868991
 20
203.2990620519062
  0
VERTEX
  8
1
  6
CONTINUOUS
 62
     7
 10
-188.8393339296757
 20
203.2990529700597
  0
VERTEX
  8
1
  6
CONTINUOUS
 62
     7
 10
-188.8393291255365
 20
203.2990504273039
  0
VERTEX
  8
1
  6
CONTINUOUS
 62
     7
 10
-188.8393214065815
 20
203.2990463890042
  0
VERTEX
  8
1
  6
CONTINUOUS
 62
     7
 10
-188.8393072746471
 20
203.29903901422
  0
VERTEX
  8
1
  6
CONTINUOUS
 62
     7
 10
-188.8106013561714
 20
203.2840590539844
  0
VERTEX
  8
1
  6
CONTINUOUS
 62
     7
 10
-187.6471106352421
 20
202.6773324887071
  0
SEQEND
  8
1
  6
CONTINUOUS
 62
     7
  0
LINE
  8
1
  6
CONTINUOUS
 62
     7
 10
-187.5791054564461
 20
202.2391999484214
 11
-188.8649996951657
 21
201.5670798192513
  0
POLYLINE
  8
1
  6
CONTINUOUS
 62
     7
 66
     1
  0
VERTEX
  8
1
  6
CONTINUOUS
 62
     7
 10
-188.8649996951657
 20
201.5670798192513
  0
VERTEX
  8
1
  6
CONTINUOUS
 62
     7
 10
-188.8821614038481
 20
201.5552636750187
  0
VERTEX
  8
1
  6
CONTINUOUS
 62
     7
 10
-188.9052393223181
 20
201.5367918901165
  0
VERTEX
  8
1
  6
CONTINUOUS
 62
     7
 10
-188.9269671258041
 20
201.5161276412958
  0
VERTEX
  8
1
  6
CONTINUOUS
 62
     7
 10
-188.9470829496335
 20
201.4933326732208
  0
VERTEX
  8
1
  6
CONTINUOUS
 62
     7
 10
-188.9653055129065
 20
201.4684837387042
  0
VERTEX
  8
1
  6
CONTINUOUS
 62
     7
 10
-188.9783199244501
 20
201.4471881764049
  0
VERTEX
  8
1
  6
CONTINUOUS
 62
     7
 10
-188.9898002175504
 20
201.4247125105847
  0
VERTEX
  8
1
  6
CONTINUOUS
 62
     7
 10
-188.9996399086977
 20
201.4011588578062
  0
VERTEX
  8
1
  6
CONTINUOUS
 62
     7
 10
-189.007729869802
 20
201.3766404698293
  0
VERTEX
  8
1
  6
CONTINUOUS
 62
     7
 10
-189.0139570176071
 20
201.3512813463081
  0
VERTEX
  8
1
  6
CONTINUOUS
 62
     7
 10
-189.0182042216179
 20
201.3252165919666
  0
VERTEX
  8
1
  6
CONTINUOUS
 62
     7
 10
-189.020350211427
 20
201.2985927783252
  0
VERTEX
  8
1
  6
CONTINUOUS
 62
     7
 10
-189.0202719753222
 20
201.2715683099768
  0
VERTEX
  8
1
  6
CONTINUOUS
 62
     7
 10
-189.0178915096443
 20
201.2443137954129
  0
VERTEX
  8
1
  6
CONTINUOUS
 62
     7
 10
-189.0131754716472
 20
201.2170124224001
  0
VERTEX
  8
1
  6
CONTINUOUS
 62
     7
 10
-189.006094793474
 20
201.1898603379063
  0
VERTEX
  8
1
  6
CONTINUOUS
 62
     7
 10
-188.9966232429121
 20
201.1630670325767
  0
VERTEX
  8
1
  6
CONTINUOUS
 62
     7
 10
-188.9847375369516
 20
201.1368557297605
  0
VERTEX
  8
1
  6
CONTINUOUS
 62
     7
 10
-188.9704174802273
 20
201.1114637646479
  0
VERTEX
  8
1
  6
CONTINUOUS
 62
     7
 10
-188.9536697340812
 20
201.0871286264458
  0
VERTEX
  8
1
  6
CONTINUOUS
 62
     7
 10
-188.9379161709314
 20
201.067807761985
  0
VERTEX
  8
1
  6
CONTINUOUS
 62
     7
 10
-188.9205915365648
 20
201.0494890629892
  0
VERTEX
  8
1
  6
CONTINUOUS
 62
     7
 10
-188.901760008091
 20
201.0323009300307
  0
VERTEX
  8
1
  6
CONTINUOUS
 62
     7
 10
-188.8866890544636
 20
201.0202321346945
  0
VERTEX
  8
1
  6
CONTINUOUS
 62
     7
 10
-188.8708407494618
 20
201.0089331180224
  0
VERTEX
  8
1
  6
CONTINUOUS
 62
     7
 10
-188.8542481457104
 20
200.9984643056619
  0
VERTEX
  8
1
  6
CONTINUOUS
 62
     7
 10
-188.8456835453579
 20
200.9935606149448
  0
VERTEX
  8
1
  6
CONTINUOUS
 62
     7
 10
-188.8413361304054
 20
200.9911949118672
  0
VERTEX
  8
1
  6
CONTINUOUS
 62
     7
 10
-188.8407896932165
 20
200.9909033103406
  0
VERTEX
  8
1
  6
CONTINUOUS
 62
     7
 10
-188.8405162251031
 20
200.9907578545297
  0
VERTEX
  8
1
  6
CONTINUOUS
 62
     7
 10
-188.8403794287288
 20
200.9906852129703
  0
VERTEX
  8
1
  6
CONTINUOUS
 62
     7
 10
-188.8403452231467
 20
200.9906670615801
  0
VERTEX
  8
1
  6
CONTINUOUS
 62
     7
 10
-188.8403281193826
 20
200.9906579872352
  0
VERTEX
  8
1
  6
CONTINUOUS
 62
     7
 10
-188.8403233302125
 20
200.99065544658
  0
VERTEX
  8
1
  6
CONTINUOUS
 62
     7
 10
-188.8403156175028
 20
200.9906514092046
  0
VERTEX
  8
1
  6
CONTINUOUS
 62
     7
 10
-188.8403014899845
 20
200.9906440351465
  0
VERTEX
  8
1
  6
CONTINUOUS
 62
     7
 10
-188.8116045529609
 20
200.9756655569438
  0
VERTEX
  8
1
  6
CONTINUOUS
 62
     7
 10
-187.6470762447589
 20
200.3682688376113
  0
SEQEND
  8
1
  6
CONTINUOUS
 62
     7
  0
LINE
  8
1
  6
CONTINUOUS
 62
     7
 10
-187.5813300479713
 20
199.929032033688
 11
-188.8661310223337
 21
199.2572903661156
  0
POLYLINE
  8
1
  6
CONTINUOUS
 62
     7
 66
     1
  0
VERTEX
  8
1
  6
CONTINUOUS
 62
     7
 10
-188.8661310223337
 20
199.2572903661156
  0
VERTEX
  8
1
  6
CONTINUOUS
 62
     7
 10
-188.883135666948
 20
199.2455528885111
  0
VERTEX
  8
1
  6
CONTINUOUS
 62
     7
 10
-188.9015971009727
 20
199.2309962993394
  0
VERTEX
  8
1
  6
CONTINUOUS
 62
     7
 10
-188.9192343363428
 20
199.2150291087149
  0
VERTEX
  8
1
  6
CONTINUOUS
 62
     7
 10
-188.9359162640083
 20
199.1976806794328
  0
VERTEX
  8
1
  6
CONTINUOUS
 62
     7
 10
-188.9515039426987
 20
199.1789864046499
  0
VERTEX
  8
1
  6
CONTINUOUS
 62
     7
 10
-188.9658503537942
 20
199.158987942039
  0
VERTEX
  8
1
  6
CONTINUOUS
 62
     7
 10
-188.9788015386799
 20
199.1377342917665
  0
VERTEX
  8
1
  6
CONTINUOUS
 62
     7
 10
-188.9902262381973
 20
199.1153001759927
  0
VERTEX
  8
1
  6
CONTINUOUS
 62
     7
 10
-189.0000179977749
 20
199.0917877112799
  0
VERTEX
  8
1
  6
CONTINUOUS
 62
     7
 10
-189.0080677135348
 20
199.0673101493882
  0
VERTEX
  8
1
  6
CONTINUOUS
 62
     7
 10
-189.0142623212327
 20
199.0419914899717
  0
VERTEX
  8
1
  6
CONTINUOUS
 62
     7
 10
-189.0184847037272
 20
199.0159668377544
  0
VERTEX
  8
1
  6
CONTINUOUS
 62
     7
 10
-189.0206135978243
 20
198.9893827642566
  0
VERTEX
  8
1
  6
CONTINUOUS
 62
     7
 10
-189.0205259924159
 20
198.9623976740712
  0
VERTEX
  8
1
  6
CONTINUOUS
 62
     7
 10
-189.0181438780191
 20
198.9351821756898
  0
VERTEX
  8
1
  6
CONTINUOUS
 62
     7
 10
-189.0134338991777
 20
198.907919456879
  0
VERTEX
  8
1
  6
CONTINUOUS
 62
     7
 10
-189.0077096170727
 20
198.8853055653266
  0
VERTEX
  8
1
  6
CONTINUOUS
 62
     7
 10
-189.0003331738821
 20
198.8629154313957
  0
VERTEX
  8
1
  6
CONTINUOUS
 62
     7
 10
-188.991290640516
 20
198.8408762185496
  0
VERTEX
  8
1
  6
CONTINUOUS
 62
     7
 10
-188.9805695431204
 20
198.8193218390699
  0
VERTEX
  8
1
  6
CONTINUOUS
 62
     7
 10
-188.9681592778507
 20
198.7983928896808
  0
VERTEX
  8
1
  6
CONTINUOUS
 62
     7
 10
-188.9540730881667
 20
198.7782235022264
  0
VERTEX
  8
1
  6
CONTINUOUS
 62
     7
 10
-188.9383620150884
 20
198.7589330648353
  0
VERTEX
  8
1
  6
CONTINUOUS
 62
     7
 10
-188.9210850231501
 20
198.740644541534
  0
VERTEX
  8
1
  6
CONTINUOUS
 62
     7
 10
-188.9023062507956
 20
198.7234863328945
  0
VERTEX
  8
1
  6
CONTINUOUS
 62
     7
 10
-188.8872781955375
 20
198.7114398158325
  0
VERTEX
  8
1
  6
CONTINUOUS
 62
     7
 10
-188.8714756242978
 20
198.7001629360359
  0
VERTEX
  8
1
  6
CONTINUOUS
 62
     7
 10
-188.8549315711167
 20
198.6897161191523
  0
VERTEX
  8
1
  6
CONTINUOUS
 62
     7
 10
-188.8463922964183
 20
198.6848233731491
  0
VERTEX
  8
1
  6
CONTINUOUS
 62
     7
 10
-188.8420578058321
 20
198.6824631291724
  0
VERTEX
  8
1
  6
CONTINUOUS
 62
     7
 10
-188.8415129964264
 20
198.682172209412
  0
VERTEX
  8
1
  6
CONTINUOUS
 62
     7
 10
-188.8412403432238
 20
198.6820270944324
  0
VERTEX
  8
1
  6
CONTINUOUS
 62
     7
 10
-188.8411039545595
 20
198.6819546232758
  0
VERTEX
  8
1
  6
CONTINUOUS
 62
     7
 10
-188.8410698509315
 20
198.6819365144849
  0
VERTEX
  8
1
  6
CONTINUOUS
 62
     7
 10
-188.8410527981484
 20
198.6819274614395
  0
VERTEX
  8
1
  6
CONTINUOUS
 62
     7
 10
-188.8410480232534
 20
198.6819249267481
  0
VERTEX
  8
1
  6
CONTINUOUS
 62
     7
 10
-188.8410403165762
 20
198.6819208919967
  0
VERTEX
  8
1
  6
CONTINUOUS
 62
     7
 10
-188.84102619344
 20
198.6819135200004
  0
VERTEX
  8
1
  6
CONTINUOUS
 62
     7
 10
-188.8123381869159
 20
198.6669392245124
  0
VERTEX
  8
1
  6
CONTINUOUS
 62
     7
 10
-187.6470473139484
 20
198.0590966349
  0
SEQEND
  8
1
  6
CONTINUOUS
 62
     7
  0
LINE
  8
1
  6
CONTINUOUS
 62
     7
 10
-157.6581237549879
 20
190.8012655756366
 11
-156.9592395405436
 21
191.1229290628135
  0
POLYLINE
  8
1
  6
CONTINUOUS
 62
     7
 66
     1
  0
VERTEX
  8
1
  6
CONTINUOUS
 62
     7
 10
-156.9592395405436
 20
191.1229290628135
  0
VERTEX
  8
1
  6
CONTINUOUS
 62
     7
 10
-156.8380879654754
 20
191.1741292608428
  0
VERTEX
  8
1
  6
CONTINUOUS
 62
     7
 10
-156.7258624629496
 20
191.2647735591723
  0
VERTEX
  8
1
  6
CONTINUOUS
 62
     7
 10
-156.6874806443234
 20
191.3677739913821
  0
SEQEND
  8
1
  6
CONTINUOUS
 62
     7
  0
POLYLINE
  8
1
  6
CONTINUOUS
 62
     7
 66
     1
  0
VERTEX
  8
1
  6
CONTINUOUS
 62
     7
 10
-157.3390755405999
 20
189.3440571133678
  0
VERTEX
  8
1
  6
CONTINUOUS
 62
     7
 10
-156.8944677606777
 20
189.6009886065652
  0
VERTEX
  8
1
  6
CONTINUOUS
 62
     7
 10
-156.8389345943505
 20
189.6331050432149
  0
VERTEX
  8
1
  6
CONTINUOUS
 62
     7
 10
-156.825052849139
 20
189.6411341523773
  0
VERTEX
  8
1
  6
CONTINUOUS
 62
     7
 10
-156.8181122098274
 20
189.6451487069585
  0
VERTEX
  8
1
  6
CONTINUOUS
 62
     7
 10
-156.8163770743421
 20
189.6461523456038
  0
VERTEX
  8
1
  6
CONTINUOUS
 62
     7
 10
-156.8159432919933
 20
189.6464032552652
  0
VERTEX
  8
1
  6
CONTINUOUS
 62
     7
 10
-156.8158348465012
 20
189.6464659826805
  0
VERTEX
  8
1
  6
CONTINUOUS
 62
     7
 10
-156.8157806237695
 20
189.6464973463881
  0
VERTEX
  8
1
  6
CONTINUOUS
 62
     7
 10
-156.8157535124072
 20
189.646513028242
  0
VERTEX
  8
1
  6
CONTINUOUS
 62
     7
 10
-156.8157450102844
 20
189.6465179460714
  0
VERTEX
  8
1
  6
CONTINUOUS
 62
     7
 10
-156.8157433855391
 20
189.6465188906859
  0
VERTEX
  8
1
  6
CONTINUOUS
 62
     7
 10
-156.8157411723816
 20
189.646520180121
  0
VERTEX
  8
1
  6
CONTINUOUS
 62
     7
 10
-156.7991915465473
 20
189.6570277627616
  0
VERTEX
  8
1
  6
CONTINUOUS
 62
     7
 10
-156.7834971707082
 20
189.668745582776
  0
VERTEX
  8
1
  6
CONTINUOUS
 62
     7
 10
-156.7687376242374
 20
189.6815942024231
  0
VERTEX
  8
1
  6
CONTINUOUS
 62
     7
 10
-156.7549924830183
 20
189.6954941839621
  0
VERTEX
  8
1
  6
CONTINUOUS
 62
     7
 10
-156.7426757833777
 20
189.7099424296324
  0
VERTEX
  8
1
  6
CONTINUOUS
 62
     7
 10
-156.731466530769
 20
189.7252365565759
  0
VERTEX
  8
1
  6
CONTINUOUS
 62
     7
 10
-156.7214378601271
 20
189.7413035363748
  0
VERTEX
  8
1
  6
CONTINUOUS
 62
     7
 10
-156.7126537916547
 20
189.7580650830619
  0
VERTEX
  8
1
  6
CONTINUOUS
 62
     7
 10
-156.7051476170991
 20
189.7754251750324
  0
VERTEX
  8
1
  6
CONTINUOUS
 62
     7
 10
-156.6989461446165
 20
189.7932840547388
  0
VERTEX
  8
1
  6
CONTINUOUS
 62
     7
 10
-156.6940761686004
 20
189.8115419646336
  0
VERTEX
  8
1
  6
CONTINUOUS
 62
     7
 10
-156.6905644691675
 20
189.8300991471693
  0
VERTEX
  8
1
  6
CONTINUOUS
 62
     7
 10
-156.688437811643
 20
189.8488558447983
  0
VERTEX
  8
1
  6
CONTINUOUS
 62
     7
 10
-156.6877229460469
 20
189.8677122999732
  0
VERTEX
  8
1
  6
CONTINUOUS
 62
     7
 10
-156.6884376967399
 20
189.8865687551465
  0
VERTEX
  8
1
  6
CONTINUOUS
 62
     7
 10
-156.6905642325973
 20
189.9053254527706
  0
VERTEX
  8
1
  6
CONTINUOUS
 62
     7
 10
-156.6940757968412
 20
189.9238826352981
  0
VERTEX
  8
1
  6
CONTINUOUS
 62
     7
 10
-156.6989456173993
 20
189.9421405451813
  0
VERTEX
  8
1
  6
CONTINUOUS
 62
     7
 10
-156.7051469074242
 20
189.9599994248729
  0
VERTEX
  8
1
  6
CONTINUOUS
 62
     7
 10
-156.7126528658131
 20
189.9773595168253
  0
VERTEX
  8
1
  6
CONTINUOUS
 62
     7
 10
-156.7214366777273
 20
189.994121063491
  0
VERTEX
  8
1
  6
CONTINUOUS
 62
     7
 10
-156.7314650447667
 20
190.0101880432657
  0
VERTEX
  8
1
  6
CONTINUOUS
 62
     7
 10
-156.7426739401077
 20
190.0254821701824
  0
VERTEX
  8
1
  6
CONTINUOUS
 62
     7
 10
-156.7549902222301
 20
190.0399304158236
  0
VERTEX
  8
1
  6
CONTINUOUS
 62
     7
 10
-156.7660469369514
 20
190.0512717754146
  0
VERTEX
  8
1
  6
CONTINUOUS
 62
     7
 10
-156.7777795359129
 20
190.061932742508
  0
VERTEX
  8
1
  6
CONTINUOUS
 62
     7
 10
-156.7901456811832
 20
190.0718710557653
  0
VERTEX
  8
1
  6
CONTINUOUS
 62
     7
 10
-156.7998105849858
 20
190.0788251262917
  0
VERTEX
  8
1
  6
CONTINUOUS
 62
     7
 10
-156.8097901800238
 20
190.0853311030299
  0
VERTEX
  8
1
  6
CONTINUOUS
 62
     7
 10
-156.8148924046503
 20
190.0884104846653
  0
VERTEX
  8
1
  6
CONTINUOUS
 62
     7
 10
-156.8155352892101
 20
190.0887871063247
  0
VERTEX
  8
1
  6
CONTINUOUS
 62
     7
 10
-156.8156961855574
 20
190.0888809714118
  0
VERTEX
  8
1
  6
CONTINUOUS
 62
     7
 10
-156.815736420576
 20
190.0889044195195
  0
VERTEX
  8
1
  6
CONTINUOUS
 62
     7
 10
-156.815739237191
 20
190.0889060606148
  0
VERTEX
  8
1
  6
CONTINUOUS
 62
     7
 10
-156.8157435140396
 20
190.0889085367708
  0
VERTEX
  8
1
  6
CONTINUOUS
 62
     7
 10
-156.8157487627543
 20
190.0889115727777
  0
VERTEX
  8
1
  6
CONTINUOUS
 62
     7
 10
-156.8944623054588
 20
190.1344359944545
  0
VERTEX
  8
1
  6
CONTINUOUS
 62
     7
 10
-157.3119833209297
 20
190.3757270710343
  0
SEQEND
  8
1
  6
CONTINUOUS
 62
     7
  0
POLYLINE
  8
1
  6
CONTINUOUS
 62
     7
 66
     1
  0
VERTEX
  8
1
  6
CONTINUOUS
 62
     7
 10
-157.3392400946838
 20
187.8441151815174
  0
VERTEX
  8
1
  6
CONTINUOUS
 62
     7
 10
-156.8946456135957
 20
188.1010475806095
  0
VERTEX
  8
1
  6
CONTINUOUS
 62
     7
 10
-156.8391139325013
 20
188.1331641304961
  0
VERTEX
  8
1
  6
CONTINUOUS
 62
     7
 10
-156.825232552605
 20
188.1411932679677
  0
VERTEX
  8
1
  6
CONTINUOUS
 62
     7
 10
-156.8182920950558
 20
188.1452078367035
  0
VERTEX
  8
1
  6
CONTINUOUS
 62
     7
 10
-156.816557004918
 20
188.1462114788874
  0
VERTEX
  8
1
  6
CONTINUOUS
 62
     7
 10
-156.8161232339002
 20
188.1464623894335
  0
VERTEX
  8
1
  6
CONTINUOUS
 62
     7
 10
-156.8160147912406
 20
188.14652511707
  0
VERTEX
  8
1
  6
CONTINUOUS
 62
     7
 10
-156.815960569925
 20
188.1465564808882
  0
VERTEX
  8
1
  6
CONTINUOUS
 62
     7
 10
-156.8159334592708
 20
188.1465721627973
  0
VERTEX
  8
1
  6
CONTINUOUS
 62
     7
 10
-156.8159249573701
 20
188.146577080644
  0
VERTEX
  8
1
  6
CONTINUOUS
 62
     7
 10
-156.8159233327412
 20
188.1465780252722
  0
VERTEX
  8
1
  6
CONTINUOUS
 62
     7
 10
-156.8159211197838
 20
188.1465793147317
  0
VERTEX
  8
1
  6
CONTINUOUS
 62
     7
 10
-156.7993729644217
 20
188.1570870837043
  0
VERTEX
  8
1
  6
CONTINUOUS
 62
     7
 10
-156.7836799367608
 20
188.1688050900508
  0
VERTEX
  8
1
  6
CONTINUOUS
 62
     7
 10
-156.7689216184012
 20
188.18165389603
  0
VERTEX
  8
1
  6
CONTINUOUS
 62
     7
 10
-156.7551775874829
 20
188.1955540639011
  0
VERTEX
  8
1
  6
CONTINUOUS
 62
     7
 10
-156.7428618566439
 20
188.2100024907504
  0
VERTEX
  8
1
  6
CONTINUOUS
 62
     7
 10
-156.7316534657552
 20
188.2252967988728
  0
VERTEX
  8
1
  6
CONTINUOUS
 62
     7
 10
-156.7216255519241
 20
188.2413639598507
  0
VERTEX
  8
1
  6
CONTINUOUS
 62
     7
 10
-156.7128421376706
 20
188.2581256877167
  0
VERTEX
  8
1
  6
CONTINUOUS
 62
     7
 10
-156.7053365174664
 20
188.2754859608661
  0
VERTEX
  8
1
  6
CONTINUOUS
 62
     7
 10
-156.6991355023123
 20
188.2933450217515
  0
VERTEX
  8
1
  6
CONTINUOUS
 62
     7
 10
-156.6942658894894
 20
188.3116031128252
  0
VERTEX
  8
1
  6
CONTINUOUS
 62
     7
 10
-156.6907544620427
 20
188.3301604765398
  0
VERTEX
  8
1
  6
CONTINUOUS
 62
     7
 10
-156.688627988266
 20
188.3489173553478
  0
VERTEX
  8
1
  6
CONTINUOUS
 62
     7
 10
-156.6879132211856
 20
188.3677739917017
  0
VERTEX
  8
1
  6
CONTINUOUS
 62
     7
 10
-156.6886279883121
 20
188.3866306280539
  0
VERTEX
  8
1
  6
CONTINUOUS
 62
     7
 10
-156.6907544621341
 20
188.405387506857
  0
VERTEX
  8
1
  6
CONTINUOUS
 62
     7
 10
-156.6942658896251
 20
188.4239448705634
  0
VERTEX
  8
1
  6
CONTINUOUS
 62
     7
 10
-156.6991355024916
 20
188.4422029616256
  0
VERTEX
  8
1
  6
CONTINUOUS
 62
     7
 10
-156.7053365176882
 20
188.4600620224961
  0
VERTEX
  8
1
  6
CONTINUOUS
 62
     7
 10
-156.7128421379343
 20
188.4774222956274
  0
VERTEX
  8
1
  6
CONTINUOUS
 62
     7
 10
-156.7216255522286
 20
188.494184023472
  0
VERTEX
  8
1
  6
CONTINUOUS
 62
     7
 10
-156.731653466099
 20
188.5102511844256
  0
VERTEX
  8
1
  6
CONTINUOUS
 62
     7
 10
-156.7428618570246
 20
188.5255454925213
  0
VERTEX
  8
1
  6
CONTINUOUS
 62
     7
 10
-156.755177587898
 20
188.5399939193414
  0
VERTEX
  8
1
  6
CONTINUOUS
 62
     7
 10
-156.7662338106514
 20
188.5513354299149
  0
VERTEX
  8
1
  6
CONTINUOUS
 62
     7
 10
-156.7779658907331
 20
188.5619965479908
  0
VERTEX
  8
1
  6
CONTINUOUS
 62
     7
 10
-156.7903314927558
 20
188.5719350122305
  0
VERTEX
  8
1
  6
CONTINUOUS
 62
     7
 10
-156.7999959746586
 20
188.5788891959937
  0
VERTEX
  8
1
  6
CONTINUOUS
 62
     7
 10
-156.8099751365859
 20
188.5853952859688
  0
VERTEX
  8
1
  6
CONTINUOUS
 62
     7
 10
-156.8150771407862
 20
188.5884747242226
  0
VERTEX
  8
1
  6
CONTINUOUS
 62
     7
 10
-156.815719997621
 20
188.5888513529593
  0
VERTEX
  8
1
  6
CONTINUOUS
 62
     7
 10
-156.8158808870313
 20
188.5889452198157
  0
VERTEX
  8
1
  6
CONTINUOUS
 62
     7
 10
-156.8159211203153
 20
188.5889686683657
  0
VERTEX
  8
1
  6
CONTINUOUS
 62
     7
 10
-156.8159239368089
 20
188.5889703094921
  0
VERTEX
  8
1
  6
CONTINUOUS
 62
     7
 10
-156.8159282135682
 20
188.5889727856617
  0
VERTEX
  8
1
  6
CONTINUOUS
 62
     7
 10
-156.8159334621906
 20
188.5889758216793
  0
VERTEX
  8
1
  6
CONTINUOUS
 62
     7
 10
-156.8946456165156
 20
188.634500403867
  0
VERTEX
  8
1
  6
CONTINUOUS
 62
     7
 10
-157.311983217127
 20
188.8756906740608
  0
SEQEND
  8
1
  6
CONTINUOUS
 62
     7
  0
POLYLINE
  8
1
  6
CONTINUOUS
 62
     7
 66
     1
  0
VERTEX
  8
1
  6
CONTINUOUS
 62
     7
 10
-157.3390646676379
 20
186.3441804968247
  0
VERTEX
  8
1
  6
CONTINUOUS
 62
     7
 10
-156.8944623025389
 20
186.6011119900221
  0
VERTEX
  8
1
  6
CONTINUOUS
 62
     7
 10
-156.8389296411679
 20
186.6332284266718
  0
VERTEX
  8
1
  6
CONTINUOUS
 62
     7
 10
-156.8250480167985
 20
186.6412575358342
  0
VERTEX
  8
1
  6
CONTINUOUS
 62
     7
 10
-156.8181074371117
 20
186.6452720904154
  0
VERTEX
  8
1
  6
CONTINUOUS
 62
     7
 10
-156.8163723164502
 20
186.6462757290607
  0
VERTEX
  8
1
  6
CONTINUOUS
 62
     7
 10
-156.8159385378021
 20
186.646526638722
  0
VERTEX
  8
1
  6
CONTINUOUS
 62
     7
 10
-156.8158300932349
 20
186.6465893661374
  0
VERTEX
  8
1
  6
CONTINUOUS
 62
     7
 10
-156.8157758709655
 20
186.6466207298451
  0
VERTEX
  8
1
  6
CONTINUOUS
 62
     7
 10
-156.8157487598344
 20
186.6466364116989
  0
VERTEX
  8
1
  6
CONTINUOUS
 62
     7
 10
-156.8157402577842
 20
186.6466413295282
  0
VERTEX
  8
1
  6
CONTINUOUS
 62
     7
 10
-156.8157386330973
 20
186.6466422741429
  0
VERTEX
  8
1
  6
CONTINUOUS
 62
     7
 10
-156.8157364200445
 20
186.646643563578
  0
VERTEX
  8
1
  6
CONTINUOUS
 62
     7
 10
-156.7991875476237
 20
186.6571511462185
  0
VERTEX
  8
1
  6
CONTINUOUS
 62
     7
 10
-156.7834938334437
 20
186.6688689662328
  0
VERTEX
  8
1
  6
CONTINUOUS
 62
     7
 10
-156.7687348638681
 20
186.68171758588
  0
VERTEX
  8
1
  6
CONTINUOUS
 62
     7
 10
-156.754990221815
 20
186.695617567419
  0
VERTEX
  8
1
  6
CONTINUOUS
 62
     7
 10
-156.742673939727
 20
186.7100658130893
  0
VERTEX
  8
1
  6
CONTINUOUS
 62
     7
 10
-156.7314650444229
 20
186.7253599400327
  0
VERTEX
  8
1
  6
CONTINUOUS
 62
     7
 10
-156.7214366774228
 20
186.7414269198317
  0
VERTEX
  8
1
  6
CONTINUOUS
 62
     7
 10
-156.7126528655495
 20
186.7581884665188
  0
VERTEX
  8
1
  6
CONTINUOUS
 62
     7
 10
-156.7051469072023
 20
186.7755485584893
  0
VERTEX
  8
1
  6
CONTINUOUS
 62
     7
 10
-156.69894561722
 20
186.7934074381957
  0
VERTEX
  8
1
  6
CONTINUOUS
 62
     7
 10
-156.6940757967054
 20
186.8116653480905
  0
VERTEX
  8
1
  6
CONTINUOUS
 62
     7
 10
-156.6905642325059
 20
186.8302225306262
  0
VERTEX
  8
1
  6
CONTINUOUS
 62
     7
 10
-156.6884376966937
 20
186.8489792282552
  0
VERTEX
  8
1
  6
CONTINUOUS
 62
     7
 10
-156.6877229460469
 20
186.8678356834301
  0
VERTEX
  8
1
  6
CONTINUOUS
 62
     7
 10
-156.6884378116891
 20
186.8866921386034
  0
VERTEX
  8
1
  6
CONTINUOUS
 62
     7
 10
-156.6905644692589
 20
186.9054488362275
  0
VERTEX
  8
1
  6
CONTINUOUS
 62
     7
 10
-156.6940761687362
 20
186.924006018755
  0
VERTEX
  8
1
  6
CONTINUOUS
 62
     7
 10
-156.6989461447958
 20
186.9422639286383
  0
VERTEX
  8
1
  6
CONTINUOUS
 62
     7
 10
-156.705147617321
 20
186.9601228083298
  0
VERTEX
  8
1
  6
CONTINUOUS
 62
     7
 10
-156.7126537919184
 20
186.9774829002822
  0
VERTEX
  8
1
  6
CONTINUOUS
 62
     7
 10
-156.7214378604316
 20
186.9942444469479
  0
VERTEX
  8
1
  6
CONTINUOUS
 62
     7
 10
-156.7314665311128
 20
187.0103114267226
  0
VERTEX
  8
1
  6
CONTINUOUS
 62
     7
 10
-156.7426757837584
 20
187.0256055536393
  0
VERTEX
  8
1
  6
CONTINUOUS
 62
     7
 10
-156.7549924834334
 20
187.0400537992805
  0
VERTEX
  8
1
  6
CONTINUOUS
 62
     7
 10
-156.7660495968633
 20
187.0513951588715
  0
VERTEX
  8
1
  6
CONTINUOUS
 62
     7
 10
-156.7777826446887
 20
187.0620561259649
  0
VERTEX
  8
1
  6
CONTINUOUS
 62
     7
 10
-156.7901492927278
 20
187.0719944392222
  0
VERTEX
  8
1
  6
CONTINUOUS
 62
     7
 10
-156.7998146112267
 20
187.0789485097486
  0
VERTEX
  8
1
  6
CONTINUOUS
 62
     7
 10
-156.8097946549475
 20
187.0854544864868
  0
VERTEX
  8
1
  6
CONTINUOUS
 62
     7
 10
-156.8148971171483
 20
187.0885338681222
  0
VERTEX
  8
1
  6
CONTINUOUS
 62
     7
 10
-156.8155400320395
 20
187.0889104897816
  0
VERTEX
  8
1
  6
CONTINUOUS
 62
     7
 10
-156.8157009359918
 20
187.0890043548686
  0
VERTEX
  8
1
  6
CONTINUOUS
 62
     7
 10
-156.8157411729132
 20
187.0890278029763
  0
VERTEX
  8
1
  6
CONTINUOUS
 62
     7
 10
-156.8157439896614
 20
187.0890294440717
  0
VERTEX
  8
1
  6
CONTINUOUS
 62
     7
 10
-156.8157482665676
 20
187.0890319202277
  0
VERTEX
  8
1
  6
CONTINUOUS
 62
     7
 10
-156.8157535153271
 20
187.0890349562346
  0
VERTEX
  8
1
  6
CONTINUOUS
 62
     7
 10
-156.8944677635976
 20
187.1345593779114
  0
VERTEX
  8
1
  6
CONTINUOUS
 62
     7
 10
-157.3119832390338
 20
187.3758443616688
  0
SEQEND
  8
1
  6
CONTINUOUS
 62
     7
  0
POLYLINE
  8
1
  6
CONTINUOUS
 62
     7
 66
     1
  0
VERTEX
  8
1
  6
CONTINUOUS
 62
     7
 10
-156.6874806443234
 20
185.3677739913821
  0
VERTEX
  8
1
  6
CONTINUOUS
 62
     7
 10
-156.697157297942
 20
185.420053563404
  0
VERTEX
  8
1
  6
CONTINUOUS
 62
     7
 10
-156.7258624629983
 20
185.4707744237425
  0
VERTEX
  8
1
  6
CONTINUOUS
 62
     7
 10
-156.7730842048567
 20
185.5183782480578
  0
VERTEX
  8
1
  6
CONTINUOUS
 62
     7
 10
-156.8380879656743
 20
185.5614187221636
  0
VERTEX
  8
1
  6
CONTINUOUS
 62
     7
 10
-156.9196572077978
 20
185.5987160158334
  0
VERTEX
  8
1
  6
CONTINUOUS
 62
     7
 10
-156.96624912981
 20
185.614854389959
  0
VERTEX
  8
1
  6
CONTINUOUS
 62
     7
 10
-156.9784745261884
 20
185.6186033533092
  0
VERTEX
  8
1
  6
CONTINUOUS
 62
     7
 10
-156.9800186351767
 20
185.6190636726829
  0
VERTEX
  8
1
  6
CONTINUOUS
 62
     7
 10
-156.9804052133105
 20
185.6191784621986
  0
VERTEX
  8
1
  6
CONTINUOUS
 62
     7
 10
-156.9805018922531
 20
185.6192071414134
  0
VERTEX
  8
1
  6
CONTINUOUS
 62
     7
 10
-156.9805079351439
 20
185.619208933623
  0
VERTEX
  8
1
  6
CONTINUOUS
 62
     7
 10
-156.980509627163
 20
185.6192094354366
  0
VERTEX
  8
1
  6
CONTINUOUS
 62
     7
 10
-156.980512729557
 20
185.619210864413
  0
VERTEX
  8
1
  6
CONTINUOUS
 62
     7
 10
-156.9931275674636
 20
185.625279072589
  0
SEQEND
  8
1
  6
CONTINUOUS
 62
     7
  0
POLYLINE
  8
1
  6
CONTINUOUS
 62
     7
 66
     1
  0
VERTEX
  8
1
  6
CONTINUOUS
 62
     7
 10
-187.6610579924692
 20
186.6414798649074
  0
VERTEX
  8
1
  6
CONTINUOUS
 62
     7
 10
-188.1056790711083
 20
186.3845491319359
  0
VERTEX
  8
1
  6
CONTINUOUS
 62
     7
 10
-188.1612137252557
 20
186.3524327903145
  0
VERTEX
  8
1
  6
CONTINUOUS
 62
     7
 10
-188.1750958363189
 20
186.3444037049091
  0
VERTEX
  8
1
  6
CONTINUOUS
 62
     7
 10
-188.1820366576401
 20
186.3403891622064
  0
VERTEX
  8
1
  6
CONTINUOUS
 62
     7
 10
-188.1837718385322
 20
186.3393855265307
  0
VERTEX
  8
1
  6
CONTINUOUS
 62
     7
 10
-188.1842056322268
 20
186.3391346176118
  0
VERTEX
  8
1
  6
CONTINUOUS
 62
     7
 10
-188.1843140805549
 20
186.3390718903821
  0
VERTEX
  8
1
  6
CONTINUOUS
 62
     7
 10
-188.1843683047047
 20
186.3390405267672
  0
VERTEX
  8
1
  6
CONTINUOUS
 62
     7
 10
-188.1843954167759
 20
186.3390248449598
  0
VERTEX
  8
1
  6
CONTINUOUS
 62
     7
 10
-188.184403919121
 20
186.339019927145
  0
VERTEX
  8
1
  6
CONTINUOUS
 62
     7
 10
-188.1844055463814
 20
186.3390189811626
  0
VERTEX
  8
1
  6
CONTINUOUS
 62
     7
 10
-188.1844077597586
 20
186.339017691748
  0
VERTEX
  8
1
  6
CONTINUOUS
 62
     7
 10
-188.2009590045362
 20
186.3285102655172
  0
VERTEX
  8
1
  6
CONTINUOUS
 62
     7
 10
-188.2166548723312
 20
186.3167926019102
  0
VERTEX
  8
1
  6
CONTINUOUS
 62
     7
 10
-188.2314157842513
 20
186.3039441386677
  0
VERTEX
  8
1
  6
CONTINUOUS
 62
     7
 10
-188.2451621649168
 20
186.2900443135309
  0
VERTEX
  8
1
  6
CONTINUOUS
 62
     7
 10
-188.2574799494057
 20
186.275596219935
  0
VERTEX
  8
1
  6
CONTINUOUS
 62
     7
 10
-188.2686901687512
 20
186.2603022450634
  0
VERTEX
  8
1
  6
CONTINUOUS
 62
     7
 10
-188.2787196885679
 20
186.2442354173339
  0
VERTEX
  8
1
  6
CONTINUOUS
 62
     7
 10
-188.2875044893295
 20
186.2274740227134
  0
VERTEX
  8
1
  6
CONTINUOUS
 62
     7
 10
-188.2950112803154
 20
186.2101140828062
  0
VERTEX
  8
1
  6
CONTINUOUS
 62
     7
 10
-188.30121325451
 20
186.1922553551598
  0
VERTEX
  8
1
  6
CONTINUOUS
 62
     7
 10
-188.3060836187093
 20
186.1739975973217
  0
VERTEX
  8
1
  6
CONTINUOUS
 62
     7
 10
-188.3095955940356
 20
186.1554405668395
  0
VERTEX
  8
1
  6
CONTINUOUS
 62
     7
 10
-188.3117224164524
 20
186.1366840212605
  0
VERTEX
  8
1
  6
CONTINUOUS
 62
     7
 10
-188.312437337278
 20
186.1178277181325
  0
VERTEX
  8
1
  6
CONTINUOUS
 62
     7
 10
-188.31172253363
 20
186.0989714150028
  0
VERTEX
  8
1
  6
CONTINUOUS
 62
     7
 10
-188.3095958385216
 20
186.0802148694189
  0
VERTEX
  8
1
  6
CONTINUOUS
 62
     7
 10
-188.3060840107581
 20
186.0616578389284
  0
VERTEX
  8
1
  6
CONTINUOUS
 62
     7
 10
-188.3012138244831
 20
186.0434000810788
  0
VERTEX
  8
1
  6
CONTINUOUS
 62
     7
 10
-188.2950120686565
 20
186.0255413534176
  0
VERTEX
  8
1
  6
CONTINUOUS
 62
     7
 10
-188.2875055465318
 20
186.0081814134922
  0
VERTEX
  8
1
  6
CONTINUOUS
 62
     7
 10
-188.2787210751344
 20
185.9914200188503
  0
VERTEX
  8
1
  6
CONTINUOUS
 62
     7
 10
-188.2686919551471
 20
185.9753531910966
  0
VERTEX
  8
1
  6
CONTINUOUS
 62
     7
 10
-188.2574822160094
 20
185.9600592161983
  0
VERTEX
  8
1
  6
CONTINUOUS
 62
     7
 10
-188.2451650019675
 20
185.9456111225732
  0
VERTEX
  8
1
  6
CONTINUOUS
 62
     7
 10
-188.2341074453064
 20
185.9342698896604
  0
VERTEX
  8
1
  6
CONTINUOUS
 62
     7
 10
-188.2223739467004
 20
185.9236090492435
  0
VERTEX
  8
1
  6
CONTINUOUS
 62
     7
 10
-188.2100068456727
 20
185.9136708626611
  0
VERTEX
  8
1
  6
CONTINUOUS
 62
     7
 10
-188.2003411891857
 20
185.9067168871397
  0
VERTEX
  8
1
  6
CONTINUOUS
 62
     7
 10
-188.1903608114669
 20
185.9002110054056
  0
VERTEX
  8
1
  6
CONTINUOUS
 62
     7
 10
-188.1852581844608
 20
185.8971316712719
  0
VERTEX
  8
1
  6
CONTINUOUS
 62
     7
 10
-188.1846152490922
 20
185.8967550555502
  0
VERTEX
  8
1
  6
CONTINUOUS
 62
     7
 10
-188.1844543400251
 20
185.8966611919476
  0
VERTEX
  8
1
  6
CONTINUOUS
 62
     7
 10
-188.1844141018254
 20
185.896637744211
  0
VERTEX
  8
1
  6
CONTINUOUS
 62
     7
 10
-188.1844112849876
 20
185.8966361031416
  0
VERTEX
  8
1
  6
CONTINUOUS
 62
     7
 10
-188.1844070104003
 20
185.8966336283762
  0
VERTEX
  8
1
  6
CONTINUOUS
 62
     7
 10
-188.1844017615676
 20
185.8966305923783
  0
VERTEX
  8
1
  6
CONTINUOUS
 62
     7
 10
-188.1056864272714
 20
185.8511063054023
  0
VERTEX
  8
1
  6
CONTINUOUS
 62
     7
 10
-187.6880166312453
 20
185.6097358839097
  0
SEQEND
  8
1
  6
CONTINUOUS
 62
     7
  0
POLYLINE
  8
1
  6
CONTINUOUS
 62
     7
 66
     1
  0
VERTEX
  8
1
  6
CONTINUOUS
 62
     7
 10
-187.6608045356476
 20
188.1414705955646
  0
VERTEX
  8
1
  6
CONTINUOUS
 62
     7
 10
-188.105403204185
 20
187.8845384216858
  0
VERTEX
  8
1
  6
CONTINUOUS
 62
     7
 10
-188.1609353427882
 20
187.8524218999509
  0
VERTEX
  8
1
  6
CONTINUOUS
 62
     7
 10
-188.1748168348835
 20
187.8443927695172
  0
VERTEX
  8
1
  6
CONTINUOUS
 62
     7
 10
-188.181757348208
 20
187.8403782043004
  0
VERTEX
  8
1
  6
CONTINUOUS
 62
     7
 10
-188.183492452256
 20
187.8393745629961
  0
VERTEX
  8
1
  6
CONTINUOUS
 62
     7
 10
-188.1839262267492
 20
187.8391236526701
  0
VERTEX
  8
1
  6
CONTINUOUS
 62
     7
 10
-188.1840346702776
 20
187.8390609250886
  0
VERTEX
  8
1
  6
CONTINUOUS
 62
     7
 10
-188.1840888920275
 20
187.8390295612978
  0
VERTEX
  8
1
  6
CONTINUOUS
 62
     7
 10
-188.1841160028989
 20
187.8390138794024
  0
VERTEX
  8
1
  6
CONTINUOUS
 62
     7
 10
-188.1841245048677
 20
187.83900896156
  0
VERTEX
  8
1
  6
CONTINUOUS
 62
     7
 10
-188.1841261319225
 20
187.839008015556
  0
VERTEX
  8
1
  6
CONTINUOUS
 62
     7
 10
-188.1841283449448
 20
187.8390067261026
  0
VERTEX
  8
1
  6
CONTINUOUS
 62
     7
 10
-188.2006769757789
 20
187.8284990034939
  0
VERTEX
  8
1
  6
CONTINUOUS
 62
     7
 10
-188.2163704364334
 20
187.8167810435088
  0
VERTEX
  8
1
  6
CONTINUOUS
 62
     7
 10
-188.2311291467146
 20
187.8039322838883
  0
VERTEX
  8
1
  6
CONTINUOUS
 62
     7
 10
-188.2448735299022
 20
187.7900321623735
  0
VERTEX
  8
1
  6
CONTINUOUS
 62
     7
 10
-188.2571895666073
 20
187.775583780596
  0
VERTEX
  8
1
  6
CONTINUOUS
 62
     7
 10
-188.2683982285584
 20
187.760289517543
  0
VERTEX
  8
1
  6
CONTINUOUS
 62
     7
 10
-188.2784263799922
 20
187.7442224016321
  0
VERTEX
  8
1
  6
CONTINUOUS
 62
     7
 10
-188.2872099997753
 20
187.7274607188301
  0
VERTEX
  8
1
  6
CONTINUOUS
 62
     7
 10
-188.2947157949387
 20
187.7101004907414
  0
VERTEX
  8
1
  6
CONTINUOUS
 62
     7
 10
-188.3009169560208
 20
187.6922414749136
  0
VERTEX
  8
1
  6
CONTINUOUS
 62
     7
 10
-188.3057866872938
 20
187.673983428894
  0
VERTEX
  8
1
  6
CONTINUOUS
 62
     7
 10
-188.3092982072791
 20
187.6554261102303
  0
VERTEX
  8
1
  6
CONTINUOUS
 62
     7
 10
-188.3114247492615
 20
187.6366692764699
  0
VERTEX
  8
1
  6
CONTINUOUS
 62
     7
 10
-188.3121395618037
 20
187.6178126851603
  0
VERTEX
  8
1
  6
CONTINUOUS
 62
     7
 10
-188.3114248190231
 20
187.5989560938491
  0
VERTEX
  8
1
  6
CONTINUOUS
 62
     7
 10
-188.3092983501867
 20
187.5801992600838
  0
VERTEX
  8
1
  6
CONTINUOUS
 62
     7
 10
-188.3057869101142
 20
187.5616419414118
  0
VERTEX
  8
1
  6
CONTINUOUS
 62
     7
 10
-188.3009172688984
 20
187.5433838953807
  0
VERTEX
  8
1
  6
CONTINUOUS
 62
     7
 10
-188.2947162113872
 20
187.5255248795381
  0
VERTEX
  8
1
  6
CONTINUOUS
 62
     7
 10
-188.2872105366668
 20
187.5081646514313
  0
VERTEX
  8
1
  6
CONTINUOUS
 62
     7
 10
-188.278427057544
 20
187.4914029686079
  0
VERTEX
  8
1
  6
CONTINUOUS
 62
     7
 10
-188.2683990703173
 20
187.4753358526727
  0
VERTEX
  8
1
  6
CONTINUOUS
 62
     7
 10
-188.2571905994336
 20
187.4600415895929
  0
VERTEX
  8
1
  6
CONTINUOUS
 62
     7
 10
-188.2448747839535
 20
187.4455932077864
  0
VERTEX
  8
1
  6
CONTINUOUS
 62
     7
 10
-188.2338184885491
 20
187.4342517347223
  0
VERTEX
  8
1
  6
CONTINUOUS
 62
     7
 10
-188.2220863350651
 20
187.4235906541542
  0
VERTEX
  8
1
  6
CONTINUOUS
 62
     7
 10
-188.2097206600093
 20
187.4136522274206
  0
VERTEX
  8
1
  6
CONTINUOUS
 62
     7
 10
-188.2000561242457
 20
187.4066980717858
  0
VERTEX
  8
1
  6
CONTINUOUS
 62
     7
 10
-188.190076909763
 20
187.4001920099383
  0
VERTEX
  8
1
  6
CONTINUOUS
 62
     7
 10
-188.1849748799209
 20
187.3971125857479
  0
VERTEX
  8
1
  6
CONTINUOUS
 62
     7
 10
-188.1843320199149
 20
187.3967359587691
  0
VERTEX
  8
1
  6
CONTINUOUS
 62
     7
 10
-188.1841711297131
 20
187.3966420923522
  0
VERTEX
  8
1
  6
CONTINUOUS
 62
     7
 10
-188.1841308962313
 20
187.396618643912
  0
VERTEX
  8
1
  6
CONTINUOUS
 62
     7
 10
-188.1841280797239
 20
187.3966170027934
  0
VERTEX
  8
1
  6
CONTINUOUS
 62
     7
 10
-188.1841238053367
 20
187.3966145280064
  0
VERTEX
  8
1
  6
CONTINUOUS
 62
     7
 10
-188.1841185566953
 20
187.3966114919914
  0
VERTEX
  8
1
  6
CONTINUOUS
 62
     7
 10
-188.1054061212321
 20
187.351086949708
  0
VERTEX
  8
1
  6
CONTINUOUS
 62
     7
 10
-187.6880167437886
 20
187.1098677628186
  0
SEQEND
  8
1
  6
CONTINUOUS
 62
     7
  0
POLYLINE
  8
1
  6
CONTINUOUS
 62
     7
 66
     1
  0
VERTEX
  8
1
  6
CONTINUOUS
 62
     7
 10
-187.6608102157166
 20
189.6413932086474
  0
VERTEX
  8
1
  6
CONTINUOUS
 62
     7
 10
-188.1054061183122
 20
189.3844610347685
  0
VERTEX
  8
1
  6
CONTINUOUS
 62
     7
 10
-188.1609379970564
 20
189.3523445130336
  0
VERTEX
  8
1
  6
CONTINUOUS
 62
     7
 10
-188.1748194268826
 20
189.3443153825999
  0
VERTEX
  8
1
  6
CONTINUOUS
 62
     7
 10
-188.1817599094703
 20
189.3403008173831
  0
VERTEX
  8
1
  6
CONTINUOUS
 62
     7
 10
-188.1834950058752
 20
189.3392971760789
  0
VERTEX
  8
1
  6
CONTINUOUS
 62
     7
 10
-188.1839287784602
 20
189.3390462657528
  0
VERTEX
  8
1
  6
CONTINUOUS
 62
     7
 10
-188.1840372215117
 20
189.3389835381713
  0
VERTEX
  8
1
  6
CONTINUOUS
 62
     7
 10
-188.1840914430232
 20
189.3389521743806
  0
VERTEX
  8
1
  6
CONTINUOUS
 62
     7
 10
-188.1841185537754
 20
189.3389364924852
  0
VERTEX
  8
1
  6
CONTINUOUS
 62
     7
 10
-188.1841270557069
 20
189.3389315746428
  0
VERTEX
  8
1
  6
CONTINUOUS
 62
     7
 10
-188.1841286827314
 20
189.3389306286387
  0
VERTEX
  8
1
  6
CONTINUOUS
 62
     7
 10
-188.1841308956997
 20
189.3389293391854
  0
VERTEX
  8
1
  6
CONTINUOUS
 62
     7
 10
-188.2006791368552
 20
189.3284216165766
  0
VERTEX
  8
1
  6
CONTINUOUS
 62
     7
 10
-188.2163722537679
 20
189.3167036565915
  0
VERTEX
  8
1
  6
CONTINUOUS
 62
     7
 10
-188.2311306627434
 20
189.303854896971
  0
VERTEX
  8
1
  6
CONTINUOUS
 62
     7
 10
-188.2448747835383
 20
189.2899547754562
  0
VERTEX
  8
1
  6
CONTINUOUS
 62
     7
 10
-188.2571905990529
 20
189.2755063936787
  0
VERTEX
  8
1
  6
CONTINUOUS
 62
     7
 10
-188.2683990699735
 20
189.2602121306257
  0
VERTEX
  8
1
  6
CONTINUOUS
 62
     7
 10
-188.2784270572395
 20
189.2441450147148
  0
VERTEX
  8
1
  6
CONTINUOUS
 62
     7
 10
-188.2872105364031
 20
189.2273833319128
  0
VERTEX
  8
1
  6
CONTINUOUS
 62
     7
 10
-188.2947162111653
 20
189.2100231038241
  0
VERTEX
  8
1
  6
CONTINUOUS
 62
     7
 10
-188.3009172687191
 20
189.1921640879963
  0
VERTEX
  8
1
  6
CONTINUOUS
 62
     7
 10
-188.3057869099785
 20
189.1739060419767
  0
VERTEX
  8
1
  6
CONTINUOUS
 62
     7
 10
-188.3092983500952
 20
189.155348723313
  0
VERTEX
  8
1
  6
CONTINUOUS
 62
     7
 10
-188.3114248189769
 20
189.1365918895526
  0
VERTEX
  8
1
  6
CONTINUOUS
 62
     7
 10
-188.3121395618037
 20
189.117735298243
  0
VERTEX
  8
1
  6
CONTINUOUS
 62
     7
 10
-188.3114247493076
 20
189.0988787069318
  0
VERTEX
  8
1
  6
CONTINUOUS
 62
     7
 10
-188.3092982073706
 20
189.0801218731665
  0
VERTEX
  8
1
  6
CONTINUOUS
 62
     7
 10
-188.3057866874296
 20
189.0615645544945
  0
VERTEX
  8
1
  6
CONTINUOUS
 62
     7
 10
-188.3009169562
 20
189.0433065084635
  0
VERTEX
  8
1
  6
CONTINUOUS
 62
     7
 10
-188.2947157951607
 20
189.0254474926208
  0
VERTEX
  8
1
  6
CONTINUOUS
 62
     7
 10
-188.287210000039
 20
189.008087264514
  0
VERTEX
  8
1
  6
CONTINUOUS
 62
     7
 10
-188.2784263802967
 20
188.9913255816906
  0
VERTEX
  8
1
  6
CONTINUOUS
 62
     7
 10
-188.2683982289022
 20
188.9752584657554
  0
VERTEX
  8
1
  6
CONTINUOUS
 62
     7
 10
-188.257189566988
 20
188.9599642026756
  0
VERTEX
  8
1
  6
CONTINUOUS
 62
     7
 10
-188.2448735303174
 20
188.9455158208691
  0
VERTEX
  8
1
  6
CONTINUOUS
 62
     7
 10
-188.2338170251828
 20
188.9341743478051
  0
VERTEX
  8
1
  6
CONTINUOUS
 62
     7
 10
-188.2220846368597
 20
188.9235132672369
  0
VERTEX
  8
1
  6
CONTINUOUS
 62
     7
 10
-188.2097186999783
 20
188.9135748405033
  0
VERTEX
  8
1
  6
CONTINUOUS
 62
     7
 10
-188.2000539490116
 20
188.9066206848686
  0
VERTEX
  8
1
  6
CONTINUOUS
 62
     7
 10
-188.1900745023103
 20
188.900114623021
  0
VERTEX
  8
1
  6
CONTINUOUS
 62
     7
 10
-188.1849723497336
 20
188.8970351988306
  0
VERTEX
  8
1
  6
CONTINUOUS
 62
     7
 10
-188.1843294740682
 20
188.8966585718518
  0
VERTEX
  8
1
  6
CONTINUOUS
 62
     7
 10
-188.1841685799403
 20
188.8965647054349
  0
VERTEX
  8
1
  6
CONTINUOUS
 62
     7
 10
-188.1841283454764
 20
188.8965412569947
  0
VERTEX
  8
1
  6
CONTINUOUS
 62
     7
 10
-188.1841255289002
 20
188.8965396158761
  0
VERTEX
  8
1
  6
CONTINUOUS
 62
     7
 10
-188.1841212544832
 20
188.8965371410891
  0
VERTEX
  8
1
  6
CONTINUOUS
 62
     7
 10
-188.1841160058188
 20
188.8965341050741
  0
VERTEX
  8
1
  6
CONTINUOUS
 62
     7
 10
-188.1054032071049
 20
188.8510095627908
  0
VERTEX
  8
1
  6
CONTINUOUS
 62
     7
 10
-187.6880167850079
 20
188.6097935606415
  0
SEQEND
  8
1
  6
CONTINUOUS
 62
     7
  0
POLYLINE
  8
1
  6
CONTINUOUS
 62
     7
 66
     1
  0
VERTEX
  8
1
  6
CONTINUOUS
 62
     7
 10
-187.6610732060148
 20
191.1413724120459
  0
VERTEX
  8
1
  6
CONTINUOUS
 62
     7
 10
-188.1056864243515
 20
190.8844416790743
  0
VERTEX
  8
1
  6
CONTINUOUS
 62
     7
 10
-188.1612203541856
 20
190.8523253374529
  0
VERTEX
  8
1
  6
CONTINUOUS
 62
     7
 10
-188.1751022922813
 20
190.8442962520475
  0
VERTEX
  8
1
  6
CONTINUOUS
 62
     7
 10
-188.1820430283154
 20
190.8402817093449
  0
VERTEX
  8
1
  6
CONTINUOUS
 62
     7
 10
-188.1837781880098
 20
190.8392780736692
  0
VERTEX
  8
1
  6
CONTINUOUS
 62
     7
 10
-188.1842119764127
 20
190.8390271647503
  0
VERTEX
  8
1
  6
CONTINUOUS
 62
     7
 10
-188.1843204234184
 20
190.8389644375205
  0
VERTEX
  8
1
  6
CONTINUOUS
 62
     7
 10
-188.1843746469069
 20
190.8389330739057
  0
VERTEX
  8
1
  6
CONTINUOUS
 62
     7
 10
-188.1844017586477
 20
190.8389173920982
  0
VERTEX
  8
1
  6
CONTINUOUS
 62
     7
 10
-188.1844102608891
 20
190.8389124742834
  0
VERTEX
  8
1
  6
CONTINUOUS
 62
     7
 10
-188.184411888066
 20
190.838911528301
  0
VERTEX
  8
1
  6
CONTINUOUS
 62
     7
 10
-188.1844141012938
 20
190.8389102388864
  0
VERTEX
  8
1
  6
CONTINUOUS
 62
     7
 10
-188.2009642742118
 20
190.8284028126557
  0
VERTEX
  8
1
  6
CONTINUOUS
 62
     7
 10
-188.2166592075569
 20
190.8166851490486
  0
VERTEX
  8
1
  6
CONTINUOUS
 62
     7
 10
-188.231419311974
 20
190.8038366858061
  0
VERTEX
  8
1
  6
CONTINUOUS
 62
     7
 10
-188.2451650015524
 20
190.7899368606694
  0
VERTEX
  8
1
  6
CONTINUOUS
 62
     7
 10
-188.2574822156287
 20
190.7754887670734
  0
VERTEX
  8
1
  6
CONTINUOUS
 62
     7
 10
-188.2686919548033
 20
190.7601947922018
  0
VERTEX
  8
1
  6
CONTINUOUS
 62
     7
 10
-188.2787210748299
 20
190.7441279644724
  0
VERTEX
  8
1
  6
CONTINUOUS
 62
     7
 10
-188.2875055462681
 20
190.7273665698519
  0
VERTEX
  8
1
  6
CONTINUOUS
 62
     7
 10
-188.2950120684345
 20
190.7100066299447
  0
VERTEX
  8
1
  6
CONTINUOUS
 62
     7
 10
-188.3012138243038
 20
190.6921479022983
  0
VERTEX
  8
1
  6
CONTINUOUS
 62
     7
 10
-188.3060840106223
 20
190.6738901444602
  0
VERTEX
  8
1
  6
CONTINUOUS
 62
     7
 10
-188.3095958384302
 20
190.6553331139779
  0
VERTEX
  8
1
  6
CONTINUOUS
 62
     7
 10
-188.3117225335838
 20
190.636576568399
  0
VERTEX
  8
1
  6
CONTINUOUS
 62
     7
 10
-188.312437337278
 20
190.6177202652709
  0
VERTEX
  8
1
  6
CONTINUOUS
 62
     7
 10
-188.3117224164986
 20
190.5988639621412
  0
VERTEX
  8
1
  6
CONTINUOUS
 62
     7
 10
-188.3095955941271
 20
190.5801074165573
  0
VERTEX
  8
1
  6
CONTINUOUS
 62
     7
 10
-188.3060836188451
 20
190.5615503860668
  0
VERTEX
  8
1
  6
CONTINUOUS
 62
     7
 10
-188.3012132546893
 20
190.5432926282172
  0
VERTEX
  8
1
  6
CONTINUOUS
 62
     7
 10
-188.2950112805374
 20
190.525433900556
  0
VERTEX
  8
1
  6
CONTINUOUS
 62
     7
 10
-188.2875044895931
 20
190.5080739606307
  0
VERTEX
  8
1
  6
CONTINUOUS
 62
     7
 10
-188.2787196888724
 20
190.4913125659888
  0
VERTEX
  8
1
  6
CONTINUOUS
 62
     7
 10
-188.268690169095
 20
190.475245738235
  0
VERTEX
  8
1
  6
CONTINUOUS
 62
     7
 10
-188.2574799497864
 20
190.4599517633367
  0
VERTEX
  8
1
  6
CONTINUOUS
 62
     7
 10
-188.2451621653319
 20
190.4455036697116
  0
VERTEX
  8
1
  6
CONTINUOUS
 62
     7
 10
-188.2341040573177
 20
190.4341624367988
  0
VERTEX
  8
1
  6
CONTINUOUS
 62
     7
 10
-188.2223699322396
 20
190.4235015963819
  0
VERTEX
  8
1
  6
CONTINUOUS
 62
     7
 10
-188.2100021240077
 20
190.4135634097995
  0
VERTEX
  8
1
  6
CONTINUOUS
 62
     7
 10
-188.2003358807774
 20
190.4066094342782
  0
VERTEX
  8
1
  6
CONTINUOUS
 62
     7
 10
-188.1903548654176
 20
190.400103552544
  0
VERTEX
  8
1
  6
CONTINUOUS
 62
     7
 10
-188.1852518997742
 20
190.3970242184103
  0
VERTEX
  8
1
  6
CONTINUOUS
 62
     7
 10
-188.1846089211257
 20
190.3966476026887
  0
VERTEX
  8
1
  6
CONTINUOUS
 62
     7
 10
-188.1844480012052
 20
190.396553739086
  0
VERTEX
  8
1
  6
CONTINUOUS
 62
     7
 10
-188.1844077602901
 20
190.3965302913494
  0
VERTEX
  8
1
  6
CONTINUOUS
 62
     7
 10
-188.1844049432623
 20
190.39652865028
  0
VERTEX
  8
1
  6
CONTINUOUS
 62
     7
 10
-188.1844006685926
 20
190.3965261755147
  0
VERTEX
  8
1
  6
CONTINUOUS
 62
     7
 10
-188.1843954196959
 20
190.3965231395168
  0
VERTEX
  8
1
  6
CONTINUOUS
 62
     7
 10
-188.1056790740283
 20
190.3509988525407
  0
VERTEX
  8
1
  6
CONTINUOUS
 62
     7
 10
-187.6880167530934
 20
190.1096369473305
  0
SEQEND
  8
1
  6
CONTINUOUS
 62
     7
  0
LINE
  8
1
  6
CONTINUOUS
 62
     7
 10
-157.312
 20
191.8726779768065
 11
-157.312
 21
192.867773991395
  0
LINE
  8
1
  6
CONTINUOUS
 62
     7
 10
-157.312
 20
190.3725439839074
 11
-157.312
 21
190.8628700059836
  0
LINE
  8
1
  6
CONTINUOUS
 62
     7
 10
-157.312
 20
188.8724598423196
 11
-157.312
 21
189.3629895351226
  0
LINE
  8
1
  6
CONTINUOUS
 62
     7
 10
-157.312
 20
187.3725389589007
 11
-157.312
 21
187.8631069094025
  0
LINE
  8
1
  6
CONTINUOUS
 62
     7
 10
-157.312
 20
185.8726779768065
 11
-157.312
 21
186.3630042276008
  0
LINE
  8
1
  6
CONTINUOUS
 62
     7
 10
-157.312
 20
183.8677739913951
 11
-157.312
 21
184.8628700059836
  0
LINE
  8
1
  6
CONTINUOUS
 62
     7
 10
-187.688
 20
185.6129499640663
 11
-187.688
 21
183.867773991395
  0
LINE
  8
1
  6
CONTINUOUS
 62
     7
 10
-187.688
 20
187.1130788934675
 11
-187.688
 21
186.6226327925035
  0
LINE
  8
1
  6
CONTINUOUS
 62
     7
 10
-187.688
 20
188.6130754466541
 11
-187.688
 21
188.1224766991079
  0
LINE
  8
1
  6
CONTINUOUS
 62
     7
 10
-187.688
 20
190.11291522608
 11
-187.688
 21
189.6224812742242
  0
LINE
  8
1
  6
CONTINUOUS
 62
     7
 10
-187.688
 20
192.867773991395
 11
-187.688
 21
191.1225980174899
  0
LINE
  8
1
  6
CONTINUOUS
 62
     7
 10
-157.3545
 20
210.2779493856516
 11
-157.3545
 21
210.867773991395
  0
LINE
  8
1
  6
CONTINUOUS
 62
     7
 10
-157.3545
 20
207.9687693599772
 11
-157.3545
 21
208.4575985971385
  0
LINE
  8
1
  6
CONTINUOUS
 62
     7
 10
-157.3545
 20
205.6595904964704
 11
-157.3545
 21
206.1486071189526
  0
LINE
  8
1
  6
CONTINUOUS
 62
     7
 10
-157.3545
 20
203.3504916182985
 11
-157.3545
 21
203.8395929667812
  0
LINE
  8
1
  6
CONTINUOUS
 62
     7
 10
-157.3545
 20
201.041499916865
 11
-157.3545
 21
201.5305188128174
  0
LINE
  8
1
  6
CONTINUOUS
 62
     7
 10
-157.3545
 20
198.7324948401971
 11
-157.3545
 21
199.2213218560524
  0
LINE
  8
1
  6
CONTINUOUS
 62
     7
 10
-157.3545
 20
195.867773991395
 11
-157.3545
 21
196.9121440516839
  0
LINE
  8
1
  6
CONTINUOUS
 62
     7
 10
-187.6455
 20
198.0667168093686
 11
-187.6455
 21
195.8677739913951
  0
LINE
  8
1
  6
CONTINUOUS
 62
     7
 10
-187.6455
 20
200.3759313027694
 11
-187.6455
 21
199.8869726709146
  0
LINE
  8
1
  6
CONTINUOUS
 62
     7
 10
-187.6455
 20
202.6850820290002
 11
-187.6455
 21
202.1959965336104
  0
LINE
  8
1
  6
CONTINUOUS
 62
     7
 10
-187.6455
 20
204.9941044633124
 11
-187.6455
 21
204.5050218875346
  0
LINE
  8
1
  6
CONTINUOUS
 62
     7
 10
-187.6455
 20
207.303108633632
 11
-187.6455
 21
206.8141697811501
  0
LINE
  8
1
  6
CONTINUOUS
 62
     7
 10
-187.6455
 20
210.867773991395
 11
-187.6455
 21
209.1233565934082
  0
LINE
  8
1
  6
CONTINUOUS
 62
     7
 10
-149.0
 20
192.867773991395
 11
-149.0
 21
195.867773991395
  0
LINE
  8
1
  6
CONTINUOUS
 62
     7
 10
-196.0
 20
195.867773991395
 11
-196.0
 21
192.867773991395
  0
ENDBLK
  8
0
  0
BLOCK
  8
0
  2
D_FRAME_VIEW_1778
 70
     0
 10
0.0
 20
0.0
  0
CIRCLE
  8
1
  6
CONTINUOUS
 62
     7
 10
-172.5
 20
129.1666666666667
 40
15.18800000000001
  0
CIRCLE
  8
1
  6
CONTINUOUS
 62
     7
 10
-172.5
 20
129.1666666666667
 40
13.75000000000001
  0
LINE
  8
1
  6
CONTINUOUS
 62
     7
 10
-157.312
 20
129.1666666666667
 11
-156.6874806443234
 21
129.1666666666667
  0
LINE
  8
1
  6
CONTINUOUS
 62
     7
 10
-176.2884942399256
 20
150.3302512258582
 11
-174.1342068532387
 21
152.4845386125451
  0
ARC
  8
1
  6
CONTINUOUS
 62
     7
 10
-173.7806534626455
 20
152.1309852219518
 40
0.5000000000000014
 50
93.1919133209779
 51
134.9999999999998
  0
ARC
  8
1
  6
CONTINUOUS
 62
     7
 10
-172.5
 20
129.1666666666667
 40
23.50000000000001
 50
86.80808667902198
 51
93.1919133209779
  0
ARC
  8
1
  6
CONTINUOUS
 62
     7
 10
-171.2193465373546
 20
152.1309852219518
 40
0.4999999999999983
 50
45.00000000000009
 51
86.80808667902214
  0
LINE
  8
1
  6
CONTINUOUS
 62
     7
 10
-160.2139558115183
 20
146.8104507902235
 11
-157.1673333720164
 21
146.8104507902235
  0
ARC
  8
1
  6
CONTINUOUS
 62
     7
 10
-157.1673333720164
 20
146.3104507902235
 40
0.4999999999999976
 50
48.19191332097795
 51
90.0
  0
ARC
  8
1
  6
CONTINUOUS
 62
     7
 10
-172.5
 20
129.1666666666667
 40
23.5
 50
41.80808667902209
 51
48.1919133209779
  0
ARC
  8
1
  6
CONTINUOUS
 62
     7
 10
-155.3562158764432
 20
144.4993332946503
 40
0.5000000000000004
 50
0.0
 51
41.80808667902207
  0
LINE
  8
1
  6
CONTINUOUS
 62
     7
 10
-154.8562158764432
 20
144.4993332946503
 11
-154.8562158764432
 21
141.4527108551484
  0
ARC
  8
1
  6
CONTINUOUS
 62
     7
 10
-172.5
 20
129.1666666666667
 40
21.5
 50
10.14902411374197
 51
34.85097588625803
  0
LINE
  8
1
  6
CONTINUOUS
 62
     7
 10
-151.3364154408085
 20
132.9551609065923
 11
-149.1821280541216
 21
130.8008735199054
  0
ARC
  8
1
  6
CONTINUOUS
 62
     7
 10
-149.5356814447148
 20
130.4473201293121
 40
0.5000000000000014
 50
3.191913320977998
 51
44.99999999999989
  0
ARC
  8
1
  6
CONTINUOUS
 62
     7
 10
-172.5
 20
129.1666666666667
 40
23.50000000000001
 50
356.8080866790221
 51
3.191913320978017
  0
ARC
  8
1
  6
CONTINUOUS
 62
     7
 10
-149.5356814447148
 20
127.8860132040212
 40
0.4999999999999983
 50
315.0000000000001
 51
356.8080866790221
  0
LINE
  8
1
  6
CONTINUOUS
 62
     7
 10
-149.1821280541216
 20
127.5324598134279
 11
-151.3364154408085
 21
125.3781724267411
  0
ARC
  8
1
  6
CONTINUOUS
 62
     7
 10
-172.5
 20
129.1666666666667
 40
21.5
 50
325.149024113742
 51
349.8509758862581
  0
LINE
  8
1
  6
CONTINUOUS
 62
     7
 10
-154.8562158764432
 20
116.880622478185
 11
-154.8562158764432
 21
113.8340000386831
  0
ARC
  8
1
  6
CONTINUOUS
 62
     7
 10
-155.3562158764432
 20
113.8340000386831
 40
0.4999999999999791
 50
318.191913320978
 51
359.9999999999996
  0
ARC
  8
1
  6
CONTINUOUS
 62
     7
 10
-172.5
 20
129.1666666666667
 40
23.49999999999999
 50
311.8080866790219
 51
318.1919133209779
  0
ARC
  8
1
  6
CONTINUOUS
 62
     7
 10
-157.1673333720164
 20
112.0228825431098
 40
0.5000000000000004
 50
270.0
 51
311.8080866790221
  0
LINE
  8
1
  6
CONTINUOUS
 62
     7
 10
-157.1673333720164
 20
111.5228825431098
 11
-160.2139558115183
 21
111.5228825431098
  0
ARC
  8
1
  6
CONTINUOUS
 62
     7
 10
-172.5
 20
129.1666666666667
 40
21.5
 50
280.149024113742
 51
304.850975886258
  0
LINE
  8
1
  6
CONTINUOUS
 62
     7
 10
-168.7115057600744
 20
108.0030821074751
 11
-170.8657931467613
 21
105.8487947207883
  0
ARC
  8
1
  6
CONTINUOUS
 62
     7
 10
-171.2193465373546
 20
106.2023481113815
 40
0.5000000000000014
 50
273.1919133209779
 51
314.9999999999998
  0
ARC
  8
1
  6
CONTINUOUS
 62
     7
 10
-172.5
 20
129.1666666666667
 40
23.50000000000001
 50
266.8080866790219
 51
273.1919133209779
  0
ARC
  8
1
  6
CONTINUOUS
 62
     7
 10
-173.7806534626455
 20
106.2023481113815
 40
0.4999999999999786
 50
225.0000000000001
 51
266.8080866790221
  0
LINE
  8
1
  6
CONTINUOUS
 62
     7
 10
-174.1342068532387
 20
105.8487947207883
 11
-176.2884942399256
 21
108.0030821074751
  0
ARC
  8
1
  6
CONTINUOUS
 62
     7
 10
-172.5
 20
129.1666666666667
 40
21.5
 50
235.149024113742
 51
259.850975886258
  0
LINE
  8
1
  6
CONTINUOUS
 62
     7
 10
-184.7860441884817
 20
111.5228825431098
 11
-187.8326666279836
 21
111.5228825431098
  0
ARC
  8
1
  6
CONTINUOUS
 62
     7
 10
-187.8326666279836
 20
112.0228825431098
 40
0.4999999999999791
 50
228.1919133209782
 51
269.9999999999996
  0
ARC
  8
1
  6
CONTINUOUS
 62
     7
 10
-172.5
 20
129.1666666666667
 40
23.49999999999999
 50
221.8080866790222
 51
228.191913320978
  0
ARC
  8
1
  6
CONTINUOUS
 62
     7
 10
-189.6437841235568
 20
113.8340000386831
 40
0.5000000000000004
 50
180.0
 51
221.808086679022
  0
LINE
  8
1
  6
CONTINUOUS
 62
     7
 10
-190.1437841235568
 20
113.8340000386831
 11
-190.1437841235568
 21
116.880622478185
  0
ARC
  8
1
  6
CONTINUOUS
 62
     7
 10
-172.5
 20
129.1666666666667
 40
21.5
 50
190.149024113742
 51
214.850975886258
  0
LINE
  8
1
  6
CONTINUOUS
 62
     7
 10
-193.6635845591915
 20
125.3781724267411
 11
-195.8178719458784
 21
127.5324598134279
  0
ARC
  8
1
  6
CONTINUOUS
 62
     7
 10
-195.4643185552852
 20
127.8860132040212
 40
0.5000000000000014
 50
183.191913320978
 51
224.9999999999999
  0
ARC
  8
1
  6
CONTINUOUS
 62
     7
 10
-172.5
 20
129.1666666666667
 40
23.50000000000001
 50
176.808086679022
 51
183.191913320978
  0
ARC
  8
1
  6
CONTINUOUS
 62
     7
 10
-195.4643185552852
 20
130.4473201293121
 40
0.4999999999999786
 50
135.0000000000001
 51
176.8080866790222
  0
LINE
  8
1
  6
CONTINUOUS
 62
     7
 10
-195.8178719458784
 20
130.8008735199054
 11
-193.6635845591915
 21
132.9551609065923
  0
ARC
  8
1
  6
CONTINUOUS
 62
     7
 10
-172.5
 20
129.1666666666667
 40
21.5
 50
145.149024113742
 51
169.8509758862581
  0
LINE
  8
1
  6
CONTINUOUS
 62
     7
 10
-190.1437841235568
 20
141.4527108551484
 11
-190.1437841235568
 21
144.4993332946503
  0
ARC
  8
1
  6
CONTINUOUS
 62
     7
 10
-189.6437841235568
 20
144.4993332946503
 40
0.4999999999999791
 50
138.1919133209782
 51
179.9999999999996
  0
ARC
  8
1
  6
CONTINUOUS
 62
     7
 10
-172.5
 20
129.1666666666667
 40
23.49999999999999
 50
131.808086679022
 51
138.191913320978
  0
ARC
  8
1
  6
CONTINUOUS
 62
     7
 10
-187.8326666279836
 20
146.3104507902235
 40
0.5000000000000004
 50
90.0
 51
131.8080866790224
  0
LINE
  8
1
  6
CONTINUOUS
 62
     7
 10
-187.8326666279836
 20
146.8104507902235
 11
-184.7860441884817
 21
146.8104507902235
  0
ARC
  8
1
  6
CONTINUOUS
 62
     7
 10
-172.5
 20
129.1666666666667
 40
21.5
 50
100.149024113742
 51
124.8509758862581
  0
LINE
  8
1
  6
CONTINUOUS
 62
     7
 10
-170.8657931467613
 20
152.4845386125451
 11
-168.7115057600744
 21
150.3302512258582
  0
ARC
  8
1
  6
CONTINUOUS
 62
     7
 10
-172.5
 20
129.1666666666667
 40
21.5
 50
55.14902411374195
 51
79.85097588625804
  0
ARC
  8
1
  6
CONTINUOUS
 62
     7
 10
-172.1713021510382
 20
128.5931033348914
 40
15.49444104662574
 50
2.121423286683266
 51
57.03941285044377
  0
LINE
  8
1
  6
CONTINUOUS
 62
     7
 10
-156.6874806443234
 20
129.1666666666662
 11
-156.6908511848955
 21
129.4919932622
  0
LINE
  8
1
  6
CONTINUOUS
 62
     7
 10
-156.6905485715271
 20
128.8635885054175
 11
-156.6878946894636
 21
129.2363192873333
  0
ARC
  8
1
  6
CONTINUOUS
 62
     7
 10
-172.4917353099947
 20
129.107546919252
 40
15.80436524134797
 50
0.4668453769201671
 51
0.2143281214299009
  0
ENDBLK
  8
0
  0
ENDSEC
  0
SECTION
  2
ENTITIES
  0
LINE
  8
1
  6
CENTER
 62
     1
 10
-172.5
 20
212.8677739913951
 11
-172.5
 21
182.5
  0
INSERT
  8
1
  6
CONTINUOUS
 62
     7
  2
D_FRAME_VIEW_1491
 10
0.0
 20
0.0
 30
0.0
  0
TEXT
  8
1
  6
CONTINUOUS
 62
     7
 10
-182.0826028510692
 20
90.8284200325122
 40
3.0
  1
MFPN-28M32K
  0
LINE
  8
1
  6
CONTINUOUS
 62
     2
 10
-181.9977272727273
 20
90.27045454545456
 11
-163.0022727272728
 21
90.27045454545456
  0
LINE
  8
1
  6
CENTER
 62
     1
 10
-196.0
 20
129.1666666666667
 11
-149.0
 21
129.1666666666667
  0
LINE
  8
1
  6
CENTER
 62
     1
 10
-172.5
 20
105.6666666666667
 11
-172.5
 21
152.6666666666667
  0
INSERT
  8
1
  6
CONTINUOUS
 62
     7
  2
D_FRAME_VIEW_1778
 10
0.0
 20
0.0
 30
0.0
  0
ENDSEC
  0
EOF
