  0
SECTION
  2
HEADER
  9
$ACADVER
  1
AC1004
  9
$INSBASE
 10
0.0
 20
0.0
  9
$EXTMIN
 10
-257.6666666666667
 20
40.27045454545457
  9
$EXTMAX
 10
-210.6666666666667
 20
162.9338016817832
  9
$LIMMIN
 10
0.0
 20
0.0
  9
$LIMMAX
 10
12.0
 20
9.0
  9
$ORTHOMODE
 70
     0
  9
$REGENMODE
 70
     1
  9
$FILLMODE
 70
     1
  9
$QTEXTMODE
 70
     0
  9
$DRAGMODE
 70
     2
  9
$LTSCALE
 40
1.0
  9
$OSMODE
 70
    37
  9
$ATTMODE
 70
     1
  9
$TEXTSIZE
 40
0.2
  9
$TRACEWID
 40
0.05
  9
$TEXTSTYLE
  7
STANDARD
  9
$CLAYER
  8
0
  9
$CELTYPE
  6
BYLAYER
  9
$CECOLOR
 62
   256
  9
$DIMSCALE
 40
1.0
  9
$DIMASZ
 40
3.0
  9
$DIMEXO
 40
0.0625
  9
$DIMDLI
 40
0.38
  9
$DIMRND
 40
0.0
  9
$DIMDLE
 40
0.0
  9
$DIMEXE
 40
1.5
  9
$DIMTP
 40
0.0
  9
$DIMTM
 40
0.0
  9
$DIMTXT
 40
3.0
  9
$DIMCEN
 40
0.09
  9
$DIMTSZ
 40
0.0
  9
$DIMTOL
 70
     0
  9
$DIMLIM
 70
     0
  9
$DIMTIH
 70
     1
  9
$DIMTOH
 70
     1
  9
$DIMSE1
 70
     0
  9
$DIMSE2
 70
     0
  9
$DIMTAD
 70
     1
  9
$DIMZIN
 70
     0
  9
$DIMBLK
  1

  9
$DIMASO
 70
     1
  9
$DIMSHO
 70
     1
  9
$DIMPOST
  1

  9
$DIMAPOST
  1

  9
$DIMALT
 70
     0
  9
$DIMALTD
 70
     2
  9
$DIMALTF
 40
25.4
  9
$DIMLFAC
 40
1.0
  9
$DIMTOFL
 70
     0
  9
$DIMTVP
 40
0.0
  9
$DIMTIX
 70
     0
  9
$DIMSOXD
 70
     0
  9
$DIMSAH
 70
     0
  9
$DIMBLK1
  1

  9
$DIMBLK2
  1

  9
$LUNITS
 70
     2
  9
$LUPREC
 70
     4
  9
$SKETCHINC
 40
0.1
  9
$FILLETRAD
 40
0.5
  9
$AUNITS
 70
     0
  9
$AUPREC
 70
     0
  9
$MENU
  1
.
  9
$ELEVATION
 40
0.0
  9
$THICKNESS
 40
0.0
  9
$LIMCHECK
 70
     0
  9
$CHAMFERA
 40
0.0
  9
$CHAMFERB
 40
0.0
  9
$SKPOLY
 70
     0
  9
$TDCREATE
 40
2459460.412471389
  9
$TDUPDATE
 40
2459460.412471574
  9
$TDINDWG
 40
0.0000000116
  9
$TDUSRTIMER
 40
0.0000000116
  9
$USRTIMER
 70
     1
  9
$ANGBASE
 50
0.0
  9
$ANGDIR
 70
     0
  9
$PDMODE
 70
     0
  9
$PDSIZE
 40
0.0
  9
$PLINEWID
 40
0.0
  9
$COORDS
 70
     1
  9
$SPLFRAME
 70
     0
  9
$SPLINETYPE
 70
     6
  9
$SPLINESEGS
 70
     8
  9
$ATTDIA
 70
     0
  9
$ATTREQ
 70
     1
  9
$SURFTAB1
 70
     6
  9
$SURFTAB2
 70
     6
  9
$SURFTYPE
 70
     6
  9
$SURFU
 70
     6
  9
$SURFV
 70
     6
  9
$UCSNAME
  2

  9
$UCSORG
 10
0.0
 20
0.0
 30
0.0
  9
$UCSXDIR
 10
1.0
 20
0.0
 30
0.0
  9
$UCSYDIR
 10
0.0
 20
1.0
 30
0.0
  9
$USERI1
 70
     0
  9
$USERI2
 70
     0
  9
$USERI3
 70
     0
  9
$USERI4
 70
     0
  9
$USERI5
 70
     0
  9
$USERR1
 40
0.0
  9
$USERR2
 40
0.0
  9
$USERR3
 40
0.0
  9
$USERR4
 40
0.0
  9
$USERR5
 40
0.0
  9
$WORLDVIEW
 70
     1
  0
ENDSEC
  0
SECTION
  2
TABLES
  0
TABLE
  2
LTYPE
 70
     2
  0
LTYPE
  2
CONTINUOUS
 70
     0
  3
Solid line
 72
    65
 73
     0
 40
0.0
  0
LTYPE
  2
CENTER
 70
     0
  3

 72
    65
 73
     0
 40
0.0
  0
ENDTAB
  0
TABLE
  2
LAYER
 70
     2
  0
LAYER
  2
0
 70
     0
 62
     7
  6
CONTINUOUS
  0
LAYER
  2
1
 70
     0
 62
     7
  6
CONTINUOUS
  0
ENDTAB
  0
TABLE
  2
STYLE
 70
     2
  0
STYLE
  2
STANDARD
 70
     0
 40
0.0
 41
1.0
 50
0.0
 71
     0
 42
0.2
  3
txt
  4

  0
STYLE
  2
ＭＳ_ゴシック
 70
     0
 40
0.0
 41
1.0
 50
0.0
 71
     0
 42
0.2
  3
ＭＳ ゴシック.shx
  4

  0
ENDTAB
  0
TABLE
  2
VIEW
 70
     0
  0
ENDTAB
  0
ENDSEC
  0
SECTION
  2
BLOCKS
  0
BLOCK
  8
0
  2
D_FRAME_VIEW_1491
 70
     0
 10
0.0
 20
0.0
  0
LINE
  8
1
  6
CONTINUOUS
 62
     7
 10
-235.4751604219783
 20
145.9338016817833
 11
-232.858172911355
 21
145.9338016817833
  0
LINE
  8
1
  6
CONTINUOUS
 62
     7
 10
-235.4751604219783
 20
142.9338016817833
 11
-232.858172911355
 21
142.9338016817833
  0
LINE
  8
1
  6
CONTINUOUS
 62
     7
 10
-235.8008735199054
 20
145.9338016817833
 11
-235.4751604219784
 21
145.9338016817833
  0
LINE
  8
1
  6
CONTINUOUS
 62
     7
 10
-235.4751604219783
 20
142.9338016817833
 11
-235.8008735199054
 21
142.9338016817833
  0
LINE
  8
1
  6
CONTINUOUS
 62
     7
 10
-232.858172911355
 20
145.9338016817833
 11
-232.532459813428
 21
145.9338016817833
  0
LINE
  8
1
  6
CONTINUOUS
 62
     7
 10
-232.5324598134279
 20
142.9338016817833
 11
-232.858172911355
 21
142.9338016817833
  0
LINE
  8
1
  6
CONTINUOUS
 62
     7
 10
-237.9551609065923
 20
142.9338016817833
 11
-237.9551609065923
 21
145.9338016817833
  0
LINE
  8
1
  6
CONTINUOUS
 62
     7
 10
-237.9551609065923
 20
145.9338016817833
 11
-235.8008735199054
 21
145.9338016817833
  0
LINE
  8
1
  6
CONTINUOUS
 62
     7
 10
-237.9551609065923
 20
142.9338016817833
 11
-235.8008735199054
 21
142.9338016817833
  0
LINE
  8
1
  6
CONTINUOUS
 62
     7
 10
-230.3781724267411
 20
142.9338016817833
 11
-230.3781724267411
 21
145.9338016817833
  0
LINE
  8
1
  6
CONTINUOUS
 62
     7
 10
-232.5324598134279
 20
145.9338016817833
 11
-230.3781724267411
 21
145.9338016817833
  0
LINE
  8
1
  6
CONTINUOUS
 62
     7
 10
-232.5324598134279
 20
142.9338016817833
 11
-230.3781724267411
 21
142.9338016817833
  0
LINE
  8
1
  6
CONTINUOUS
 62
     7
 10
-246.4527108551484
 20
142.9338016817833
 11
-246.4527108551484
 21
145.9338016817833
  0
LINE
  8
1
  6
CONTINUOUS
 62
     7
 10
-237.9551609065923
 20
145.9338016817833
 11
-246.4527108551484
 21
145.9338016817833
  0
LINE
  8
1
  6
CONTINUOUS
 62
     7
 10
-237.9551609065923
 20
142.9338016817833
 11
-246.4527108551484
 21
142.9338016817833
  0
LINE
  8
1
  6
CONTINUOUS
 62
     7
 10
-221.880622478185
 20
142.9338016817833
 11
-221.880622478185
 21
145.9338016817833
  0
LINE
  8
1
  6
CONTINUOUS
 62
     7
 10
-221.880622478185
 20
145.9338016817833
 11
-230.3781724267411
 21
145.9338016817833
  0
LINE
  8
1
  6
CONTINUOUS
 62
     7
 10
-221.880622478185
 20
142.9338016817833
 11
-230.3781724267411
 21
142.9338016817833
  0
ARC
  8
1
  6
CONTINUOUS
 62
     7
 10
-710.3657363634281
 20
21948.26576939195
 40
21817.47217856516
 50
271.2041602480272
 51
271.2972584566722
  0
LINE
  8
1
  6
CONTINUOUS
 62
     7
 10
-251.8712546291638
 20
135.6117568082439
 11
-251.9066666666665
 21
135.5958046305546
  0
ARC
  8
1
  6
CONTINUOUS
 62
     7
 10
-704.8748253216812
 20
21709.79283470308
 40
21577.34890848714
 50
271.2029845977994
 51
271.2971131465902
  0
LINE
  8
1
  6
CONTINUOUS
 62
     7
 10
-251.8691846898149
 20
137.1997636755023
 11
-251.9066666666638
 21
137.1835847103332
  0
ARC
  8
1
  6
CONTINUOUS
 62
     7
 10
-644.6185455495794
 20
18990.7115119575
 40
18856.01357863372
 50
271.1935104942273
 51
271.3012053922645
  0
LINE
  8
1
  6
CONTINUOUS
 62
     7
 10
-251.863219234781
 20
138.788763036887
 11
-251.9066666666482
 21
138.7710854105155
  0
ARC
  8
1
  6
CONTINUOUS
 62
     7
 10
-8.802634277402799
 20
-10248.23355541916
 40
10391.43591713516
 50
91.14539072394228
 51
91.34053715263246
  0
POLYLINE
  8
1
  6
CONTINUOUS
 62
     7
 66
     1
  0
VERTEX
  8
1
  6
CONTINUOUS
 62
     7
 10
-215.7680846723351
 20
135.4338016817832
  0
VERTEX
  8
1
  6
CONTINUOUS
 62
     7
 10
-215.7681269642133
 20
135.4375641534836
  0
VERTEX
  8
1
  6
CONTINUOUS
 62
     7
 10
-215.7682535711457
 20
135.4413248071277
  0
VERTEX
  8
1
  6
CONTINUOUS
 62
     7
 10
-215.7684640900789
 20
135.4450818246595
  0
VERTEX
  8
1
  6
CONTINUOUS
 62
     7
 10
-215.7687581179595
 20
135.4488333880227
  0
VERTEX
  8
1
  6
CONTINUOUS
 62
     7
 10
-215.7691352517342
 20
135.4525776791612
  0
VERTEX
  8
1
  6
CONTINUOUS
 62
     7
 10
-215.7695950883497
 20
135.4563128800187
  0
VERTEX
  8
1
  6
CONTINUOUS
 62
     7
 10
-215.7701372247526
 20
135.4600371725391
  0
VERTEX
  8
1
  6
CONTINUOUS
 62
     7
 10
-215.7707612578896
 20
135.4637487386662
  0
VERTEX
  8
1
  6
CONTINUOUS
 62
     7
 10
-215.7714667847072
 20
135.4674457603437
  0
VERTEX
  8
1
  6
CONTINUOUS
 62
     7
 10
-215.7722534021522
 20
135.4711264195157
  0
VERTEX
  8
1
  6
CONTINUOUS
 62
     7
 10
-215.7731207071711
 20
135.4747888981256
  0
VERTEX
  8
1
  6
CONTINUOUS
 62
     7
 10
-215.7740682967108
 20
135.4784313781176
  0
VERTEX
  8
1
  6
CONTINUOUS
 62
     7
 10
-215.7750957677176
 20
135.4820520414352
  0
VERTEX
  8
1
  6
CONTINUOUS
 62
     7
 10
-215.7762027171384
 20
135.4856490700224
  0
VERTEX
  8
1
  6
CONTINUOUS
 62
     7
 10
-215.7773887419198
 20
135.489220645823
  0
VERTEX
  8
1
  6
CONTINUOUS
 62
     7
 10
-215.7786534390084
 20
135.4927649507808
  0
VERTEX
  8
1
  6
CONTINUOUS
 62
     7
 10
-215.7799964053509
 20
135.4962801668395
  0
VERTEX
  8
1
  6
CONTINUOUS
 62
     7
 10
-215.7814172378938
 20
135.4997644759431
  0
VERTEX
  8
1
  6
CONTINUOUS
 62
     7
 10
-215.782915533584
 20
135.5032160600352
  0
VERTEX
  8
1
  6
CONTINUOUS
 62
     7
 10
-215.7844908858531
 20
135.5066331026988
  0
VERTEX
  8
1
  6
CONTINUOUS
 62
     7
 10
-215.7861426304839
 20
135.5100139076604
  0
VERTEX
  8
1
  6
CONTINUOUS
 62
     7
 10
-215.7878696744091
 20
135.5133569786225
  0
VERTEX
  8
1
  6
CONTINUOUS
 62
     7
 10
-215.7896708839945
 20
135.5166608382044
  0
VERTEX
  8
1
  6
CONTINUOUS
 62
     7
 10
-215.7915451256059
 20
135.5199240090254
  0
VERTEX
  8
1
  6
CONTINUOUS
 62
     7
 10
-215.7934912656093
 20
135.5231450137047
  0
VERTEX
  8
1
  6
CONTINUOUS
 62
     7
 10
-215.7955081703705
 20
135.5263223748614
  0
VERTEX
  8
1
  6
CONTINUOUS
 62
     7
 10
-215.7975947062553
 20
135.5294546151149
  0
VERTEX
  8
1
  6
CONTINUOUS
 62
     7
 10
-215.7997497396298
 20
135.5325402570843
  0
VERTEX
  8
1
  6
CONTINUOUS
 62
     7
 10
-215.8019721368595
 20
135.5355778233889
  0
VERTEX
  8
1
  6
CONTINUOUS
 62
     7
 10
-215.8042607643105
 20
135.5385658366479
  0
VERTEX
  8
1
  6
CONTINUOUS
 62
     7
 10
-215.8066144883486
 20
135.5415028194805
  0
VERTEX
  8
1
  6
CONTINUOUS
 62
     7
 10
-215.8090321753397
 20
135.544387294506
  0
VERTEX
  8
1
  6
CONTINUOUS
 62
     7
 10
-215.8115126916495
 20
135.5472177843434
  0
VERTEX
  8
1
  6
CONTINUOUS
 62
     7
 10
-215.8140549036441
 20
135.5499928116123
  0
VERTEX
  8
1
  6
CONTINUOUS
 62
     7
 10
-215.8166576776893
 20
135.5527108989317
  0
VERTEX
  8
1
  6
CONTINUOUS
 62
     7
 10
-215.8193198801508
 20
135.5553705689209
  0
VERTEX
  8
1
  6
CONTINUOUS
 62
     7
 10
-215.8220403773946
 20
135.557970344199
  0
VERTEX
  8
1
  6
CONTINUOUS
 62
     7
 10
-215.8248180357866
 20
135.5605087473854
  0
VERTEX
  8
1
  6
CONTINUOUS
 62
     7
 10
-215.8276517216925
 20
135.5629843010992
  0
VERTEX
  8
1
  6
CONTINUOUS
 62
     7
 10
-215.8508415765018
 20
135.5824511541302
  0
VERTEX
  8
1
  6
CONTINUOUS
 62
     7
 10
-215.8868306446371
 20
135.6126495679289
  0
VERTEX
  8
1
  6
CONTINUOUS
 62
     7
 10
-215.9228197127724
 20
135.6428479817277
  0
VERTEX
  8
1
  6
CONTINUOUS
 62
     7
 10
-215.9588087809077
 20
135.6730463955264
  0
VERTEX
  8
1
  6
CONTINUOUS
 62
     7
 10
-215.994797849043
 20
135.7032448093252
  0
VERTEX
  8
1
  6
CONTINUOUS
 62
     7
 10
-216.0307869171783
 20
135.733443223124
  0
VERTEX
  8
1
  6
CONTINUOUS
 62
     7
 10
-216.0667759853136
 20
135.7636416369227
  0
VERTEX
  8
1
  6
CONTINUOUS
 62
     7
 10
-216.1027650534489
 20
135.7938400507215
  0
VERTEX
  8
1
  6
CONTINUOUS
 62
     7
 10
-216.1387541215842
 20
135.8240384645202
  0
VERTEX
  8
1
  6
CONTINUOUS
 62
     7
 10
-216.1747431897195
 20
135.854236878319
  0
VERTEX
  8
1
  6
CONTINUOUS
 62
     7
 10
-216.2107322578548
 20
135.8844352921177
  0
VERTEX
  8
1
  6
CONTINUOUS
 62
     7
 10
-216.2467213259901
 20
135.9146337059164
  0
VERTEX
  8
1
  6
CONTINUOUS
 62
     7
 10
-216.2827103941254
 20
135.9448321197152
  0
VERTEX
  8
1
  6
CONTINUOUS
 62
     7
 10
-216.3186994622608
 20
135.975030533514
  0
VERTEX
  8
1
  6
CONTINUOUS
 62
     7
 10
-216.3546885303961
 20
136.0052289473127
  0
VERTEX
  8
1
  6
CONTINUOUS
 62
     7
 10
-216.3906775985313
 20
136.0354273611114
  0
VERTEX
  8
1
  6
CONTINUOUS
 62
     7
 10
-216.4266666666667
 20
136.0656257749102
  0
SEQEND
  8
1
  6
CONTINUOUS
 62
     7
  0
ARC
  8
1
  6
CONTINUOUS
 62
     7
 10
1221.736706462605
 20
-66165.49874248718
 40
66323.4981307587
 50
91.24251748804528
 51
91.27315890696902
  0
LINE
  8
1
  6
CONTINUOUS
 62
     7
 10
-216.4433471524814
 20
142.4045755497804
 11
-216.4266666666667
 21
142.4156257749102
  0
ARC
  8
1
  6
CONTINUOUS
 62
     7
 10
1524.911277746894
 20
-79930.72302533724
 40
80090.47309111999
 50
91.24584232259262
 51
91.27121710185287
  0
LINE
  8
1
  6
CONTINUOUS
 62
     7
 10
-216.4427855564033
 20
140.817274482347
 11
-216.4266666666668
 21
140.8278978919991
  0
ARC
  8
1
  6
CONTINUOUS
 62
     7
 10
1113.724584514361
 20
-61295.73310035503
 40
61449.36053198997
 50
91.2403551608495
 51
91.27342573574674
  0
LINE
  8
1
  6
CONTINUOUS
 62
     7
 10
-216.4445647089837
 20
139.2289312515398
 11
-216.4266666666788
 21
139.2402182550925
  0
LINE
  8
1
  6
CONTINUOUS
 62
     7
 10
-251.9040590571999
 20
136.863679317014
 11
-251.8031858205724
 21
136.8865053752251
  0
ARC
  8
1
  6
CONTINUOUS
 62
     7
 10
-1830.523146468341
 20
76254.41604928709
 40
76133.89954929698
 50
271.1881760278836
 51
271.2147326632183
  0
LINE
  8
1
  6
CONTINUOUS
 62
     7
 10
-216.5228265475567
 20
137.6264194706017
 11
-216.426666666669
 21
137.6528963738888
  0
POLYLINE
  8
1
  6
CONTINUOUS
 62
     7
 66
     1
  0
VERTEX
  8
1
  6
CONTINUOUS
 62
     7
 10
-216.4266666666667
 20
142.4156257749102
  0
VERTEX
  8
1
  6
CONTINUOUS
 62
     7
 10
-216.3906775985314
 20
142.3854273611115
  0
VERTEX
  8
1
  6
CONTINUOUS
 62
     7
 10
-216.354688530396
 20
142.3552289473127
  0
VERTEX
  8
1
  6
CONTINUOUS
 62
     7
 10
-216.3186994622608
 20
142.325030533514
  0
VERTEX
  8
1
  6
CONTINUOUS
 62
     7
 10
-216.2827103941255
 20
142.2948321197152
  0
VERTEX
  8
1
  6
CONTINUOUS
 62
     7
 10
-216.2467213259901
 20
142.2646337059165
  0
VERTEX
  8
1
  6
CONTINUOUS
 62
     7
 10
-216.2107322578548
 20
142.2344352921177
  0
VERTEX
  8
1
  6
CONTINUOUS
 62
     7
 10
-216.1747431897195
 20
142.2042368783189
  0
VERTEX
  8
1
  6
CONTINUOUS
 62
     7
 10
-216.1387541215842
 20
142.1740384645202
  0
VERTEX
  8
1
  6
CONTINUOUS
 62
     7
 10
-216.1027650534489
 20
142.1438400507215
  0
VERTEX
  8
1
  6
CONTINUOUS
 62
     7
 10
-216.0667759853135
 20
142.1136416369227
  0
VERTEX
  8
1
  6
CONTINUOUS
 62
     7
 10
-216.0307869171783
 20
142.083443223124
  0
VERTEX
  8
1
  6
CONTINUOUS
 62
     7
 10
-215.994797849043
 20
142.0532448093252
  0
VERTEX
  8
1
  6
CONTINUOUS
 62
     7
 10
-215.9588087809077
 20
142.0230463955265
  0
VERTEX
  8
1
  6
CONTINUOUS
 62
     7
 10
-215.9228197127724
 20
141.9928479817277
  0
VERTEX
  8
1
  6
CONTINUOUS
 62
     7
 10
-215.886830644637
 20
141.9626495679289
  0
VERTEX
  8
1
  6
CONTINUOUS
 62
     7
 10
-215.8508415765017
 20
141.9324511541302
  0
VERTEX
  8
1
  6
CONTINUOUS
 62
     7
 10
-215.8276517216925
 20
141.9129843010992
  0
VERTEX
  8
1
  6
CONTINUOUS
 62
     7
 10
-215.8248180357866
 20
141.9105087473854
  0
VERTEX
  8
1
  6
CONTINUOUS
 62
     7
 10
-215.8220403773946
 20
141.907970344199
  0
VERTEX
  8
1
  6
CONTINUOUS
 62
     7
 10
-215.8193198801509
 20
141.9053705689209
  0
VERTEX
  8
1
  6
CONTINUOUS
 62
     7
 10
-215.8166576776893
 20
141.9027108989317
  0
VERTEX
  8
1
  6
CONTINUOUS
 62
     7
 10
-215.8140549036441
 20
141.8999928116123
  0
VERTEX
  8
1
  6
CONTINUOUS
 62
     7
 10
-215.8115126916495
 20
141.8972177843435
  0
VERTEX
  8
1
  6
CONTINUOUS
 62
     7
 10
-215.8090321753396
 20
141.8943872945059
  0
VERTEX
  8
1
  6
CONTINUOUS
 62
     7
 10
-215.8066144883486
 20
141.8915028194805
  0
VERTEX
  8
1
  6
CONTINUOUS
 62
     7
 10
-215.8042607643104
 20
141.8885658366479
  0
VERTEX
  8
1
  6
CONTINUOUS
 62
     7
 10
-215.8019721368595
 20
141.8855778233889
  0
VERTEX
  8
1
  6
CONTINUOUS
 62
     7
 10
-215.7997497396297
 20
141.8825402570843
  0
VERTEX
  8
1
  6
CONTINUOUS
 62
     7
 10
-215.7975947062554
 20
141.8794546151149
  0
VERTEX
  8
1
  6
CONTINUOUS
 62
     7
 10
-215.7955081703705
 20
141.8763223748614
  0
VERTEX
  8
1
  6
CONTINUOUS
 62
     7
 10
-215.7934912656093
 20
141.8731450137047
  0
VERTEX
  8
1
  6
CONTINUOUS
 62
     7
 10
-215.7915451256059
 20
141.8699240090254
  0
VERTEX
  8
1
  6
CONTINUOUS
 62
     7
 10
-215.7896708839944
 20
141.8666608382045
  0
VERTEX
  8
1
  6
CONTINUOUS
 62
     7
 10
-215.7878696744091
 20
141.8633569786225
  0
VERTEX
  8
1
  6
CONTINUOUS
 62
     7
 10
-215.7861426304839
 20
141.8600139076604
  0
VERTEX
  8
1
  6
CONTINUOUS
 62
     7
 10
-215.7844908858531
 20
141.8566331026989
  0
VERTEX
  8
1
  6
CONTINUOUS
 62
     7
 10
-215.782915533584
 20
141.8532160600353
  0
VERTEX
  8
1
  6
CONTINUOUS
 62
     7
 10
-215.7814172378939
 20
141.8497644759431
  0
VERTEX
  8
1
  6
CONTINUOUS
 62
     7
 10
-215.7799964053509
 20
141.8462801668396
  0
VERTEX
  8
1
  6
CONTINUOUS
 62
     7
 10
-215.7786534390085
 20
141.8427649507808
  0
VERTEX
  8
1
  6
CONTINUOUS
 62
     7
 10
-215.7773887419199
 20
141.839220645823
  0
VERTEX
  8
1
  6
CONTINUOUS
 62
     7
 10
-215.7762027171385
 20
141.8356490700225
  0
VERTEX
  8
1
  6
CONTINUOUS
 62
     7
 10
-215.7750957677177
 20
141.8320520414352
  0
VERTEX
  8
1
  6
CONTINUOUS
 62
     7
 10
-215.7740682967108
 20
141.8284313781176
  0
VERTEX
  8
1
  6
CONTINUOUS
 62
     7
 10
-215.7731207071712
 20
141.8247888981257
  0
VERTEX
  8
1
  6
CONTINUOUS
 62
     7
 10
-215.7722534021522
 20
141.8211264195157
  0
VERTEX
  8
1
  6
CONTINUOUS
 62
     7
 10
-215.7714667847072
 20
141.8174457603438
  0
VERTEX
  8
1
  6
CONTINUOUS
 62
     7
 10
-215.7707612578896
 20
141.8137487386662
  0
VERTEX
  8
1
  6
CONTINUOUS
 62
     7
 10
-215.7701372247527
 20
141.8100371725391
  0
VERTEX
  8
1
  6
CONTINUOUS
 62
     7
 10
-215.7695950883497
 20
141.8063128800187
  0
VERTEX
  8
1
  6
CONTINUOUS
 62
     7
 10
-215.7691352517342
 20
141.8025776791612
  0
VERTEX
  8
1
  6
CONTINUOUS
 62
     7
 10
-215.7687581179595
 20
141.7988333880228
  0
VERTEX
  8
1
  6
CONTINUOUS
 62
     7
 10
-215.7684640900789
 20
141.7950818246595
  0
VERTEX
  8
1
  6
CONTINUOUS
 62
     7
 10
-215.7682535711456
 20
141.7913248071278
  0
VERTEX
  8
1
  6
CONTINUOUS
 62
     7
 10
-215.7681269642133
 20
141.7875641534836
  0
VERTEX
  8
1
  6
CONTINUOUS
 62
     7
 10
-215.7680846723351
 20
141.7838016817832
  0
SEQEND
  8
1
  6
CONTINUOUS
 62
     7
  0
POLYLINE
  8
1
  6
CONTINUOUS
 62
     7
 66
     1
  0
VERTEX
  8
1
  6
CONTINUOUS
 62
     7
 10
-216.4266666666667
 20
134.8019775886563
  0
VERTEX
  8
1
  6
CONTINUOUS
 62
     7
 10
-216.3906775985314
 20
134.832176002455
  0
VERTEX
  8
1
  6
CONTINUOUS
 62
     7
 10
-216.3546885303961
 20
134.8623744162538
  0
VERTEX
  8
1
  6
CONTINUOUS
 62
     7
 10
-216.3186994622608
 20
134.8925728300525
  0
VERTEX
  8
1
  6
CONTINUOUS
 62
     7
 10
-216.2827103941255
 20
134.9227712438513
  0
VERTEX
  8
1
  6
CONTINUOUS
 62
     7
 10
-216.2467213259901
 20
134.95296965765
  0
VERTEX
  8
1
  6
CONTINUOUS
 62
     7
 10
-216.2107322578548
 20
134.9831680714487
  0
VERTEX
  8
1
  6
CONTINUOUS
 62
     7
 10
-216.1747431897195
 20
135.0133664852475
  0
VERTEX
  8
1
  6
CONTINUOUS
 62
     7
 10
-216.1387541215842
 20
135.0435648990463
  0
VERTEX
  8
1
  6
CONTINUOUS
 62
     7
 10
-216.1027650534489
 20
135.073763312845
  0
VERTEX
  8
1
  6
CONTINUOUS
 62
     7
 10
-216.0667759853136
 20
135.1039617266438
  0
VERTEX
  8
1
  6
CONTINUOUS
 62
     7
 10
-216.0307869171783
 20
135.1341601404425
  0
VERTEX
  8
1
  6
CONTINUOUS
 62
     7
 10
-215.994797849043
 20
135.1643585542413
  0
VERTEX
  8
1
  6
CONTINUOUS
 62
     7
 10
-215.9588087809076
 20
135.19455696804
  0
VERTEX
  8
1
  6
CONTINUOUS
 62
     7
 10
-215.9228197127724
 20
135.2247553818387
  0
VERTEX
  8
1
  6
CONTINUOUS
 62
     7
 10
-215.8868306446371
 20
135.2549537956375
  0
VERTEX
  8
1
  6
CONTINUOUS
 62
     7
 10
-215.8508415765018
 20
135.2851522094363
  0
VERTEX
  8
1
  6
CONTINUOUS
 62
     7
 10
-215.8276517216925
 20
135.3046190624673
  0
VERTEX
  8
1
  6
CONTINUOUS
 62
     7
 10
-215.8248180357866
 20
135.307094616181
  0
VERTEX
  8
1
  6
CONTINUOUS
 62
     7
 10
-215.8220403773946
 20
135.3096330193674
  0
VERTEX
  8
1
  6
CONTINUOUS
 62
     7
 10
-215.8193198801509
 20
135.3122327946456
  0
VERTEX
  8
1
  6
CONTINUOUS
 62
     7
 10
-215.8166576776893
 20
135.3148924646348
  0
VERTEX
  8
1
  6
CONTINUOUS
 62
     7
 10
-215.8140549036441
 20
135.3176105519541
  0
VERTEX
  8
1
  6
CONTINUOUS
 62
     7
 10
-215.8115126916495
 20
135.320385579223
  0
VERTEX
  8
1
  6
CONTINUOUS
 62
     7
 10
-215.8090321753397
 20
135.3232160690605
  0
VERTEX
  8
1
  6
CONTINUOUS
 62
     7
 10
-215.8066144883486
 20
135.326100544086
  0
VERTEX
  8
1
  6
CONTINUOUS
 62
     7
 10
-215.8042607643105
 20
135.3290375269186
  0
VERTEX
  8
1
  6
CONTINUOUS
 62
     7
 10
-215.8019721368594
 20
135.3320255401776
  0
VERTEX
  8
1
  6
CONTINUOUS
 62
     7
 10
-215.7997497396297
 20
135.3350631064822
  0
VERTEX
  8
1
  6
CONTINUOUS
 62
     7
 10
-215.7975947062553
 20
135.3381487484516
  0
VERTEX
  8
1
  6
CONTINUOUS
 62
     7
 10
-215.7955081703705
 20
135.3412809887051
  0
VERTEX
  8
1
  6
CONTINUOUS
 62
     7
 10
-215.7934912656093
 20
135.3444583498618
  0
VERTEX
  8
1
  6
CONTINUOUS
 62
     7
 10
-215.7915451256059
 20
135.347679354541
  0
VERTEX
  8
1
  6
CONTINUOUS
 62
     7
 10
-215.7896708839945
 20
135.350942525362
  0
VERTEX
  8
1
  6
CONTINUOUS
 62
     7
 10
-215.7878696744091
 20
135.354246384944
  0
VERTEX
  8
1
  6
CONTINUOUS
 62
     7
 10
-215.7861426304839
 20
135.3575894559061
  0
VERTEX
  8
1
  6
CONTINUOUS
 62
     7
 10
-215.7844908858531
 20
135.3609702608676
  0
VERTEX
  8
1
  6
CONTINUOUS
 62
     7
 10
-215.782915533584
 20
135.3643873035312
  0
VERTEX
  8
1
  6
CONTINUOUS
 62
     7
 10
-215.7814172378939
 20
135.3678388876234
  0
VERTEX
  8
1
  6
CONTINUOUS
 62
     7
 10
-215.7799964053509
 20
135.3713231967269
  0
VERTEX
  8
1
  6
CONTINUOUS
 62
     7
 10
-215.7786534390084
 20
135.3748384127857
  0
VERTEX
  8
1
  6
CONTINUOUS
 62
     7
 10
-215.7773887419198
 20
135.3783827177434
  0
VERTEX
  8
1
  6
CONTINUOUS
 62
     7
 10
-215.7762027171385
 20
135.381954293544
  0
VERTEX
  8
1
  6
CONTINUOUS
 62
     7
 10
-215.7750957677177
 20
135.3855513221312
  0
VERTEX
  8
1
  6
CONTINUOUS
 62
     7
 10
-215.7740682967107
 20
135.3891719854489
  0
VERTEX
  8
1
  6
CONTINUOUS
 62
     7
 10
-215.7731207071712
 20
135.3928144654408
  0
VERTEX
  8
1
  6
CONTINUOUS
 62
     7
 10
-215.7722534021522
 20
135.3964769440508
  0
VERTEX
  8
1
  6
CONTINUOUS
 62
     7
 10
-215.7714667847072
 20
135.4001576032227
  0
VERTEX
  8
1
  6
CONTINUOUS
 62
     7
 10
-215.7707612578895
 20
135.4038546249002
  0
VERTEX
  8
1
  6
CONTINUOUS
 62
     7
 10
-215.7701372247526
 20
135.4075661910273
  0
VERTEX
  8
1
  6
CONTINUOUS
 62
     7
 10
-215.7695950883498
 20
135.4112904835478
  0
VERTEX
  8
1
  6
CONTINUOUS
 62
     7
 10
-215.7691352517343
 20
135.4150256844053
  0
VERTEX
  8
1
  6
CONTINUOUS
 62
     7
 10
-215.7687581179595
 20
135.4187699755437
  0
VERTEX
  8
1
  6
CONTINUOUS
 62
     7
 10
-215.7684640900788
 20
135.4225215389069
  0
VERTEX
  8
1
  6
CONTINUOUS
 62
     7
 10
-215.7682535711457
 20
135.4262785564387
  0
VERTEX
  8
1
  6
CONTINUOUS
 62
     7
 10
-215.7681269642133
 20
135.4300392100829
  0
VERTEX
  8
1
  6
CONTINUOUS
 62
     7
 10
-215.7680846723351
 20
135.4338016817832
  0
SEQEND
  8
1
  6
CONTINUOUS
 62
     7
  0
LINE
  8
1
  6
CONTINUOUS
 62
     7
 10
-216.4266666666667
 20
133.9338016817832
 11
-251.9066666666667
 21
133.9338016817832
  0
LINE
  8
1
  6
CONTINUOUS
 62
     7
 10
-216.4266666666667
 20
136.0656257749102
 11
-216.5151739869597
 21
135.9869910388073
  0
ARC
  8
1
  6
CONTINUOUS
 62
     7
 10
-225.7972951850289
 20
194.2122621764215
 40
58.96049501983801
 50
270.9439863162737
 51
279.0577265205518
  0
POLYLINE
  8
1
  6
CONTINUOUS
 62
     7
 66
     1
  0
VERTEX
  8
1
  6
CONTINUOUS
 62
     7
 10
-224.8259255139651
 20
135.2597693203388
  0
VERTEX
  8
1
  6
CONTINUOUS
 62
     7
 10
-225.0719244254269
 20
135.1936382043552
  0
VERTEX
  8
1
  6
CONTINUOUS
 62
     7
 10
-224.9460498558545
 20
135.1283743508722
  0
SEQEND
  8
1
  6
CONTINUOUS
 62
     7
  0
ARC
  8
1
  6
CONTINUOUS
 62
     7
 10
-227.3676344512906
 20
-46.19429356208643
 40
181.3388374591222
 50
86.54737515175299
 51
89.23485391743611
  0
LINE
  8
1
  6
CONTINUOUS
 62
     7
 10
-216.4468278112541
 20
134.8154021819727
 11
-216.4266666666667
 21
134.8019775886563
  0
LINE
  8
1
  6
CONTINUOUS
 62
     7
 10
-218.8340000386831
 20
145.9338016817833
 11
-218.5006811989443
 21
145.9338016817833
  0
LINE
  8
1
  6
CONTINUOUS
 62
     7
 10
-218.5006811989443
 20
142.9338016817833
 11
-218.8340000386831
 21
142.9338016817833
  0
LINE
  8
1
  6
CONTINUOUS
 62
     7
 10
-249.832652134389
 20
145.9338016817833
 11
-249.4993332946503
 21
145.9338016817833
  0
LINE
  8
1
  6
CONTINUOUS
 62
     7
 10
-249.4993332946503
 20
142.9338016817833
 11
-249.832652134389
 21
142.9338016817833
  0
LINE
  8
1
  6
CONTINUOUS
 62
     7
 10
-249.4993332946503
 20
145.9338016817833
 11
-246.4527108551484
 21
145.9338016817833
  0
LINE
  8
1
  6
CONTINUOUS
 62
     7
 10
-249.4993332946503
 20
142.9338016817833
 11
-246.4527108551484
 21
142.9338016817833
  0
LINE
  8
1
  6
CONTINUOUS
 62
     7
 10
-221.880622478185
 20
145.9338016817833
 11
-218.8340000386831
 21
145.9338016817833
  0
LINE
  8
1
  6
CONTINUOUS
 62
     7
 10
-221.880622478185
 20
142.9338016817833
 11
-218.8340000386831
 21
142.9338016817833
  0
LINE
  8
1
  6
CONTINUOUS
 62
     7
 10
-218.5006811989444
 20
145.9338016817833
 11
-216.6501915839021
 21
145.9338016817833
  0
LINE
  8
1
  6
CONTINUOUS
 62
     7
 10
-218.5006811989444
 20
142.9338016817833
 11
-216.6501915839021
 21
142.9338016817833
  0
LINE
  8
1
  6
CONTINUOUS
 62
     7
 10
-251.6831417494312
 20
145.9338016817833
 11
-249.832652134389
 21
145.9338016817833
  0
LINE
  8
1
  6
CONTINUOUS
 62
     7
 10
-251.6831417494312
 20
142.9338016817833
 11
-249.832652134389
 21
142.9338016817833
  0
POLYLINE
  8
1
  6
CONTINUOUS
 62
     7
 66
     1
  0
VERTEX
  8
1
  6
CONTINUOUS
 62
     7
 10
-217.645753784355
 20
147.8883471363287
  0
VERTEX
  8
1
  6
CONTINUOUS
 62
     7
 10
-217.6458817623563
 20
147.8794027090765
  0
VERTEX
  8
1
  6
CONTINUOUS
 62
     7
 10
-217.6462644236313
 20
147.8704651079296
  0
VERTEX
  8
1
  6
CONTINUOUS
 62
     7
 10
-217.646899859086
 20
147.8615411589932
  0
VERTEX
  8
1
  6
CONTINUOUS
 62
     7
 10
-217.6477861596265
 20
147.8526376883726
  0
VERTEX
  8
1
  6
CONTINUOUS
 62
     7
 10
-217.6489214161591
 20
147.8437615221728
  0
VERTEX
  8
1
  6
CONTINUOUS
 62
     7
 10
-217.6503037195897
 20
147.8349194864993
  0
VERTEX
  8
1
  6
CONTINUOUS
 62
     7
 10
-217.6519311608246
 20
147.8261184074573
  0
VERTEX
  8
1
  6
CONTINUOUS
 62
     7
 10
-217.65380183077
 20
147.8173651111519
  0
VERTEX
  8
1
  6
CONTINUOUS
 62
     7
 10
-217.6559138203319
 20
147.8086664236885
  0
VERTEX
  8
1
  6
CONTINUOUS
 62
     7
 10
-217.6582652204166
 20
147.8000291711722
  0
VERTEX
  8
1
  6
CONTINUOUS
 62
     7
 10
-217.6608541219301
 20
147.7914601797083
  0
VERTEX
  8
1
  6
CONTINUOUS
 62
     7
 10
-217.6636786157786
 20
147.7829662754021
  0
VERTEX
  8
1
  6
CONTINUOUS
 62
     7
 10
-217.6667367928682
 20
147.7745542843588
  0
VERTEX
  8
1
  6
CONTINUOUS
 62
     7
 10
-217.6700267441052
 20
147.7662310326836
  0
VERTEX
  8
1
  6
CONTINUOUS
 62
     7
 10
-217.6735465603955
 20
147.7580033464818
  0
VERTEX
  8
1
  6
CONTINUOUS
 62
     7
 10
-217.6772943326455
 20
147.7498780518586
  0
VERTEX
  8
1
  6
CONTINUOUS
 62
     7
 10
-217.6812681517611
 20
147.7418619749193
  0
VERTEX
  8
1
  6
CONTINUOUS
 62
     7
 10
-217.6854661086487
 20
147.7339619417691
  0
VERTEX
  8
1
  6
CONTINUOUS
 62
     7
 10
-217.6898862942142
 20
147.7261847785132
  0
VERTEX
  8
1
  6
CONTINUOUS
 62
     7
 10
-217.6945267316105
 20
147.7185372701432
  0
VERTEX
  8
1
  6
CONTINUOUS
 62
     7
 10
-217.6993838811454
 20
147.7110252532928
  0
VERTEX
  8
1
  6
CONTINUOUS
 62
     7
 10
-217.704452637767
 20
147.7036536147126
  0
VERTEX
  8
1
  6
CONTINUOUS
 62
     7
 10
-217.7097278281678
 20
147.696427199734
  0
VERTEX
  8
1
  6
CONTINUOUS
 62
     7
 10
-217.7152042790396
 20
147.6893508536887
  0
VERTEX
  8
1
  6
CONTINUOUS
 62
     7
 10
-217.7208768170747
 20
147.6824294219081
  0
VERTEX
  8
1
  6
CONTINUOUS
 62
     7
 10
-217.7267402689652
 20
147.6756677497238
  0
VERTEX
  8
1
  6
CONTINUOUS
 62
     7
 10
-217.7327894614033
 20
147.6690706824675
  0
VERTEX
  8
1
  6
CONTINUOUS
 62
     7
 10
-217.7390192210811
 20
147.6626430654707
  0
VERTEX
  8
1
  6
CONTINUOUS
 62
     7
 10
-217.7454243746908
 20
147.6563897440649
  0
VERTEX
  8
1
  6
CONTINUOUS
 62
     7
 10
-217.7519997489245
 20
147.6503155635816
  0
VERTEX
  8
1
  6
CONTINUOUS
 62
     7
 10
-217.7587401704743
 20
147.6444253693526
  0
VERTEX
  8
1
  6
CONTINUOUS
 62
     7
 10
-217.7656404660324
 20
147.6387240067092
  0
VERTEX
  8
1
  6
CONTINUOUS
 62
     7
 10
-217.7726954622909
 20
147.6332163209832
  0
VERTEX
  8
1
  6
CONTINUOUS
 62
     7
 10
-217.7798999859419
 20
147.6279071575059
  0
VERTEX
  8
1
  6
CONTINUOUS
 62
     7
 10
-217.7872488636778
 20
147.6228013616091
  0
VERTEX
  8
1
  6
CONTINUOUS
 62
     7
 10
-217.7947369221904
 20
147.6179037786242
  0
VERTEX
  8
1
  6
CONTINUOUS
 62
     7
 10
-217.8023589881721
 20
147.6132192538828
  0
VERTEX
  8
1
  6
CONTINUOUS
 62
     7
 10
-217.8101098883149
 20
147.6087526327165
  0
VERTEX
  8
1
  6
CONTINUOUS
 62
     7
 10
-217.817984449311
 20
147.604508760457
  0
VERTEX
  8
1
  6
CONTINUOUS
 62
     7
 10
-217.8886869790351
 20
147.5677033528722
  0
VERTEX
  8
1
  6
CONTINUOUS
 62
     7
 10
-217.959466959512
 20
147.5308576271972
  0
VERTEX
  8
1
  6
CONTINUOUS
 62
     7
 10
-218.0302469399891
 20
147.4940119015222
  0
VERTEX
  8
1
  6
CONTINUOUS
 62
     7
 10
-218.101026920466
 20
147.4571661758472
  0
VERTEX
  8
1
  6
CONTINUOUS
 62
     7
 10
-218.171806900943
 20
147.4203204501722
  0
VERTEX
  8
1
  6
CONTINUOUS
 62
     7
 10
-218.24258688142
 20
147.3834747244972
  0
VERTEX
  8
1
  6
CONTINUOUS
 62
     7
 10
-218.313366861897
 20
147.3466289988222
  0
VERTEX
  8
1
  6
CONTINUOUS
 62
     7
 10
-218.384146842374
 20
147.3097832731472
  0
VERTEX
  8
1
  6
CONTINUOUS
 62
     7
 10
-218.4549268228509
 20
147.2729375474722
  0
VERTEX
  8
1
  6
CONTINUOUS
 62
     7
 10
-218.5257068033279
 20
147.2360918217971
  0
VERTEX
  8
1
  6
CONTINUOUS
 62
     7
 10
-218.5964867838048
 20
147.1992460961221
  0
VERTEX
  8
1
  6
CONTINUOUS
 62
     7
 10
-218.6672667642818
 20
147.1624003704471
  0
VERTEX
  8
1
  6
CONTINUOUS
 62
     7
 10
-218.7380467447588
 20
147.1255546447721
  0
VERTEX
  8
1
  6
CONTINUOUS
 62
     7
 10
-218.8088267252358
 20
147.0887089190971
  0
VERTEX
  8
1
  6
CONTINUOUS
 62
     7
 10
-218.8796067057128
 20
147.0518631934222
  0
VERTEX
  8
1
  6
CONTINUOUS
 62
     7
 10
-218.9503866861897
 20
147.0150174677471
  0
VERTEX
  8
1
  6
CONTINUOUS
 62
     7
 10
-219.0211666666667
 20
146.9781717420721
  0
SEQEND
  8
1
  6
CONTINUOUS
 62
     7
  0
POLYLINE
  8
1
  6
CONTINUOUS
 62
     7
 66
     1
  0
VERTEX
  8
1
  6
CONTINUOUS
 62
     7
 10
-217.645753784355
 20
159.4338016817832
  0
VERTEX
  8
1
  6
CONTINUOUS
 62
     7
 10
-217.6458817623563
 20
159.4427461090353
  0
VERTEX
  8
1
  6
CONTINUOUS
 62
     7
 10
-217.6462644236313
 20
159.4516837101822
  0
VERTEX
  8
1
  6
CONTINUOUS
 62
     7
 10
-217.646899859086
 20
159.4606076591187
  0
VERTEX
  8
1
  6
CONTINUOUS
 62
     7
 10
-217.6477861596265
 20
159.4695111297393
  0
VERTEX
  8
1
  6
CONTINUOUS
 62
     7
 10
-217.6489214161591
 20
159.4783872959391
  0
VERTEX
  8
1
  6
CONTINUOUS
 62
     7
 10
-217.6503037195897
 20
159.4872293316126
  0
VERTEX
  8
1
  6
CONTINUOUS
 62
     7
 10
-217.6519311608247
 20
159.4960304106546
  0
VERTEX
  8
1
  6
CONTINUOUS
 62
     7
 10
-217.65380183077
 20
159.50478370696
  0
VERTEX
  8
1
  6
CONTINUOUS
 62
     7
 10
-217.655913820332
 20
159.5134823944234
  0
VERTEX
  8
1
  6
CONTINUOUS
 62
     7
 10
-217.6582652204166
 20
159.5221196469397
  0
VERTEX
  8
1
  6
CONTINUOUS
 62
     7
 10
-217.6608541219301
 20
159.5306886384036
  0
VERTEX
  8
1
  6
CONTINUOUS
 62
     7
 10
-217.6636786157786
 20
159.5391825427098
  0
VERTEX
  8
1
  6
CONTINUOUS
 62
     7
 10
-217.6667367928682
 20
159.5475945337531
  0
VERTEX
  8
1
  6
CONTINUOUS
 62
     7
 10
-217.6700267441052
 20
159.5559177854283
  0
VERTEX
  8
1
  6
CONTINUOUS
 62
     7
 10
-217.6735465603956
 20
159.5641454716301
  0
VERTEX
  8
1
  6
CONTINUOUS
 62
     7
 10
-217.6772943326455
 20
159.5722707662533
  0
VERTEX
  8
1
  6
CONTINUOUS
 62
     7
 10
-217.6812681517612
 20
159.5802868431926
  0
VERTEX
  8
1
  6
CONTINUOUS
 62
     7
 10
-217.6854661086487
 20
159.5881868763428
  0
VERTEX
  8
1
  6
CONTINUOUS
 62
     7
 10
-217.6898862942142
 20
159.5959640395987
  0
VERTEX
  8
1
  6
CONTINUOUS
 62
     7
 10
-217.6945267316105
 20
159.6036115479687
  0
VERTEX
  8
1
  6
CONTINUOUS
 62
     7
 10
-217.6993838811454
 20
159.6111235648191
  0
VERTEX
  8
1
  6
CONTINUOUS
 62
     7
 10
-217.704452637767
 20
159.6184952033993
  0
VERTEX
  8
1
  6
CONTINUOUS
 62
     7
 10
-217.7097278281678
 20
159.6257216183779
  0
VERTEX
  8
1
  6
CONTINUOUS
 62
     7
 10
-217.7152042790396
 20
159.6327979644233
  0
VERTEX
  8
1
  6
CONTINUOUS
 62
     7
 10
-217.7208768170747
 20
159.6397193962038
  0
VERTEX
  8
1
  6
CONTINUOUS
 62
     7
 10
-217.7267402689652
 20
159.6464810683881
  0
VERTEX
  8
1
  6
CONTINUOUS
 62
     7
 10
-217.7327894614033
 20
159.6530781356444
  0
VERTEX
  8
1
  6
CONTINUOUS
 62
     7
 10
-217.7390192210812
 20
159.6595057526413
  0
VERTEX
  8
1
  6
CONTINUOUS
 62
     7
 10
-217.7454243746908
 20
159.6657590740471
  0
VERTEX
  8
1
  6
CONTINUOUS
 62
     7
 10
-217.7519997489244
 20
159.6718332545303
  0
VERTEX
  8
1
  6
CONTINUOUS
 62
     7
 10
-217.7587401704743
 20
159.6777234487593
  0
VERTEX
  8
1
  6
CONTINUOUS
 62
     7
 10
-217.7656404660324
 20
159.6834248114027
  0
VERTEX
  8
1
  6
CONTINUOUS
 62
     7
 10
-217.7726954622909
 20
159.6889324971288
  0
VERTEX
  8
1
  6
CONTINUOUS
 62
     7
 10
-217.779899985942
 20
159.694241660606
  0
VERTEX
  8
1
  6
CONTINUOUS
 62
     7
 10
-217.7872488636778
 20
159.6993474565029
  0
VERTEX
  8
1
  6
CONTINUOUS
 62
     7
 10
-217.7947369221905
 20
159.7042450394877
  0
VERTEX
  8
1
  6
CONTINUOUS
 62
     7
 10
-217.8023589881721
 20
159.7089295642291
  0
VERTEX
  8
1
  6
CONTINUOUS
 62
     7
 10
-217.8101098883149
 20
159.7133961853953
  0
VERTEX
  8
1
  6
CONTINUOUS
 62
     7
 10
-217.817984449311
 20
159.717640057655
  0
VERTEX
  8
1
  6
CONTINUOUS
 62
     7
 10
-217.8886869790351
 20
159.7544454652397
  0
VERTEX
  8
1
  6
CONTINUOUS
 62
     7
 10
-217.9594669595121
 20
159.7912911909147
  0
VERTEX
  8
1
  6
CONTINUOUS
 62
     7
 10
-218.0302469399891
 20
159.8281369165897
  0
VERTEX
  8
1
  6
CONTINUOUS
 62
     7
 10
-218.101026920466
 20
159.8649826422647
  0
VERTEX
  8
1
  6
CONTINUOUS
 62
     7
 10
-218.171806900943
 20
159.9018283679397
  0
VERTEX
  8
1
  6
CONTINUOUS
 62
     7
 10
-218.24258688142
 20
159.9386740936147
  0
VERTEX
  8
1
  6
CONTINUOUS
 62
     7
 10
-218.313366861897
 20
159.9755198192897
  0
VERTEX
  8
1
  6
CONTINUOUS
 62
     7
 10
-218.3841468423739
 20
160.0123655449648
  0
VERTEX
  8
1
  6
CONTINUOUS
 62
     7
 10
-218.4549268228509
 20
160.0492112706397
  0
VERTEX
  8
1
  6
CONTINUOUS
 62
     7
 10
-218.5257068033279
 20
160.0860569963147
  0
VERTEX
  8
1
  6
CONTINUOUS
 62
     7
 10
-218.5964867838049
 20
160.1229027219898
  0
VERTEX
  8
1
  6
CONTINUOUS
 62
     7
 10
-218.6672667642818
 20
160.1597484476648
  0
VERTEX
  8
1
  6
CONTINUOUS
 62
     7
 10
-218.7380467447588
 20
160.1965941733397
  0
VERTEX
  8
1
  6
CONTINUOUS
 62
     7
 10
-218.8088267252358
 20
160.2334398990148
  0
VERTEX
  8
1
  6
CONTINUOUS
 62
     7
 10
-218.8796067057128
 20
160.2702856246898
  0
VERTEX
  8
1
  6
CONTINUOUS
 62
     7
 10
-218.9503866861897
 20
160.3071313503648
  0
VERTEX
  8
1
  6
CONTINUOUS
 62
     7
 10
-219.0211666666667
 20
160.3439770760398
  0
SEQEND
  8
1
  6
CONTINUOUS
 62
     7
  0
POLYLINE
  8
1
  6
CONTINUOUS
 62
     7
 66
     1
  0
VERTEX
  8
1
  6
CONTINUOUS
 62
     7
 10
-219.0211666666667
 20
148.7985225305852
  0
VERTEX
  8
1
  6
CONTINUOUS
 62
     7
 10
-218.9503866861897
 20
148.7616768049103
  0
VERTEX
  8
1
  6
CONTINUOUS
 62
     7
 10
-218.8796067057128
 20
148.7248310792353
  0
VERTEX
  8
1
  6
CONTINUOUS
 62
     7
 10
-218.8088267252358
 20
148.6879853535602
  0
VERTEX
  8
1
  6
CONTINUOUS
 62
     7
 10
-218.7380467447588
 20
148.6511396278852
  0
VERTEX
  8
1
  6
CONTINUOUS
 62
     7
 10
-218.6672667642818
 20
148.6142939022102
  0
VERTEX
  8
1
  6
CONTINUOUS
 62
     7
 10
-218.5964867838049
 20
148.5774481765352
  0
VERTEX
  8
1
  6
CONTINUOUS
 62
     7
 10
-218.5257068033279
 20
148.5406024508602
  0
VERTEX
  8
1
  6
CONTINUOUS
 62
     7
 10
-218.4549268228509
 20
148.5037567251852
  0
VERTEX
  8
1
  6
CONTINUOUS
 62
     7
 10
-218.384146842374
 20
148.4669109995102
  0
VERTEX
  8
1
  6
CONTINUOUS
 62
     7
 10
-218.313366861897
 20
148.4300652738352
  0
VERTEX
  8
1
  6
CONTINUOUS
 62
     7
 10
-218.24258688142
 20
148.3932195481602
  0
VERTEX
  8
1
  6
CONTINUOUS
 62
     7
 10
-218.171806900943
 20
148.3563738224851
  0
VERTEX
  8
1
  6
CONTINUOUS
 62
     7
 10
-218.101026920466
 20
148.3195280968102
  0
VERTEX
  8
1
  6
CONTINUOUS
 62
     7
 10
-218.0302469399891
 20
148.2826823711352
  0
VERTEX
  8
1
  6
CONTINUOUS
 62
     7
 10
-217.9594669595121
 20
148.2458366454601
  0
VERTEX
  8
1
  6
CONTINUOUS
 62
     7
 10
-217.8886869790351
 20
148.2089909197851
  0
VERTEX
  8
1
  6
CONTINUOUS
 62
     7
 10
-217.817984449311
 20
148.1721855122004
  0
VERTEX
  8
1
  6
CONTINUOUS
 62
     7
 10
-217.8101098883149
 20
148.1679416399408
  0
VERTEX
  8
1
  6
CONTINUOUS
 62
     7
 10
-217.8023589881721
 20
148.1634750187745
  0
VERTEX
  8
1
  6
CONTINUOUS
 62
     7
 10
-217.7947369221905
 20
148.1587904940332
  0
VERTEX
  8
1
  6
CONTINUOUS
 62
     7
 10
-217.7872488636777
 20
148.1538929110483
  0
VERTEX
  8
1
  6
CONTINUOUS
 62
     7
 10
-217.779899985942
 20
148.1487871151514
  0
VERTEX
  8
1
  6
CONTINUOUS
 62
     7
 10
-217.7726954622909
 20
148.1434779516742
  0
VERTEX
  8
1
  6
CONTINUOUS
 62
     7
 10
-217.7656404660324
 20
148.1379702659481
  0
VERTEX
  8
1
  6
CONTINUOUS
 62
     7
 10
-217.7587401704743
 20
148.1322689033048
  0
VERTEX
  8
1
  6
CONTINUOUS
 62
     7
 10
-217.7519997489245
 20
148.1263787090757
  0
VERTEX
  8
1
  6
CONTINUOUS
 62
     7
 10
-217.7454243746909
 20
148.1203045285925
  0
VERTEX
  8
1
  6
CONTINUOUS
 62
     7
 10
-217.7390192210812
 20
148.1140512071867
  0
VERTEX
  8
1
  6
CONTINUOUS
 62
     7
 10
-217.7327894614033
 20
148.1076235901898
  0
VERTEX
  8
1
  6
CONTINUOUS
 62
     7
 10
-217.7267402689652
 20
148.1010265229335
  0
VERTEX
  8
1
  6
CONTINUOUS
 62
     7
 10
-217.7208768170747
 20
148.0942648507493
  0
VERTEX
  8
1
  6
CONTINUOUS
 62
     7
 10
-217.7152042790396
 20
148.0873434189687
  0
VERTEX
  8
1
  6
CONTINUOUS
 62
     7
 10
-217.7097278281678
 20
148.0802670729233
  0
VERTEX
  8
1
  6
CONTINUOUS
 62
     7
 10
-217.7044526377671
 20
148.0730406579447
  0
VERTEX
  8
1
  6
CONTINUOUS
 62
     7
 10
-217.6993838811454
 20
148.0656690193645
  0
VERTEX
  8
1
  6
CONTINUOUS
 62
     7
 10
-217.6945267316106
 20
148.0581570025142
  0
VERTEX
  8
1
  6
CONTINUOUS
 62
     7
 10
-217.6898862942141
 20
148.0505094941441
  0
VERTEX
  8
1
  6
CONTINUOUS
 62
     7
 10
-217.6854661086487
 20
148.0427323308882
  0
VERTEX
  8
1
  6
CONTINUOUS
 62
     7
 10
-217.6812681517611
 20
148.034832297738
  0
VERTEX
  8
1
  6
CONTINUOUS
 62
     7
 10
-217.6772943326455
 20
148.0268162207987
  0
VERTEX
  8
1
  6
CONTINUOUS
 62
     7
 10
-217.6735465603956
 20
148.0186909261755
  0
VERTEX
  8
1
  6
CONTINUOUS
 62
     7
 10
-217.6700267441052
 20
148.0104632399737
  0
VERTEX
  8
1
  6
CONTINUOUS
 62
     7
 10
-217.6667367928683
 20
148.0021399882986
  0
VERTEX
  8
1
  6
CONTINUOUS
 62
     7
 10
-217.6636786157786
 20
147.9937279972552
  0
VERTEX
  8
1
  6
CONTINUOUS
 62
     7
 10
-217.6608541219301
 20
147.985234092949
  0
VERTEX
  8
1
  6
CONTINUOUS
 62
     7
 10
-217.6582652204166
 20
147.9766651014852
  0
VERTEX
  8
1
  6
CONTINUOUS
 62
     7
 10
-217.6559138203319
 20
147.9680278489689
  0
VERTEX
  8
1
  6
CONTINUOUS
 62
     7
 10
-217.65380183077
 20
147.9593291615055
  0
VERTEX
  8
1
  6
CONTINUOUS
 62
     7
 10
-217.6519311608246
 20
147.9505758652001
  0
VERTEX
  8
1
  6
CONTINUOUS
 62
     7
 10
-217.6503037195897
 20
147.941774786158
  0
VERTEX
  8
1
  6
CONTINUOUS
 62
     7
 10
-217.648921416159
 20
147.9329327504845
  0
VERTEX
  8
1
  6
CONTINUOUS
 62
     7
 10
-217.6477861596265
 20
147.9240565842848
  0
VERTEX
  8
1
  6
CONTINUOUS
 62
     7
 10
-217.646899859086
 20
147.9151531136641
  0
VERTEX
  8
1
  6
CONTINUOUS
 62
     7
 10
-217.6462644236314
 20
147.9062291647277
  0
VERTEX
  8
1
  6
CONTINUOUS
 62
     7
 10
-217.6458817623563
 20
147.8972915635808
  0
VERTEX
  8
1
  6
CONTINUOUS
 62
     7
 10
-217.645753784355
 20
147.8883471363287
  0
SEQEND
  8
1
  6
CONTINUOUS
 62
     7
  0
LINE
  8
1
  6
CONTINUOUS
 62
     7
 10
-219.0211666666667
 20
160.3439770760398
 11
-219.1387188532422
 21
160.2979432517201
  0
ARC
  8
1
  6
CONTINUOUS
 62
     7
 10
-14.63000176658491
 20
-5900.709257452679
 40
6064.45645564011
 50
91.93252411909859
 51
92.21765091299116
  0
LINE
  8
1
  6
CONTINUOUS
 62
     7
 10
-216.5228825431099
 20
145.9338016817833
 11
-216.5228825431099
 21
142.9338016817833
  0
LINE
  8
1
  6
CONTINUOUS
 62
     7
 10
-216.6501915839021
 20
145.9338016817833
 11
-216.5228825431099
 21
145.9338016817833
  0
LINE
  8
1
  6
CONTINUOUS
 62
     7
 10
-216.5228825431099
 20
142.9338016817833
 11
-216.6501915839021
 21
142.9338016817833
  0
LINE
  8
1
  6
CONTINUOUS
 62
     7
 10
-251.8104507902235
 20
142.9338016817833
 11
-251.8104507902235
 21
145.9338016817833
  0
LINE
  8
1
  6
CONTINUOUS
 62
     7
 10
-251.8104507902235
 20
145.9338016817833
 11
-251.6831417494313
 21
145.9338016817833
  0
LINE
  8
1
  6
CONTINUOUS
 62
     7
 10
-251.6831417494313
 20
142.9338016817833
 11
-251.8104507902235
 21
142.9338016817833
  0
LINE
  8
1
  6
CONTINUOUS
 62
     7
 10
-249.3121666666571
 20
157.3691093505366
 11
-249.184976588854
 21
157.4169368329005
  0
ARC
  8
1
  6
CONTINUOUS
 62
     7
 10
1227.426402495662
 20
-41411.03650856207
 40
41594.67156988753
 50
91.99305774438848
 51
92.03442838200539
  0
LINE
  8
1
  6
CONTINUOUS
 62
     7
 10
-249.3121666666653
 20
155.0601414086354
 11
-249.1926841638386
 21
155.1063342740262
  0
ARC
  8
1
  6
CONTINUOUS
 62
     7
 10
-451.1208513733728
 20
6148.77536194011
 40
5997.069567540158
 50
271.9295789221121
 51
272.2178839700008
  0
LINE
  8
1
  6
CONTINUOUS
 62
     7
 10
-249.3121666666572
 20
152.7511120687382
 11
-249.1932748609698
 21
152.7969882053416
  0
ARC
  8
1
  6
CONTINUOUS
 62
     7
 10
-455.2398152436064
 20
6255.581583932832
 40
6106.26194972443
 50
271.9337261890095
 51
272.2168901926863
  0
LINE
  8
1
  6
CONTINUOUS
 62
     7
 10
-249.3121666666413
 20
150.4419569412031
 11
-249.2080333804401
 21
150.4849567479575
  0
ARC
  8
1
  6
CONTINUOUS
 62
     7
 10
302.5736928105086
 20
-15079.14542803668
 40
15239.62285394602
 50
91.96199579887877
 51
92.07496445731317
  0
POLYLINE
  8
1
  6
CONTINUOUS
 62
     7
 66
     1
  0
VERTEX
  8
1
  6
CONTINUOUS
 62
     7
 10
-219.1790981929438
 20
151.5432876975444
  0
VERTEX
  8
1
  6
CONTINUOUS
 62
     7
 10
-219.0410981432576
 20
151.577715227554
  0
VERTEX
  8
1
  6
CONTINUOUS
 62
     7
 10
-219.0374093883472
 20
151.5795419974502
  0
SEQEND
  8
1
  6
CONTINUOUS
 62
     7
  0
LINE
  8
1
  6
CONTINUOUS
 62
     7
 10
-249.3121666666481
 20
148.1327435108139
 11
-249.2163820818047
 21
148.1741589302079
  0
ARC
  8
1
  6
CONTINUOUS
 62
     7
 10
-541.4292529919727
 20
8616.638671868457
 40
8473.504562388576
 50
271.9762642938965
 51
272.1804463212483
  0
LINE
  8
1
  6
CONTINUOUS
 62
     7
 10
-219.0211666666903
 20
151.107525985917
 11
-219.1337406858956
 21
151.0625985519366
  0
ARC
  8
1
  6
CONTINUOUS
 62
     7
 10
7.663992699075139
 20
-6527.26308836609
 40
6682.175633161529
 50
91.94503255013734
 51
92.20382564362527
  0
LINE
  8
1
  6
CONTINUOUS
 62
     7
 10
-219.0211666666921
 20
153.4165078114948
 11
-219.1286792270647
 21
153.3728176750004
  0
ARC
  8
1
  6
CONTINUOUS
 62
     7
 10
31.876411366912
 20
-7193.277347470536
 40
7350.936824958914
 50
91.95680208208182
 51
92.19207426973428
  0
LINE
  8
1
  6
CONTINUOUS
 62
     7
 10
-219.0211666666913
 20
155.7255998041253
 11
-219.1236651307654
 21
155.6830008060212
  0
ARC
  8
1
  6
CONTINUOUS
 62
     7
 10
32.38745806017385
 20
-7192.275171774487
 40
7352.261363082887
 50
91.96039520931974
 51
92.19567893490631
  0
LINE
  8
1
  6
CONTINUOUS
 62
     7
 10
-219.0211666666889
 20
158.034800576233
 11
-219.1696178394796
 21
157.9832738480482
  0
ARC
  8
1
  6
CONTINUOUS
 62
     7
 10
-23.64074311545877
 20
-5680.694539858845
 40
5841.950885887689
 50
91.9180359806298
 51
92.21370830527158
  0
LINE
  8
1
  6
CONTINUOUS
 62
     7
 10
-219.0211666666667
 20
148.7985225305852
 11
-219.138890159529
 21
148.6906366068933
  0
ARC
  8
1
  6
CONTINUOUS
 62
     7
 10
-237.5472474389595
 20
274.7498639171094
 40
127.396218184748
 50
272.5514594417459
 51
278.3081462745922
  0
POLYLINE
  8
1
  6
CONTINUOUS
 62
     7
 66
     1
  0
VERTEX
  8
1
  6
CONTINUOUS
 62
     7
 10
-231.8759943897624
 20
147.4799409320306
  0
VERTEX
  8
1
  6
CONTINUOUS
 62
     7
 10
-231.9890040289193
 20
147.4557786887888
  0
VERTEX
  8
1
  6
CONTINUOUS
 62
     7
 10
-232.1001518867357
 20
147.4247372801745
  0
VERTEX
  8
1
  6
CONTINUOUS
 62
     7
 10
-232.1912885974625
 20
147.3782586831913
  0
VERTEX
  8
1
  6
CONTINUOUS
 62
     7
 10
-232.0981119494949
 20
147.2976793516825
  0
VERTEX
  8
1
  6
CONTINUOUS
 62
     7
 10
-231.9586310550083
 20
147.2672793742921
  0
SEQEND
  8
1
  6
CONTINUOUS
 62
     7
  0
ARC
  8
1
  6
CONTINUOUS
 62
     7
 10
-164.4872875177059
 20
2876.968028456276
 40
2730.534482795901
 50
268.584080605813
 51
268.8556200658824
  0
LINE
  8
1
  6
CONTINUOUS
 62
     7
 10
-219.0211666666667
 20
160.9338016817832
 11
-249.3121666666667
 21
160.9338016817832
  0
LINE
  8
1
  6
CONTINUOUS
 62
     7
 10
-213.0030821074751
 20
142.9338016817833
 11
-213.0030821074751
 21
145.9338016817833
  0
LINE
  8
1
  6
CONTINUOUS
 62
     7
 10
-213.0030821074751
 20
145.9338016817833
 11
-216.5228825431099
 21
145.9338016817833
  0
LINE
  8
1
  6
CONTINUOUS
 62
     7
 10
-213.0030821074751
 20
142.9338016817833
 11
-216.5228825431099
 21
142.9338016817833
  0
LINE
  8
1
  6
CONTINUOUS
 62
     7
 10
-255.3302512258582
 20
142.9338016817833
 11
-255.3302512258582
 21
145.9338016817833
  0
LINE
  8
1
  6
CONTINUOUS
 62
     7
 10
-251.8104507902235
 20
145.9338016817833
 11
-255.3302512258582
 21
145.9338016817833
  0
LINE
  8
1
  6
CONTINUOUS
 62
     7
 10
-251.8104507902235
 20
142.9338016817833
 11
-255.3302512258582
 21
142.9338016817833
  0
LINE
  8
1
  6
CONTINUOUS
 62
     7
 10
-213.0030821074751
 20
145.9338016817833
 11
-210.8487947207883
 21
145.9338016817833
  0
LINE
  8
1
  6
CONTINUOUS
 62
     7
 10
-213.0030821074751
 20
142.9338016817833
 11
-210.8487947207883
 21
142.9338016817833
  0
LINE
  8
1
  6
CONTINUOUS
 62
     7
 10
-257.4845386125451
 20
145.9338016817833
 11
-255.3302512258582
 21
145.9338016817833
  0
LINE
  8
1
  6
CONTINUOUS
 62
     7
 10
-257.4845386125451
 20
142.9338016817833
 11
-255.3302512258582
 21
142.9338016817833
  0
LINE
  8
1
  6
CONTINUOUS
 62
     7
 10
-210.8487947207883
 20
145.9338016817833
 11
-210.7031237949623
 21
145.9338016817833
  0
LINE
  8
1
  6
CONTINUOUS
 62
     7
 10
-210.7031237949623
 20
142.9338016817833
 11
-210.8487947207882
 21
142.9338016817833
  0
LINE
  8
1
  6
CONTINUOUS
 62
     7
 10
-257.630209538371
 20
145.9338016817833
 11
-257.4845386125451
 21
145.9338016817833
  0
LINE
  8
1
  6
CONTINUOUS
 62
     7
 10
-257.4845386125451
 20
142.9338016817833
 11
-257.630209538371
 21
142.9338016817833
  0
LINE
  8
1
  6
CONTINUOUS
 62
     7
 10
-210.7031237949623
 20
145.9338016817833
 11
-210.6666666666667
 21
145.9338016817833
  0
LINE
  8
1
  6
CONTINUOUS
 62
     7
 10
-210.7031237949623
 20
142.9338016817833
 11
-210.6666666666667
 21
142.9338016817833
  0
LINE
  8
1
  6
CONTINUOUS
 62
     7
 10
-257.6666666666666
 20
142.9338016817833
 11
-257.630209538371
 21
142.9338016817833
  0
LINE
  8
1
  6
CONTINUOUS
 62
     7
 10
-257.6666666666666
 20
145.9338016817833
 11
-257.630209538371
 21
145.9338016817833
  0
LINE
  8
1
  6
CONTINUOUS
 62
     7
 10
-216.5489333469253
 20
141.105134981024
 11
-215.8661930340498
 21
141.6418368406888
  0
LINE
  8
1
  6
CONTINUOUS
 62
     7
 10
-215.8661930340498
 20
141.6418368406888
 11
-215.7680846723351
 21
141.7838016818333
  0
LINE
  8
1
  6
CONTINUOUS
 62
     7
 10
-216.4537152483819
 20
139.5397959206595
 11
-215.8186958692461
 21
140.0739094536976
  0
POLYLINE
  8
1
  6
CONTINUOUS
 62
     7
 66
     1
  0
VERTEX
  8
1
  6
CONTINUOUS
 62
     7
 10
-215.8186958692461
 20
140.0739094536976
  0
VERTEX
  8
1
  6
CONTINUOUS
 62
     7
 10
-215.7711612904635
 20
140.1653222364566
  0
VERTEX
  8
1
  6
CONTINUOUS
 62
     7
 10
-215.7855085440802
 20
140.2714354914748
  0
VERTEX
  8
1
  6
CONTINUOUS
 62
     7
 10
-215.8312006483792
 20
140.3300914372707
  0
SEQEND
  8
1
  6
CONTINUOUS
 62
     7
  0
LINE
  8
1
  6
CONTINUOUS
 62
     7
 10
-215.8312006483792
 20
140.3300914372707
 11
-216.4266601647277
 21
140.8299746321585
  0
LINE
  8
1
  6
CONTINUOUS
 62
     7
 10
-216.4539224670923
 20
137.9523575737427
 11
-215.8189162135794
 21
138.4864699422609
  0
POLYLINE
  8
1
  6
CONTINUOUS
 62
     7
 66
     1
  0
VERTEX
  8
1
  6
CONTINUOUS
 62
     7
 10
-215.8189162135794
 20
138.4864699422609
  0
VERTEX
  8
1
  6
CONTINUOUS
 62
     7
 10
-215.7713834928689
 20
138.577881099474
  0
VERTEX
  8
1
  6
CONTINUOUS
 62
     7
 10
-215.7857253901672
 20
138.6839927269538
  0
VERTEX
  8
1
  6
CONTINUOUS
 62
     7
 10
-215.8314104633036
 20
138.7426478046578
  0
SEQEND
  8
1
  6
CONTINUOUS
 62
     7
  0
LINE
  8
1
  6
CONTINUOUS
 62
     7
 10
-215.8314104633036
 20
138.7426478046578
 11
-216.4266601393333
 21
139.2423658992295
  0
LINE
  8
1
  6
CONTINUOUS
 62
     7
 10
-216.4537278511202
 20
136.3649127166723
 11
-215.8187051730456
 21
136.8990260021806
  0
POLYLINE
  8
1
  6
CONTINUOUS
 62
     7
 66
     1
  0
VERTEX
  8
1
  6
CONTINUOUS
 62
     7
 10
-215.8187051730456
 20
136.8990260021806
  0
VERTEX
  8
1
  6
CONTINUOUS
 62
     7
 10
-215.7711635042535
 20
136.9904390324694
  0
VERTEX
  8
1
  6
CONTINUOUS
 62
     7
 10
-215.7855031079112
 20
137.0965522874876
  0
VERTEX
  8
1
  6
CONTINUOUS
 62
     7
 10
-215.8311909303961
 20
137.1552084297933
  0
SEQEND
  8
1
  6
CONTINUOUS
 62
     7
  0
LINE
  8
1
  6
CONTINUOUS
 62
     7
 10
-215.8311909303961
 20
137.1552084297933
 11
-216.4266601437936
 21
137.6551019149332
  0
LINE
  8
1
  6
CONTINUOUS
 62
     7
 10
-215.7680846723351
 20
135.4338016818333
 11
-216.5489333160585
 21
136.1124683565145
  0
LINE
  8
1
  6
CONTINUOUS
 62
     7
 10
-251.879783345614
 20
136.8840518151584
 11
-252.5148169337801
 21
136.3499382672532
  0
POLYLINE
  8
1
  6
CONTINUOUS
 62
     7
 66
     1
  0
VERTEX
  8
1
  6
CONTINUOUS
 62
     7
 10
-252.5148169337801
 20
136.3499382672532
  0
VERTEX
  8
1
  6
CONTINUOUS
 62
     7
 10
-252.5623579456627
 20
136.2585246603613
  0
VERTEX
  8
1
  6
CONTINUOUS
 62
     7
 10
-252.5480104174677
 20
136.1524109028765
  0
VERTEX
  8
1
  6
CONTINUOUS
 62
     7
 10
-252.5023147383801
 20
136.0937547927241
  0
SEQEND
  8
1
  6
CONTINUOUS
 62
     7
  0
LINE
  8
1
  6
CONTINUOUS
 62
     7
 10
-252.5023147383801
 20
136.0937547927241
 11
-251.9066731547755
 21
135.5937273844032
  0
LINE
  8
1
  6
CONTINUOUS
 62
     7
 10
-251.8794709079064
 20
138.471533339664
 11
-252.5144801567944
 21
137.937420398219
  0
POLYLINE
  8
1
  6
CONTINUOUS
 62
     7
 66
     1
  0
VERTEX
  8
1
  6
CONTINUOUS
 62
     7
 10
-252.5144801567944
 20
137.937420398219
  0
VERTEX
  8
1
  6
CONTINUOUS
 62
     7
 10
-252.5620119336072
 20
137.8460086717843
  0
VERTEX
  8
1
  6
CONTINUOUS
 62
     7
 10
-252.5476669116769
 20
137.7398963650012
  0
VERTEX
  8
1
  6
CONTINUOUS
 62
     7
 10
-252.5019787674658
 20
137.6812408975878
  0
SEQEND
  8
1
  6
CONTINUOUS
 62
     7
  0
LINE
  8
1
  6
CONTINUOUS
 62
     7
 10
-252.5019787674658
 20
137.6812408975878
 11
-251.9066731853248
 21
137.1814794962289
  0
LINE
  8
1
  6
CONTINUOUS
 62
     7
 10
-251.8794617158732
 20
140.0589609062098
 11
-252.5144735826447
 21
139.524848148502
  0
POLYLINE
  8
1
  6
CONTINUOUS
 62
     7
 66
     1
  0
VERTEX
  8
1
  6
CONTINUOUS
 62
     7
 10
-252.5144735826447
 20
139.524848148502
  0
VERTEX
  8
1
  6
CONTINUOUS
 62
     7
 10
-252.562010398002
 20
139.4334362383301
  0
VERTEX
  8
1
  6
CONTINUOUS
 62
     7
 10
-252.5476707007426
 20
139.327323931547
  0
VERTEX
  8
1
  6
CONTINUOUS
 62
     7
 10
-252.5019856497383
 20
139.2686683178801
  0
SEQEND
  8
1
  6
CONTINUOUS
 62
     7
  0
LINE
  8
1
  6
CONTINUOUS
 62
     7
 10
-252.5019856497383
 20
139.2686683178801
 11
-251.9066731962533
 21
138.7688994225257
  0
LINE
  8
1
  6
CONTINUOUS
 62
     7
 10
-251.879776272062
 20
141.6464482335226
 11
-252.5148108472154
 21
141.1123348115037
  0
POLYLINE
  8
1
  6
CONTINUOUS
 62
     7
 66
     1
  0
VERTEX
  8
1
  6
CONTINUOUS
 62
     7
 10
-252.5148108472154
 20
141.1123348115037
  0
VERTEX
  8
1
  6
CONTINUOUS
 62
     7
 10
-252.5623563802595
 20
141.0209210787255
  0
VERTEX
  8
1
  6
CONTINUOUS
 62
     7
 10
-252.5480141869585
 20
140.9148073212406
  0
VERTEX
  8
1
  6
CONTINUOUS
 62
     7
 10
-252.5023210328612
 20
140.8561511127519
  0
SEQEND
  8
1
  6
CONTINUOUS
 62
     7
  0
LINE
  8
1
  6
CONTINUOUS
 62
     7
 10
-252.5023210328612
 20
140.8561511127519
 11
-251.9066731843578
 21
140.3561178835158
  0
LINE
  8
1
  6
CONTINUOUS
 62
     7
 10
-216.4266666666667
 20
142.4156257749102
 11
-216.4266666666667
 21
142.9338016817833
  0
LINE
  8
1
  6
CONTINUOUS
 62
     7
 10
-216.4266666666667
 20
140.8278977117441
 11
-216.4266666666667
 21
141.1519775886563
  0
LINE
  8
1
  6
CONTINUOUS
 62
     7
 10
-216.4266666666667
 20
139.2402409560021
 11
-216.4266666666667
 21
139.5646786226132
  0
LINE
  8
1
  6
CONTINUOUS
 62
     7
 10
-216.4266666666667
 20
137.6528951167914
 11
-216.4266666666667
 21
137.9773802817439
  0
LINE
  8
1
  6
CONTINUOUS
 62
     7
 10
-216.4266666666667
 20
136.0656257749102
 11
-216.4266666666667
 21
136.3897056466006
  0
LINE
  8
1
  6
CONTINUOUS
 62
     7
 10
-216.4266666666667
 20
133.9338016817833
 11
-216.4266666666667
 21
134.8019775886563
  0
LINE
  8
1
  6
CONTINUOUS
 62
     7
 10
-251.9066666666667
 20
135.5958636424521
 11
-251.9066666666667
 21
133.9338016817833
  0
LINE
  8
1
  6
CONTINUOUS
 62
     7
 10
-251.9066666666667
 20
137.1835722731223
 11
-251.9066666666667
 21
136.859285860647
  0
LINE
  8
1
  6
CONTINUOUS
 62
     7
 10
-251.9066666666667
 20
138.7710678763223
 11
-251.9066666666667
 21
138.4465550656278
  0
LINE
  8
1
  6
CONTINUOUS
 62
     7
 10
-251.9066666666667
 20
140.3583066205683
 11
-251.9066666666667
 21
140.0340298954983
  0
LINE
  8
1
  6
CONTINUOUS
 62
     7
 10
-251.9066666666667
 20
142.9338016817833
 11
-251.9066666666667
 21
141.6217397211092
  0
POLYLINE
  8
1
  6
CONTINUOUS
 62
     7
 66
     1
  0
VERTEX
  8
1
  6
CONTINUOUS
 62
     7
 10
-217.6457537843549
 20
147.8883471338027
  0
VERTEX
  8
1
  6
CONTINUOUS
 62
     7
 10
-217.6514943786036
 20
147.9440549892302
  0
VERTEX
  8
1
  6
CONTINUOUS
 62
     7
 10
-217.6684746463908
 20
147.9985203868389
  0
VERTEX
  8
1
  6
CONTINUOUS
 62
     7
 10
-217.6963254405567
 20
148.0505008687481
  0
VERTEX
  8
1
  6
CONTINUOUS
 62
     7
 10
-217.7346517671825
 20
148.0987644758033
  0
VERTEX
  8
1
  6
CONTINUOUS
 62
     7
 10
-217.7827455949868
 20
148.1422649574369
  0
VERTEX
  8
1
  6
CONTINUOUS
 62
     7
 10
-217.8173317354399
 20
148.1666394961537
  0
VERTEX
  8
1
  6
CONTINUOUS
 62
     7
 10
-217.8551117390124
 20
148.1885916101568
  0
VERTEX
  8
1
  6
CONTINUOUS
 62
     7
 10
-217.8958445999089
 20
148.2079059854566
  0
VERTEX
  8
1
  6
CONTINUOUS
 62
     7
 10
-217.8961738148928
 20
148.2080459275479
  0
VERTEX
  8
1
  6
CONTINUOUS
 62
     7
 10
-217.8962561444868
 20
148.2080808858499
  0
VERTEX
  8
1
  6
CONTINUOUS
 62
     7
 10
-217.8962973131597
 20
148.2080983609166
  0
VERTEX
  8
1
  6
CONTINUOUS
 62
     7
 10
-217.8963076057316
 20
148.2081027292579
  0
VERTEX
  8
1
  6
CONTINUOUS
 62
     7
 10
-217.8963092196216
 20
148.2081034141983
  0
VERTEX
  8
1
  6
CONTINUOUS
 62
     7
 10
-217.8963114333501
 20
148.208104447017
  0
VERTEX
  8
1
  6
CONTINUOUS
 62
     7
 10
-217.896325596419
 20
148.2081116318988
  0
VERTEX
  8
1
  6
CONTINUOUS
 62
     7
 10
-218.1574896384548
 20
148.3403951027461
  0
VERTEX
  8
1
  6
CONTINUOUS
 62
     7
 10
-218.6879659665416
 20
148.6079339728069
  0
VERTEX
  8
1
  6
CONTINUOUS
 62
     7
 10
-219.2210930412056
 20
148.8754728428677
  0
SEQEND
  8
1
  6
CONTINUOUS
 62
     7
  0
LINE
  8
1
  6
CONTINUOUS
 62
     7
 10
-219.0879949855445
 20
149.244101261097
 11
-217.8019456565379
 21
149.9162040110883
  0
POLYLINE
  8
1
  6
CONTINUOUS
 62
     7
 66
     1
  0
VERTEX
  8
1
  6
CONTINUOUS
 62
     7
 10
-217.8019456565379
 20
149.9162040110883
  0
VERTEX
  8
1
  6
CONTINUOUS
 62
     7
 10
-217.7847474283394
 20
149.9280281576698
  0
VERTEX
  8
1
  6
CONTINUOUS
 62
     7
 10
-217.7616365449194
 20
149.9464988573885
  0
VERTEX
  8
1
  6
CONTINUOUS
 62
     7
 10
-217.739874782031
 20
149.9671620275807
  0
VERTEX
  8
1
  6
CONTINUOUS
 62
     7
 10
-217.7197240530496
 20
149.9899559235511
  0
VERTEX
  8
1
  6
CONTINUOUS
 62
     7
 10
-217.701465694183
 20
150.0148037924552
  0
VERTEX
  8
1
  6
CONTINUOUS
 62
     7
 10
-217.6884220466603
 20
150.0360985068951
  0
VERTEX
  8
1
  6
CONTINUOUS
 62
     7
 10
-217.6769120226201
 20
150.0585733288183
  0
VERTEX
  8
1
  6
CONTINUOUS
 62
     7
 10
-217.6670421439306
 20
150.082126141618
  0
VERTEX
  8
1
  6
CONTINUOUS
 62
     7
 10
-217.6589215799045
 20
150.10664369351
  0
VERTEX
  8
1
  6
CONTINUOUS
 62
     7
 10
-217.6526634579157
 20
150.1320019848158
  0
VERTEX
  8
1
  6
CONTINUOUS
 62
     7
 10
-217.6483849555395
 20
150.1580659107863
  0
VERTEX
  8
1
  6
CONTINUOUS
 62
     7
 10
-217.6462073932897
 20
150.1846888998762
  0
VERTEX
  8
1
  6
CONTINUOUS
 62
     7
 10
-217.6462538359893
 20
150.2117125474672
  0
VERTEX
  8
1
  6
CONTINUOUS
 62
     7
 10
-217.6486023427603
 20
150.2389662450417
  0
VERTEX
  8
1
  6
CONTINUOUS
 62
     7
 10
-217.6532863142234
 20
150.2662668048073
  0
VERTEX
  8
1
  6
CONTINUOUS
 62
     7
 10
-217.6603348784471
 20
150.2934180797697
  0
VERTEX
  8
1
  6
CONTINUOUS
 62
     7
 10
-217.66977433011
 20
150.3202105792568
  0
VERTEX
  8
1
  6
CONTINUOUS
 62
     7
 10
-217.6816280168839
 20
150.3464210798925
  0
VERTEX
  8
1
  6
CONTINUOUS
 62
     7
 10
-217.6959162009239
 20
150.3718122464608
  0
VERTEX
  8
1
  6
CONTINUOUS
 62
     7
 10
-217.7126322889751
 20
150.3961465898721
  0
VERTEX
  8
1
  6
CONTINUOUS
 62
     7
 10
-217.7283596835169
 20
150.4154667949313
  0
VERTEX
  8
1
  6
CONTINUOUS
 62
     7
 10
-217.7456583856218
 20
150.4337848371714
  0
VERTEX
  8
1
  6
CONTINUOUS
 62
     7
 10
-217.7644642584981
 20
150.4509723160083
  0
VERTEX
  8
1
  6
CONTINUOUS
 62
     7
 10
-217.7795161764217
 20
150.463040622475
  0
VERTEX
  8
1
  6
CONTINUOUS
 62
     7
 10
-217.7953456414347
 20
150.4743391517477
  0
VERTEX
  8
1
  6
CONTINUOUS
 62
     7
 10
-217.8119196182213
 20
150.4848074781737
  0
VERTEX
  8
1
  6
CONTINUOUS
 62
     7
 10
-217.8204749904
 20
150.4897109264714
  0
VERTEX
  8
1
  6
CONTINUOUS
 62
     7
 10
-217.824817813544
 20
150.4920765084759
  0
VERTEX
  8
1
  6
CONTINUOUS
 62
     7
 10
-217.825363677821
 20
150.4923680948748
  0
VERTEX
  8
1
  6
CONTINUOUS
 62
     7
 10
-217.8256368595678
 20
150.4925135431224
  0
VERTEX
  8
1
  6
CONTINUOUS
 62
     7
 10
-217.8257735127812
 20
150.4925861809002
  0
VERTEX
  8
1
  6
CONTINUOUS
 62
     7
 10
-217.8258076825753
 20
150.4926043313451
  0
VERTEX
  8
1
  6
CONTINUOUS
 62
     7
 10
-217.8258247684458
 20
150.4926134052172
  0
VERTEX
  8
1
  6
CONTINUOUS
 62
     7
 10
-217.8258295526058
 20
150.4926159457401
  0
VERTEX
  8
1
  6
CONTINUOUS
 62
     7
 10
-217.8258307314307
 20
150.4926165717141
  0
VERTEX
  8
1
  6
CONTINUOUS
 62
     7
 10
-217.8258380269551
 20
150.4926203807886
  0
VERTEX
  8
1
  6
CONTINUOUS
 62
     7
 10
-217.8258521531332
 20
150.4926277548014
  0
VERTEX
  8
1
  6
CONTINUOUS
 62
     7
 10
-217.8545463800592
 20
150.5076061412699
  0
VERTEX
  8
1
  6
CONTINUOUS
 62
     7
 10
-219.0196036600118
 20
151.1153216853141
  0
SEQEND
  8
1
  6
CONTINUOUS
 62
     7
  0
LINE
  8
1
  6
CONTINUOUS
 62
     7
 10
-219.0857453235078
 20
151.5543514011691
 11
-217.8010214563225
 21
152.2260703459299
  0
POLYLINE
  8
1
  6
CONTINUOUS
 62
     7
 66
     1
  0
VERTEX
  8
1
  6
CONTINUOUS
 62
     7
 10
-217.8010214563226
 20
152.2260703459299
  0
VERTEX
  8
1
  6
CONTINUOUS
 62
     7
 10
-217.7840151126067
 20
152.2378062439833
  0
VERTEX
  8
1
  6
CONTINUOUS
 62
     7
 10
-217.7655515274778
 20
152.2523603866962
  0
VERTEX
  8
1
  6
CONTINUOUS
 62
     7
 10
-217.747910788916
 20
152.2683251195641
  0
VERTEX
  8
1
  6
CONTINUOUS
 62
     7
 10
-217.7312239868562
 20
152.2856710797762
  0
VERTEX
  8
1
  6
CONTINUOUS
 62
     7
 10
-217.7156300449211
 20
152.3043628741591
  0
VERTEX
  8
1
  6
CONTINUOUS
 62
     7
 10
-217.7012759657161
 20
152.3243588450242
  0
VERTEX
  8
1
  6
CONTINUOUS
 62
     7
 10
-217.6883156936559
 20
152.3456099921659
  0
VERTEX
  8
1
  6
CONTINUOUS
 62
     7
 10
-217.6768804763506
 20
152.3680415932746
  0
VERTEX
  8
1
  6
CONTINUOUS
 62
     7
 10
-217.6670767599777
 20
152.3915515317434
  0
VERTEX
  8
1
  6
CONTINUOUS
 62
     7
 10
-217.6590136423997
 20
152.4160265557881
  0
VERTEX
  8
1
  6
CONTINUOUS
 62
     7
 10
-217.6528041843067
 20
152.4413426657301
  0
VERTEX
  8
1
  6
CONTINUOUS
 62
     7
 10
-217.6485655019007
 20
152.4673647568205
  0
VERTEX
  8
1
  6
CONTINUOUS
 62
     7
 10
-217.6464188602096
 20
152.4939462575139
  0
VERTEX
  8
1
  6
CONTINUOUS
 62
     7
 10
-217.6464872751056
 20
152.5209287631918
  0
VERTEX
  8
1
  6
CONTINUOUS
 62
     7
 10
-217.6488487646504
 20
152.548141665337
  0
VERTEX
  8
1
  6
CONTINUOUS
 62
     7
 10
-217.6535366970238
 20
152.5754017761569
  0
VERTEX
  8
1
  6
CONTINUOUS
 62
     7
 10
-217.6592415323946
 20
152.598013485385
  0
VERTEX
  8
1
  6
CONTINUOUS
 62
     7
 10
-217.6665975632159
 20
152.6204014287948
  0
VERTEX
  8
1
  6
CONTINUOUS
 62
     7
 10
-217.6756187307444
 20
152.6424384429075
  0
VERTEX
  8
1
  6
CONTINUOUS
 62
     7
 10
-217.6863175224688
 20
152.6639906154254
  0
VERTEX
  8
1
  6
CONTINUOUS
 62
     7
 10
-217.6987045573333
 20
152.6849173496181
  0
VERTEX
  8
1
  6
CONTINUOUS
 62
     7
 10
-217.7127666085048
 20
152.7050845137468
  0
VERTEX
  8
1
  6
CONTINUOUS
 62
     7
 10
-217.7284526533924
 20
152.7243727197078
  0
VERTEX
  8
1
  6
CONTINUOUS
 62
     7
 10
-217.7457037471
 20
152.7426590034632
  0
VERTEX
  8
1
  6
CONTINUOUS
 62
     7
 10
-217.7644557718673
 20
152.7598149644292
  0
VERTEX
  8
1
  6
CONTINUOUS
 62
     7
 10
-217.7794632220391
 20
152.7718597903954
  0
VERTEX
  8
1
  6
CONTINUOUS
 62
     7
 10
-217.7952447320648
 20
152.7831349745126
  0
VERTEX
  8
1
  6
CONTINUOUS
 62
     7
 10
-217.8117672776404
 20
152.7935800911284
  0
VERTEX
  8
1
  6
CONTINUOUS
 62
     7
 10
-217.8202956342487
 20
152.7984719852754
  0
VERTEX
  8
1
  6
CONTINUOUS
 62
     7
 10
-217.824624625271
 20
152.8008318028932
  0
VERTEX
  8
1
  6
CONTINUOUS
 62
     7
 10
-217.8251687453435
 20
152.8011226693385
  0
VERTEX
  8
1
  6
CONTINUOUS
 62
     7
 10
-217.8254410537226
 20
152.8012677576588
  0
VERTEX
  8
1
  6
CONTINUOUS
 62
     7
 10
-217.825577269936
 20
152.8013402154855
  0
VERTEX
  8
1
  6
CONTINUOUS
 62
     7
 10
-217.8256113304471
 20
152.8013583209438
  0
VERTEX
  8
1
  6
CONTINUOUS
 62
     7
 10
-217.8256283616712
 20
152.8013673723229
  0
VERTEX
  8
1
  6
CONTINUOUS
 62
     7
 10
-217.8256331305296
 20
152.8013699065478
  0
VERTEX
  8
1
  6
CONTINUOUS
 62
     7
 10
-217.8256415982227
 20
152.8013743388251
  0
VERTEX
  8
1
  6
CONTINUOUS
 62
     7
 10
-217.8256557192607
 20
152.8013817106606
  0
VERTEX
  8
1
  6
CONTINUOUS
 62
     7
 10
-217.8543394651821
 20
152.8163556797595
  0
VERTEX
  8
1
  6
CONTINUOUS
 62
     7
 10
-219.0196229847309
 20
153.4242694569126
  0
SEQEND
  8
1
  6
CONTINUOUS
 62
     7
  0
LINE
  8
1
  6
CONTINUOUS
 62
     7
 10
-219.0832038758282
 20
153.8647296002987
 11
-217.7994452771564
 21
154.5363322070696
  0
POLYLINE
  8
1
  6
CONTINUOUS
 62
     7
 66
     1
  0
VERTEX
  8
1
  6
CONTINUOUS
 62
     7
 10
-217.7994452771564
 20
154.5363322070696
  0
VERTEX
  8
1
  6
CONTINUOUS
 62
     7
 10
-217.7826233878239
 20
154.548007039335
  0
VERTEX
  8
1
  6
CONTINUOUS
 62
     7
 10
-217.7642789641957
 20
154.5625499464748
  0
VERTEX
  8
1
  6
CONTINUOUS
 62
     7
 10
-217.746755818341
 20
154.5785046264614
  0
VERTEX
  8
1
  6
CONTINUOUS
 62
     7
 10
-217.7301853151807
 20
154.5958417164838
  0
VERTEX
  8
1
  6
CONTINUOUS
 62
     7
 10
-217.71470665844
 20
154.614525823369
  0
VERTEX
  8
1
  6
CONTINUOUS
 62
     7
 10
-217.700467135639
 20
154.634515289428
  0
VERTEX
  8
1
  6
CONTINUOUS
 62
     7
 10
-217.6876209804955
 20
154.6557611144553
  0
VERTEX
  8
1
  6
CONTINUOUS
 62
     7
 10
-217.6762997328782
 20
154.6781885761415
  0
VERTEX
  8
1
  6
CONTINUOUS
 62
     7
 10
-217.6666101346916
 20
154.7016955578795
  0
VERTEX
  8
1
  6
CONTINUOUS
 62
     7
 10
-217.6586615841652
 20
154.7261688078851
  0
VERTEX
  8
1
  6
CONTINUOUS
 62
     7
 10
-217.6525674465919
 20
154.7514843264798
  0
VERTEX
  8
1
  6
CONTINUOUS
 62
     7
 10
-217.6484451464894
 20
154.7775070089148
  0
VERTEX
  8
1
  6
CONTINUOUS
 62
     7
 10
-217.6464162603282
 20
154.8040902836444
  0
VERTEX
  8
1
  6
CONTINUOUS
 62
     7
 10
-217.6466041179118
 20
154.8310757460503
  0
VERTEX
  8
1
  6
CONTINUOUS
 62
     7
 10
-217.6490870537616
 20
154.8582927876153
  0
VERTEX
  8
1
  6
CONTINUOUS
 62
     7
 10
-217.6538987560852
 20
154.8855582205466
  0
VERTEX
  8
1
  6
CONTINUOUS
 62
     7
 10
-217.6597087413717
 20
154.9081752683128
  0
VERTEX
  8
1
  6
CONTINUOUS
 62
     7
 10
-217.6671719491397
 20
154.9305693715743
  0
VERTEX
  8
1
  6
CONTINUOUS
 62
     7
 10
-217.6763025106835
 20
154.9526133668525
  0
VERTEX
  8
1
  6
CONTINUOUS
 62
     7
 10
-217.6871131045652
 20
154.9741733418496
  0
VERTEX
  8
1
  6
CONTINUOUS
 62
     7
 10
-217.6996145416543
 20
154.9951086998352
  0
VERTEX
  8
1
  6
CONTINUOUS
 62
     7
 10
-217.7137937890702
 20
155.0152853090705
  0
VERTEX
  8
1
  6
CONTINUOUS
 62
     7
 10
-217.7296000217863
 20
155.0345837814519
  0
VERTEX
  8
1
  6
CONTINUOUS
 62
     7
 10
-217.746974494982
 20
155.0528811529414
  0
VERTEX
  8
1
  6
CONTINUOUS
 62
     7
 10
-217.7658532934217
 20
155.0700490229552
  0
VERTEX
  8
1
  6
CONTINUOUS
 62
     7
 10
-217.7809581745535
 20
155.0821033196943
  0
VERTEX
  8
1
  6
CONTINUOUS
 62
     7
 10
-217.7968392275898
 20
155.0933884365735
  0
VERTEX
  8
1
  6
CONTINUOUS
 62
     7
 10
-217.8134635166464
 20
155.1038439479402
  0
VERTEX
  8
1
  6
CONTINUOUS
 62
     7
 10
-217.8220435980633
 20
155.1087412127086
  0
VERTEX
  8
1
  6
CONTINUOUS
 62
     7
 10
-217.8263986696754
 20
155.1111037589485
  0
VERTEX
  8
1
  6
CONTINUOUS
 62
     7
 10
-217.8269460601525
 20
155.1113949685018
  0
VERTEX
  8
1
  6
CONTINUOUS
 62
     7
 10
-217.8272200045981
 20
155.1115402285454
  0
VERTEX
  8
1
  6
CONTINUOUS
 62
     7
 10
-217.827357039061
 20
155.1116127722758
  0
VERTEX
  8
1
  6
CONTINUOUS
 62
     7
 10
-217.827391304157
 20
155.1116308992146
  0
VERTEX
  8
1
  6
CONTINUOUS
 62
     7
 10
-217.8274084376769
 20
155.1116399613345
  0
VERTEX
  8
1
  6
CONTINUOUS
 62
     7
 10
-217.8274132351785
 20
155.1116424985669
  0
VERTEX
  8
1
  6
CONTINUOUS
 62
     7
 10
-217.8274144172908
 20
155.1116431237301
  0
VERTEX
  8
1
  6
CONTINUOUS
 62
     7
 10
-217.8274217147808
 20
155.1116469321676
  0
VERTEX
  8
1
  6
CONTINUOUS
 62
     7
 10
-217.8274358443625
 20
155.1116543050429
  0
VERTEX
  8
1
  6
CONTINUOUS
 62
     7
 10
-217.8561369448317
 20
155.1266303933112
  0
VERTEX
  8
1
  6
CONTINUOUS
 62
     7
 10
-219.0195631644926
 20
155.7333060901356
  0
SEQEND
  8
1
  6
CONTINUOUS
 62
     7
  0
LINE
  8
1
  6
CONTINUOUS
 62
     7
 10
-219.083921360843
 20
156.1732994155283
 11
-217.7994934640564
 21
156.8451682483825
  0
POLYLINE
  8
1
  6
CONTINUOUS
 62
     7
 66
     1
  0
VERTEX
  8
1
  6
CONTINUOUS
 62
     7
 10
-217.7994934640564
 20
156.8451682483825
  0
VERTEX
  8
1
  6
CONTINUOUS
 62
     7
 10
-217.7825963321372
 20
156.8568882244182
  0
VERTEX
  8
1
  6
CONTINUOUS
 62
     7
 10
-217.7641976744103
 20
156.8714662546269
  0
VERTEX
  8
1
  6
CONTINUOUS
 62
     7
 10
-217.7466262674836
 20
156.887456782425
  0
VERTEX
  8
1
  6
CONTINUOUS
 62
     7
 10
-217.7300138338067
 20
156.9048304450014
  0
VERTEX
  8
1
  6
CONTINUOUS
 62
     7
 10
-217.7144999396889
 20
156.9235518491829
  0
VERTEX
  8
1
  6
CONTINUOUS
 62
     7
 10
-217.7002322396428
 20
156.9435793372809
  0
VERTEX
  8
1
  6
CONTINUOUS
 62
     7
 10
-217.687365338011
 20
156.9648639090896
  0
VERTEX
  8
1
  6
CONTINUOUS
 62
     7
 10
-217.6760311475554
 20
156.9873308422996
  0
VERTEX
  8
1
  6
CONTINUOUS
 62
     7
 10
-217.6663367842663
 20
157.0108780203039
  0
VERTEX
  8
1
  6
CONTINUOUS
 62
     7
 10
-217.6583920211671
 20
157.0353921913184
  0
VERTEX
  8
1
  6
CONTINUOUS
 62
     7
 10
-217.6523105981725
 20
157.0607493556644
  0
VERTEX
  8
1
  6
CONTINUOUS
 62
     7
 10
-217.6482103132671
 20
157.0868144085931
  0
VERTEX
  8
1
  6
CONTINUOUS
 62
     7
 10
-217.6462131141608
 20
157.1134407785589
  0
VERTEX
  8
1
  6
CONTINUOUS
 62
     7
 10
-217.6464426984771
 20
157.1404700609436
  0
VERTEX
  8
1
  6
CONTINUOUS
 62
     7
 10
-217.6489777635987
 20
157.1677316472297
  0
VERTEX
  8
1
  6
CONTINUOUS
 62
     7
 10
-217.6538523552165
 20
157.1950423496248
  0
VERTEX
  8
1
  6
CONTINUOUS
 62
     7
 10
-217.6610962528284
 20
157.2222060211344
  0
VERTEX
  8
1
  6
CONTINUOUS
 62
     7
 10
-217.6707364079053
 20
157.2490131710866
  0
VERTEX
  8
1
  6
CONTINUOUS
 62
     7
 10
-217.682796829254
 20
157.2752405761053
  0
VERTEX
  8
1
  6
CONTINUOUS
 62
     7
 10
-217.6972984434643
 20
157.3006509009743
  0
VERTEX
  8
1
  6
CONTINUOUS
 62
     7
 10
-217.7142353262628
 20
157.3250066566042
  0
VERTEX
  8
1
  6
CONTINUOUS
 62
     7
 10
-217.7301528320179
 20
157.3443464269217
  0
VERTEX
  8
1
  6
CONTINUOUS
 62
     7
 10
-217.7476476287351
 20
157.3626855996407
  0
VERTEX
  8
1
  6
CONTINUOUS
 62
     7
 10
-217.7666559806256
 20
157.3798957741775
  0
VERTEX
  8
1
  6
CONTINUOUS
 62
     7
 10
-217.7818641908679
 20
157.391982129595
  0
VERTEX
  8
1
  6
CONTINUOUS
 62
     7
 10
-217.7978539391171
 20
157.4032995882552
  0
VERTEX
  8
1
  6
CONTINUOUS
 62
     7
 10
-217.8145923634876
 20
157.4137877245054
  0
VERTEX
  8
1
  6
CONTINUOUS
 62
     7
 10
-217.8232315756576
 20
157.418701407879
  0
VERTEX
  8
1
  6
CONTINUOUS
 62
     7
 10
-217.8276167324504
 20
157.4210721899623
  0
VERTEX
  8
1
  6
CONTINUOUS
 62
     7
 10
-217.8281679080253
 20
157.4213644302402
  0
VERTEX
  8
1
  6
CONTINUOUS
 62
     7
 10
-217.8284437470599
 20
157.4215102057497
  0
VERTEX
  8
1
  6
CONTINUOUS
 62
     7
 10
-217.8285817293274
 20
157.421583007239
  0
VERTEX
  8
1
  6
CONTINUOUS
 62
     7
 10
-217.8286162314278
 20
157.4216011986202
  0
VERTEX
  8
1
  6
CONTINUOUS
 62
     7
 10
-217.8286334834578
 20
157.4216102929618
  0
VERTEX
  8
1
  6
CONTINUOUS
 62
     7
 10
-217.8286383141433
 20
157.4216128392162
  0
VERTEX
  8
1
  6
CONTINUOUS
 62
     7
 10
-217.828639504432
 20
157.4216134666025
  0
VERTEX
  8
1
  6
CONTINUOUS
 62
     7
 10
-217.828646807869
 20
157.4216172767867
  0
VERTEX
  8
1
  6
CONTINUOUS
 62
     7
 10
-217.8286609479879
 20
157.421624652781
  0
VERTEX
  8
1
  6
CONTINUOUS
 62
     7
 10
-217.8573835041161
 20
157.4366070778624
  0
VERTEX
  8
1
  6
CONTINUOUS
 62
     7
 10
-219.0195067577276
 20
158.0423700624249
  0
SEQEND
  8
1
  6
CONTINUOUS
 62
     7
  0
LINE
  8
1
  6
CONTINUOUS
 62
     7
 10
-219.2210921869422
 20
158.4466764236132
 11
-217.8810889220851
 21
159.1207713302587
  0
POLYLINE
  8
1
  6
CONTINUOUS
 62
     7
 66
     1
  0
VERTEX
  8
1
  6
CONTINUOUS
 62
     7
 10
-217.8810889220851
 20
159.1207713302587
  0
VERTEX
  8
1
  6
CONTINUOUS
 62
     7
 10
-217.8360451453774
 20
159.1440964442193
  0
VERTEX
  8
1
  6
CONTINUOUS
 62
     7
 10
-217.7827455574482
 20
159.1798838973004
  0
VERTEX
  8
1
  6
CONTINUOUS
 62
     7
 10
-217.73465174277
 20
159.2233843750578
  0
VERTEX
  8
1
  6
CONTINUOUS
 62
     7
 10
-217.6963254270374
 20
159.2716479753718
  0
VERTEX
  8
1
  6
CONTINUOUS
 62
     7
 10
-217.6684746407704
 20
159.3236284481984
  0
VERTEX
  8
1
  6
CONTINUOUS
 62
     7
 10
-217.6514943775696
 20
159.3780938351749
  0
VERTEX
  8
1
  6
CONTINUOUS
 62
     7
 10
-217.645753784355
 20
159.4338016792572
  0
SEQEND
  8
1
  6
CONTINUOUS
 62
     7
  0
LINE
  8
1
  6
CONTINUOUS
 62
     7
 10
-249.2499608994465
 20
159.230260087017
 11
-250.5339370420097
 21
158.5586485211863
  0
POLYLINE
  8
1
  6
CONTINUOUS
 62
     7
 66
     1
  0
VERTEX
  8
1
  6
CONTINUOUS
 62
     7
 10
-250.5339370420097
 20
158.5586485211863
  0
VERTEX
  8
1
  6
CONTINUOUS
 62
     7
 10
-250.5507958526769
 20
158.546962931379
  0
VERTEX
  8
1
  6
CONTINUOUS
 62
     7
 10
-250.5691663228464
 20
158.532417868211
  0
VERTEX
  8
1
  6
CONTINUOUS
 62
     7
 10
-250.5867152223283
 20
158.5164609903265
  0
VERTEX
  8
1
  6
CONTINUOUS
 62
     7
 10
-250.6033111285338
 20
158.4991216605206
  0
VERTEX
  8
1
  6
CONTINUOUS
 62
     7
 10
-250.6188147770425
 20
158.4804352719503
  0
VERTEX
  8
1
  6
CONTINUOUS
 62
     7
 10
-250.6330788165567
 20
158.4604434822883
  0
VERTEX
  8
1
  6
CONTINUOUS
 62
     7
 10
-250.6459489464349
 20
158.439195291701
  0
VERTEX
  8
1
  6
CONTINUOUS
 62
     7
 10
-250.6572935570449
 20
158.4167654223487
  0
VERTEX
  8
1
  6
CONTINUOUS
 62
     7
 10
-250.667005834469
 20
158.3932559907937
  0
VERTEX
  8
1
  6
CONTINUOUS
 62
     7
 10
-250.6749763057822
 20
158.3687802487962
  0
VERTEX
  8
1
  6
CONTINUOUS
 62
     7
 10
-250.6810915282864
 20
158.3434621960102
  0
VERTEX
  8
1
  6
CONTINUOUS
 62
     7
 10
-250.6852339973837
 20
158.3174369371596
  0
VERTEX
  8
1
  6
CONTINUOUS
 62
     7
 10
-250.6872820539001
 20
158.2908510437649
  0
VERTEX
  8
1
  6
CONTINUOUS
 62
     7
 10
-250.687112282771
 20
158.263862920419
  0
VERTEX
  8
1
  6
CONTINUOUS
 62
     7
 10
-250.6846462626996
 20
158.2366431756133
  0
VERTEX
  8
1
  6
CONTINUOUS
 62
     7
 10
-250.6798502180136
 20
158.2093749971145
  0
VERTEX
  8
1
  6
CONTINUOUS
 62
     7
 10
-250.6740522554408
 20
158.1867556290235
  0
VERTEX
  8
1
  6
CONTINUOUS
 62
     7
 10
-250.6666000823909
 20
158.1643591760098
  0
VERTEX
  8
1
  6
CONTINUOUS
 62
     7
 10
-250.6574795143918
 20
158.1423128015366
  0
VERTEX
  8
1
  6
CONTINUOUS
 62
     7
 10
-250.646677819001
 20
158.1207504178856
  0
VERTEX
  8
1
  6
CONTINUOUS
 62
     7
 10
-250.634184130805
 20
158.099812621781
  0
VERTEX
  8
1
  6
CONTINUOUS
 62
     7
 10
-250.6200114279818
 20
158.0796335450668
  0
VERTEX
  8
1
  6
CONTINUOUS
 62
     7
 10
-250.6042104815014
 20
158.0603325758718
  0
VERTEX
  8
1
  6
CONTINUOUS
 62
     7
 10
-250.5868399819043
 20
158.0420326782223
  0
VERTEX
  8
1
  6
CONTINUOUS
 62
     7
 10
-250.5679637897861
 20
158.0248622526904
  0
VERTEX
  8
1
  6
CONTINUOUS
 62
     7
 10
-250.5528599330445
 20
158.0128060200394
  0
VERTEX
  8
1
  6
CONTINUOUS
 62
     7
 10
-250.5369790810279
 20
158.0015189507228
  0
VERTEX
  8
1
  6
CONTINUOUS
 62
     7
 10
-250.5203541461509
 20
157.991061470388
  0
VERTEX
  8
1
  6
CONTINUOUS
 62
     7
 10
-250.5117734173777
 20
157.9861632149349
  0
VERTEX
  8
1
  6
CONTINUOUS
 62
     7
 10
-250.5074179404653
 20
157.9838001718023
  0
VERTEX
  8
1
  6
CONTINUOUS
 62
     7
 10
-250.506870495499
 20
157.9835089000647
  0
VERTEX
  8
1
  6
CONTINUOUS
 62
     7
 10
-250.5065965234898
 20
157.983363608923
  0
VERTEX
  8
1
  6
CONTINUOUS
 62
     7
 10
-250.5064594751655
 20
157.9832910496419
  0
VERTEX
  8
1
  6
CONTINUOUS
 62
     7
 10
-250.5064252065958
 20
157.9832729188153
  0
VERTEX
  8
1
  6
CONTINUOUS
 62
     7
 10
-250.5064080713378
 20
157.9832638547515
  0
VERTEX
  8
1
  6
CONTINUOUS
 62
     7
 10
-250.5064032733494
 20
157.9832613169748
  0
VERTEX
  8
1
  6
CONTINUOUS
 62
     7
 10
-250.5063955569609
 20
157.9832572808659
  0
VERTEX
  8
1
  6
CONTINUOUS
 62
     7
 10
-250.5063814268418
 20
157.983249907803
  0
VERTEX
  8
1
  6
CONTINUOUS
 62
     7
 10
-250.4776792198066
 20
157.9682734383657
  0
VERTEX
  8
1
  6
CONTINUOUS
 62
     7
 10
-249.3137616265837
 20
157.3613612637018
  0
SEQEND
  8
1
  6
CONTINUOUS
 62
     7
  0
LINE
  8
1
  6
CONTINUOUS
 62
     7
 10
-249.2488012182384
 20
156.9217034968932
 11
-250.5333559022305
 21
156.2498383389262
  0
POLYLINE
  8
1
  6
CONTINUOUS
 62
     7
 66
     1
  0
VERTEX
  8
1
  6
CONTINUOUS
 62
     7
 10
-250.5333559022305
 20
156.2498383389262
  0
VERTEX
  8
1
  6
CONTINUOUS
 62
     7
 10
-250.5502879753279
 20
156.2381089875003
  0
VERTEX
  8
1
  6
CONTINUOUS
 62
     7
 10
-250.5687114391926
 20
156.2235303214528
  0
VERTEX
  8
1
  6
CONTINUOUS
 62
     7
 10
-250.5863083987374
 20
156.2075391375061
  0
VERTEX
  8
1
  6
CONTINUOUS
 62
     7
 10
-250.6029471159555
 20
156.1901647984556
  0
VERTEX
  8
1
  6
CONTINUOUS
 62
     7
 10
-250.6184880061481
 20
156.1714426974581
  0
VERTEX
  8
1
  6
CONTINUOUS
 62
     7
 10
-250.6327833934098
 20
156.1514144921863
  0
VERTEX
  8
1
  6
CONTINUOUS
 62
     7
 10
-250.6456786487665
 20
156.1301291828067
  0
VERTEX
  8
1
  6
CONTINUOUS
 62
     7
 10
-250.6570418308066
 20
156.1076614914795
  0
VERTEX
  8
1
  6
CONTINUOUS
 62
     7
 10
-250.6667657912981
 20
156.0841135347671
  0
VERTEX
  8
1
  6
CONTINUOUS
 62
     7
 10
-250.6747407217165
 20
156.0595985644296
  0
VERTEX
  8
1
  6
CONTINUOUS
 62
     7
 10
-250.6808528432661
 20
156.034240580121
  0
VERTEX
  8
1
  6
CONTINUOUS
 62
     7
 10
-250.6849843155939
 20
156.0081746865654
  0
VERTEX
  8
1
  6
CONTINUOUS
 62
     7
 10
-250.6870131450328
 20
155.981547455283
  0
VERTEX
  8
1
  6
CONTINUOUS
 62
     7
 10
-250.686815584247
 20
155.9545172908668
  0
VERTEX
  8
1
  6
CONTINUOUS
 62
     7
 10
-250.6843128820103
 20
155.9272548018084
  0
VERTEX
  8
1
  6
CONTINUOUS
 62
     7
 10
-250.6794709355565
 20
155.8999431758743
  0
VERTEX
  8
1
  6
CONTINUOUS
 62
     7
 10
-250.6722599052412
 20
155.8727785600323
  0
VERTEX
  8
1
  6
CONTINUOUS
 62
     7
 10
-250.6626527763628
 20
155.8459704449279
  0
VERTEX
  8
1
  6
CONTINUOUS
 62
     7
 10
-250.6506254738286
 20
155.8197420539101
  0
VERTEX
  8
1
  6
CONTINUOUS
 62
     7
 10
-250.6361570017416
 20
155.7943307221691
  0
VERTEX
  8
1
  6
CONTINUOUS
 62
     7
 10
-250.6192532120811
 20
155.7699739389116
  0
VERTEX
  8
1
  6
CONTINUOUS
 62
     7
 10
-250.603363193081
 20
155.7506332964399
  0
VERTEX
  8
1
  6
CONTINUOUS
 62
     7
 10
-250.5858957538478
 20
155.7322932371924
  0
VERTEX
  8
1
  6
CONTINUOUS
 62
     7
 10
-250.5669145855027
 20
155.7150821617413
  0
VERTEX
  8
1
  6
CONTINUOUS
 62
     7
 10
-250.5517266214419
 20
155.7029951211902
  0
VERTEX
  8
1
  6
CONTINUOUS
 62
     7
 10
-250.5357569764959
 20
155.6916769692926
  0
VERTEX
  8
1
  6
CONTINUOUS
 62
     7
 10
-250.5190384928522
 20
155.6811881316962
  0
VERTEX
  8
1
  6
CONTINUOUS
 62
     7
 10
-250.5104091838641
 20
155.6762740946072
  0
VERTEX
  8
1
  6
CONTINUOUS
 62
     7
 10
-250.5060289607716
 20
155.6739031349052
  0
VERTEX
  8
1
  6
CONTINUOUS
 62
     7
 10
-250.5054784010475
 20
155.6736108723893
  0
VERTEX
  8
1
  6
CONTINUOUS
 62
     7
 10
-250.5052028698658
 20
155.6734650857579
  0
VERTEX
  8
1
  6
CONTINUOUS
 62
     7
 10
-250.5050650415066
 20
155.6733922787068
  0
VERTEX
  8
1
  6
CONTINUOUS
 62
     7
 10
-250.5050305778814
 20
155.6733740859351
  0
VERTEX
  8
1
  6
CONTINUOUS
 62
     7
 10
-250.5050133450887
 20
155.6733649908983
  0
VERTEX
  8
1
  6
CONTINUOUS
 62
     7
 10
-250.5050085197896
 20
155.6733624444491
  0
VERTEX
  8
1
  6
CONTINUOUS
 62
     7
 10
-250.5050007918629
 20
155.6733584045244
  0
VERTEX
  8
1
  6
CONTINUOUS
 62
     7
 10
-250.5049866533666
 20
155.6733510284632
  0
VERTEX
  8
1
  6
CONTINUOUS
 62
     7
 10
-250.4762673813968
 20
155.6583684677317
  0
VERTEX
  8
1
  6
CONTINUOUS
 62
     7
 10
-249.3138175426659
 20
155.0523711118469
  0
SEQEND
  8
1
  6
CONTINUOUS
 62
     7
  0
LINE
  8
1
  6
CONTINUOUS
 62
     7
 10
-249.2473903504333
 20
154.6133857895116
 11
-250.5324872119042
 21
153.9414195478923
  0
POLYLINE
  8
1
  6
CONTINUOUS
 62
     7
 66
     1
  0
VERTEX
  8
1
  6
CONTINUOUS
 62
     7
 10
-250.5324872119042
 20
153.9414195478923
  0
VERTEX
  8
1
  6
CONTINUOUS
 62
     7
 10
-250.5495177459782
 20
153.9296535211553
  0
VERTEX
  8
1
  6
CONTINUOUS
 62
     7
 10
-250.5679993855899
 20
153.9150675929764
  0
VERTEX
  8
1
  6
CONTINUOUS
 62
     7
 10
-250.5856527626703
 20
153.8990703312193
  0
VERTEX
  8
1
  6
CONTINUOUS
 62
     7
 10
-250.6023464629493
 20
153.8816910986791
  0
VERTEX
  8
1
  6
CONTINUOUS
 62
     7
 10
-250.6179412345494
 20
153.862965288513
  0
VERTEX
  8
1
  6
CONTINUOUS
 62
     7
 10
-250.6322897433309
 20
153.8429345583934
  0
VERTEX
  8
1
  6
CONTINUOUS
 62
     7
 10
-250.6452377107868
 20
153.8216479084869
  0
VERTEX
  8
1
  6
CONTINUOUS
 62
     7
 10
-250.6566535537182
 20
153.7991800609538
  0
VERTEX
  8
1
  6
CONTINUOUS
 62
     7
 10
-250.6664304899514
 20
153.7756331323563
  0
VERTEX
  8
1
  6
CONTINUOUS
 62
     7
 10
-250.6744590854435
 20
153.7511203744547
  0
VERTEX
  8
1
  6
CONTINUOUS
 62
     7
 10
-250.6806259439255
 20
153.7257657869028
  0
VERTEX
  8
1
  6
CONTINUOUS
 62
     7
 10
-250.6848136151324
 20
153.6997044744248
  0
VERTEX
  8
1
  6
CONTINUOUS
 62
     7
 10
-250.6869005024888
 20
153.673083008541
  0
VERTEX
  8
1
  6
CONTINUOUS
 62
     7
 10
-250.6867632621074
 20
153.6460597938442
  0
VERTEX
  8
1
  6
CONTINUOUS
 62
     7
 10
-250.6843235519209
 20
153.6188054388261
  0
VERTEX
  8
1
  6
CONTINUOUS
 62
     7
 10
-250.6795476842039
 20
153.5915031312532
  0
VERTEX
  8
1
  6
CONTINUOUS
 62
     7
 10
-250.6724062401068
 20
153.5643490180935
  0
VERTEX
  8
1
  6
CONTINUOUS
 62
     7
 10
-250.6628726308903
 20
153.537552589992
  0
VERTEX
  8
1
  6
CONTINUOUS
 62
     7
 10
-250.6509232119739
 20
153.5113370702981
  0
VERTEX
  8
1
  6
CONTINUOUS
 62
     7
 10
-250.6365374218866
 20
153.485939794202
  0
VERTEX
  8
1
  6
CONTINUOUS
 62
     7
 10
-250.6197215509706
 20
153.4615982509103
  0
VERTEX
  8
1
  6
CONTINUOUS
 62
     7
 10
-250.603909117996
 20
153.4422712130996
  0
VERTEX
  8
1
  6
CONTINUOUS
 62
     7
 10
-250.5865234692024
 20
153.4239455809582
  0
VERTEX
  8
1
  6
CONTINUOUS
 62
     7
 10
-250.5676285576377
 20
153.4067497550583
  0
VERTEX
  8
1
  6
CONTINUOUS
 62
     7
 10
-250.5525083761031
 20
153.3946746914
  0
VERTEX
  8
1
  6
CONTINUOUS
 62
     7
 10
-250.5366092870315
 20
153.3833689790208
  0
VERTEX
  8
1
  6
CONTINUOUS
 62
     7
 10
-250.5199642458314
 20
153.3728930435681
  0
VERTEX
  8
1
  6
CONTINUOUS
 62
     7
 10
-250.5113727761421
 20
153.3679856310354
  0
VERTEX
  8
1
  6
CONTINUOUS
 62
     7
 10
-250.5070117584837
 20
153.3656180269827
  0
VERTEX
  8
1
  6
CONTINUOUS
 62
     7
 10
-250.5064636129667
 20
153.365326185956
  0
VERTEX
  8
1
  6
CONTINUOUS
 62
     7
 10
-250.50618929002
 20
153.3651806102386
  0
VERTEX
  8
1
  6
CONTINUOUS
 62
     7
 10
-250.5060520660614
 20
153.3651079086869
  0
VERTEX
  8
1
  6
CONTINUOUS
 62
     7
 10
-250.5060177535658
 20
153.3650897422945
  0
VERTEX
  8
1
  6
CONTINUOUS
 62
     7
 10
-250.5060005963423
 20
153.3650806604479
  0
VERTEX
  8
1
  6
CONTINUOUS
 62
     7
 10
-250.5059957922032
 20
153.3650781176921
  0
VERTEX
  8
1
  6
CONTINUOUS
 62
     7
 10
-250.5059880732482
 20
153.3650740793924
  0
VERTEX
  8
1
  6
CONTINUOUS
 62
     7
 10
-250.5059739413137
 20
153.3650667046082
  0
VERTEX
  8
1
  6
CONTINUOUS
 62
     7
 10
-250.477268022838
 20
153.3500867443726
  0
VERTEX
  8
1
  6
CONTINUOUS
 62
     7
 10
-249.3137773019087
 20
152.7433601790953
  0
SEQEND
  8
1
  6
CONTINUOUS
 62
     7
  0
LINE
  8
1
  6
CONTINUOUS
 62
     7
 10
-249.2457721231128
 20
152.3052276388096
 11
-250.5316663618324
 21
151.6331075096395
  0
POLYLINE
  8
1
  6
CONTINUOUS
 62
     7
 66
     1
  0
VERTEX
  8
1
  6
CONTINUOUS
 62
     7
 10
-250.5316663618324
 20
151.6331075096395
  0
VERTEX
  8
1
  6
CONTINUOUS
 62
     7
 10
-250.5488280705148
 20
151.6212913654069
  0
VERTEX
  8
1
  6
CONTINUOUS
 62
     7
 10
-250.5719059889848
 20
151.6028195805047
  0
VERTEX
  8
1
  6
CONTINUOUS
 62
     7
 10
-250.5936337924708
 20
151.582155331684
  0
VERTEX
  8
1
  6
CONTINUOUS
 62
     7
 10
-250.6137496163002
 20
151.559360363609
  0
VERTEX
  8
1
  6
CONTINUOUS
 62
     7
 10
-250.6319721795732
 20
151.5345114290924
  0
VERTEX
  8
1
  6
CONTINUOUS
 62
     7
 10
-250.6449865911168
 20
151.513215866793
  0
VERTEX
  8
1
  6
CONTINUOUS
 62
     7
 10
-250.6564668842171
 20
151.4907402009729
  0
VERTEX
  8
1
  6
CONTINUOUS
 62
     7
 10
-250.6663065753644
 20
151.4671865481943
  0
VERTEX
  8
1
  6
CONTINUOUS
 62
     7
 10
-250.6743965364687
 20
151.4426681602175
  0
VERTEX
  8
1
  6
CONTINUOUS
 62
     7
 10
-250.6806236842737
 20
151.4173090366963
  0
VERTEX
  8
1
  6
CONTINUOUS
 62
     7
 10
-250.6848708882845
 20
151.3912442823548
  0
VERTEX
  8
1
  6
CONTINUOUS
 62
     7
 10
-250.6870168780937
 20
151.3646204687134
  0
VERTEX
  8
1
  6
CONTINUOUS
 62
     7
 10
-250.6869386419889
 20
151.337596000365
  0
VERTEX
  8
1
  6
CONTINUOUS
 62
     7
 10
-250.684558176311
 20
151.310341485801
  0
VERTEX
  8
1
  6
CONTINUOUS
 62
     7
 10
-250.6798421383139
 20
151.2830401127883
  0
VERTEX
  8
1
  6
CONTINUOUS
 62
     7
 10
-250.6727614601407
 20
151.2558880282944
  0
VERTEX
  8
1
  6
CONTINUOUS
 62
     7
 10
-250.6632899095788
 20
151.2290947229649
  0
VERTEX
  8
1
  6
CONTINUOUS
 62
     7
 10
-250.6514042036183
 20
151.2028834201487
  0
VERTEX
  8
1
  6
CONTINUOUS
 62
     7
 10
-250.637084146894
 20
151.1774914550361
  0
VERTEX
  8
1
  6
CONTINUOUS
 62
     7
 10
-250.6203364007479
 20
151.153156316834
  0
VERTEX
  8
1
  6
CONTINUOUS
 62
     7
 10
-250.6045828375981
 20
151.1338354523731
  0
VERTEX
  8
1
  6
CONTINUOUS
 62
     7
 10
-250.5872582032314
 20
151.1155167533774
  0
VERTEX
  8
1
  6
CONTINUOUS
 62
     7
 10
-250.5684266747577
 20
151.0983286204189
  0
VERTEX
  8
1
  6
CONTINUOUS
 62
     7
 10
-250.5533557211303
 20
151.0862598250827
  0
VERTEX
  8
1
  6
CONTINUOUS
 62
     7
 10
-250.5375074161285
 20
151.0749608084106
  0
VERTEX
  8
1
  6
CONTINUOUS
 62
     7
 10
-250.5209148123771
 20
151.0644919960501
  0
VERTEX
  8
1
  6
CONTINUOUS
 62
     7
 10
-250.5123502120246
 20
151.0595883053329
  0
VERTEX
  8
1
  6
CONTINUOUS
 62
     7
 10
-250.508002797072
 20
151.0572226022554
  0
VERTEX
  8
1
  6
CONTINUOUS
 62
     7
 10
-250.5074563598831
 20
151.0569310007288
  0
VERTEX
  8
1
  6
CONTINUOUS
 62
     7
 10
-250.5071828917698
 20
151.0567855449179
  0
VERTEX
  8
1
  6
CONTINUOUS
 62
     7
 10
-250.5070460953954
 20
151.0567129033585
  0
VERTEX
  8
1
  6
CONTINUOUS
 62
     7
 10
-250.5070118898134
 20
151.0566947519683
  0
VERTEX
  8
1
  6
CONTINUOUS
 62
     7
 10
-250.5069947860493
 20
151.0566856776234
  0
VERTEX
  8
1
  6
CONTINUOUS
 62
     7
 10
-250.5069899968792
 20
151.0566831369682
  0
VERTEX
  8
1
  6
CONTINUOUS
 62
     7
 10
-250.5069822841695
 20
151.0566790995927
  0
VERTEX
  8
1
  6
CONTINUOUS
 62
     7
 10
-250.5069681566512
 20
151.0566717255347
  0
VERTEX
  8
1
  6
CONTINUOUS
 62
     7
 10
-250.4782712196276
 20
151.041693247332
  0
VERTEX
  8
1
  6
CONTINUOUS
 62
     7
 10
-249.3137429114255
 20
150.4342965279994
  0
SEQEND
  8
1
  6
CONTINUOUS
 62
     7
  0
LINE
  8
1
  6
CONTINUOUS
 62
     7
 10
-249.247996714638
 20
149.9950597240762
 11
-250.5327976890004
 21
149.3233180565038
  0
POLYLINE
  8
1
  6
CONTINUOUS
 62
     7
 66
     1
  0
VERTEX
  8
1
  6
CONTINUOUS
 62
     7
 10
-250.5327976890004
 20
149.3233180565038
  0
VERTEX
  8
1
  6
CONTINUOUS
 62
     7
 10
-250.5498023336146
 20
149.3115805788992
  0
VERTEX
  8
1
  6
CONTINUOUS
 62
     7
 10
-250.5682637676393
 20
149.2970239897276
  0
VERTEX
  8
1
  6
CONTINUOUS
 62
     7
 10
-250.5859010030094
 20
149.2810567991031
  0
VERTEX
  8
1
  6
CONTINUOUS
 62
     7
 10
-250.6025829306751
 20
149.2637083698209
  0
VERTEX
  8
1
  6
CONTINUOUS
 62
     7
 10
-250.6181706093654
 20
149.2450140950381
  0
VERTEX
  8
1
  6
CONTINUOUS
 62
     7
 10
-250.6325170204609
 20
149.2250156324272
  0
VERTEX
  8
1
  6
CONTINUOUS
 62
     7
 10
-250.6454682053466
 20
149.2037619821547
  0
VERTEX
  8
1
  6
CONTINUOUS
 62
     7
 10
-250.656892904864
 20
149.1813278663809
  0
VERTEX
  8
1
  6
CONTINUOUS
 62
     7
 10
-250.6666846644416
 20
149.1578154016681
  0
VERTEX
  8
1
  6
CONTINUOUS
 62
     7
 10
-250.6747343802015
 20
149.1333378397764
  0
VERTEX
  8
1
  6
CONTINUOUS
 62
     7
 10
-250.6809289878994
 20
149.1080191803599
  0
VERTEX
  8
1
  6
CONTINUOUS
 62
     7
 10
-250.6851513703939
 20
149.0819945281426
  0
VERTEX
  8
1
  6
CONTINUOUS
 62
     7
 10
-250.6872802644911
 20
149.0554104546448
  0
VERTEX
  8
1
  6
CONTINUOUS
 62
     7
 10
-250.6871926590825
 20
149.0284253644594
  0
VERTEX
  8
1
  6
CONTINUOUS
 62
     7
 10
-250.6848105446858
 20
149.001209866078
  0
VERTEX
  8
1
  6
CONTINUOUS
 62
     7
 10
-250.6801005658444
 20
148.9739471472672
  0
VERTEX
  8
1
  6
CONTINUOUS
 62
     7
 10
-250.6743762837393
 20
148.9513332557148
  0
VERTEX
  8
1
  6
CONTINUOUS
 62
     7
 10
-250.6669998405487
 20
148.928943121784
  0
VERTEX
  8
1
  6
CONTINUOUS
 62
     7
 10
-250.6579573071826
 20
148.9069039089377
  0
VERTEX
  8
1
  6
CONTINUOUS
 62
     7
 10
-250.6472362097871
 20
148.8853495294581
  0
VERTEX
  8
1
  6
CONTINUOUS
 62
     7
 10
-250.6348259445174
 20
148.864420580069
  0
VERTEX
  8
1
  6
CONTINUOUS
 62
     7
 10
-250.6207397548334
 20
148.8442511926145
  0
VERTEX
  8
1
  6
CONTINUOUS
 62
     7
 10
-250.605028681755
 20
148.8249607552235
  0
VERTEX
  8
1
  6
CONTINUOUS
 62
     7
 10
-250.5877516898168
 20
148.8066722319222
  0
VERTEX
  8
1
  6
CONTINUOUS
 62
     7
 10
-250.5689729174623
 20
148.7895140232827
  0
VERTEX
  8
1
  6
CONTINUOUS
 62
     7
 10
-250.5539448622041
 20
148.7774675062207
  0
VERTEX
  8
1
  6
CONTINUOUS
 62
     7
 10
-250.5381422909645
 20
148.7661906264241
  0
VERTEX
  8
1
  6
CONTINUOUS
 62
     7
 10
-250.5215982377834
 20
148.7557438095405
  0
VERTEX
  8
1
  6
CONTINUOUS
 62
     7
 10
-250.513058963085
 20
148.7508510635373
  0
VERTEX
  8
1
  6
CONTINUOUS
 62
     7
 10
-250.5087244724988
 20
148.7484908195606
  0
VERTEX
  8
1
  6
CONTINUOUS
 62
     7
 10
-250.5081796630931
 20
148.7481998998002
  0
VERTEX
  8
1
  6
CONTINUOUS
 62
     7
 10
-250.5079070098905
 20
148.7480547848206
  0
VERTEX
  8
1
  6
CONTINUOUS
 62
     7
 10
-250.5077706212261
 20
148.747982313664
  0
VERTEX
  8
1
  6
CONTINUOUS
 62
     7
 10
-250.5077365175982
 20
148.7479642048731
  0
VERTEX
  8
1
  6
CONTINUOUS
 62
     7
 10
-250.5077194648151
 20
148.7479551518277
  0
VERTEX
  8
1
  6
CONTINUOUS
 62
     7
 10
-250.50771468992
 20
148.7479526171363
  0
VERTEX
  8
1
  6
CONTINUOUS
 62
     7
 10
-250.5077069832429
 20
148.7479485823849
  0
VERTEX
  8
1
  6
CONTINUOUS
 62
     7
 10
-250.5076928601067
 20
148.7479412103886
  0
VERTEX
  8
1
  6
CONTINUOUS
 62
     7
 10
-250.4790048535826
 20
148.7329669149006
  0
VERTEX
  8
1
  6
CONTINUOUS
 62
     7
 10
-249.3137139806151
 20
148.1251243252882
  0
SEQEND
  8
1
  6
CONTINUOUS
 62
     7
  0
LINE
  8
1
  6
CONTINUOUS
 62
     7
 10
-219.0211666666667
 20
160.3439770760398
 11
-219.0211666666667
 21
160.9338016817832
  0
LINE
  8
1
  6
CONTINUOUS
 62
     7
 10
-219.0211666666667
 20
158.0347970503654
 11
-219.0211666666667
 21
158.5236262875267
  0
LINE
  8
1
  6
CONTINUOUS
 62
     7
 10
-219.0211666666667
 20
155.7256181868586
 11
-219.0211666666667
 21
156.2146348093408
  0
LINE
  8
1
  6
CONTINUOUS
 62
     7
 10
-219.0211666666667
 20
153.4165193086867
 11
-219.0211666666667
 21
153.9056206571693
  0
LINE
  8
1
  6
CONTINUOUS
 62
     7
 10
-219.0211666666667
 20
151.1075276072532
 11
-219.0211666666667
 21
151.5965465032056
  0
LINE
  8
1
  6
CONTINUOUS
 62
     7
 10
-219.0211666666667
 20
148.7985225305852
 11
-219.0211666666667
 21
149.2873495464405
  0
LINE
  8
1
  6
CONTINUOUS
 62
     7
 10
-219.0211666666667
 20
145.9338016817833
 11
-219.0211666666667
 21
146.9781717420721
  0
LINE
  8
1
  6
CONTINUOUS
 62
     7
 10
-249.3121666666667
 20
148.1327444997568
 11
-249.3121666666667
 21
145.9338016817833
  0
LINE
  8
1
  6
CONTINUOUS
 62
     7
 10
-249.3121666666667
 20
150.4419589931576
 11
-249.3121666666667
 21
149.9530003613028
  0
LINE
  8
1
  6
CONTINUOUS
 62
     7
 10
-249.3121666666667
 20
152.7511097193884
 11
-249.3121666666667
 21
152.2620242239987
  0
LINE
  8
1
  6
CONTINUOUS
 62
     7
 10
-249.3121666666667
 20
155.0601321537006
 11
-249.3121666666667
 21
154.5710495779228
  0
LINE
  8
1
  6
CONTINUOUS
 62
     7
 10
-249.3121666666667
 20
157.3691363240202
 11
-249.3121666666667
 21
156.8801974715383
  0
LINE
  8
1
  6
CONTINUOUS
 62
     7
 10
-249.3121666666667
 20
160.9338016817832
 11
-249.3121666666667
 21
159.1893842837964
  0
LINE
  8
1
  6
CONTINUOUS
 62
     7
 10
-210.6666666666667
 20
142.9338016817833
 11
-210.6666666666667
 21
145.9338016817833
  0
LINE
  8
1
  6
CONTINUOUS
 62
     7
 10
-257.6666666666667
 20
145.9338016817833
 11
-257.6666666666667
 21
142.9338016817833
  0
ENDBLK
  8
0
  0
BLOCK
  8
0
  2
D_FRAME_VIEW_1801
 70
     0
 10
0.0
 20
0.0
  0
CIRCLE
  8
1
  6
CONTINUOUS
 62
     7
 10
-234.1666666666667
 20
77.5
 40
17.74000000000001
  0
CIRCLE
  8
1
  6
CONTINUOUS
 62
     7
 10
-234.1666666666667
 20
77.5
 40
16.50000000000001
  0
LINE
  8
1
  6
CONTINUOUS
 62
     7
 10
-216.4266666666667
 20
77.5
 11
-215.7680846723351
 21
77.5
  0
LINE
  8
1
  6
CONTINUOUS
 62
     7
 10
-237.9551609065923
 20
98.66358455919153
 11
-235.8008735199054
 21
100.8178719458784
  0
ARC
  8
1
  6
CONTINUOUS
 62
     7
 10
-235.4473201293121
 20
100.4643185552852
 40
0.4999999999999876
 50
93.1919133209779
 51
134.9999999999998
  0
ARC
  8
1
  6
CONTINUOUS
 62
     7
 10
-234.1666666666667
 20
77.5
 40
23.49999999999999
 50
86.80808667902198
 51
93.1919133209779
  0
ARC
  8
1
  6
CONTINUOUS
 62
     7
 10
-232.8860132040213
 20
100.4643185552851
 40
0.5000000000000178
 50
45.00000000000009
 51
86.80808667902214
  0
LINE
  8
1
  6
CONTINUOUS
 62
     7
 10
-232.5324598134279
 20
100.8178719458784
 11
-230.3781724267411
 21
98.66358455919153
  0
ARC
  8
1
  6
CONTINUOUS
 62
     7
 10
-234.1666666666667
 20
77.5
 40
21.49999999999999
 50
55.14902411374195
 51
79.85097588625804
  0
LINE
  8
1
  6
CONTINUOUS
 62
     7
 10
-221.880622478185
 20
95.14378412355681
 11
-218.8340000386831
 21
95.14378412355681
  0
ARC
  8
1
  6
CONTINUOUS
 62
     7
 10
-218.8340000386831
 20
94.64378412355683
 40
0.4999999999999976
 50
48.19191332097795
 51
90.0
  0
ARC
  8
1
  6
CONTINUOUS
 62
     7
 10
-234.1666666666667
 20
77.5
 40
23.5
 50
41.80808667902209
 51
48.1919133209779
  0
ARC
  8
1
  6
CONTINUOUS
 62
     7
 10
-217.0228825431099
 20
92.83266662798356
 40
0.5000000000000004
 50
0.0
 51
41.80808667902207
  0
LINE
  8
1
  6
CONTINUOUS
 62
     7
 10
-216.5228825431099
 20
92.83266662798356
 11
-216.5228825431099
 21
89.78604418848167
  0
ARC
  8
1
  6
CONTINUOUS
 62
     7
 10
-234.1666666666667
 20
77.5
 40
21.5
 50
10.14902411374197
 51
34.85097588625803
  0
LINE
  8
1
  6
CONTINUOUS
 62
     7
 10
-213.0030821074751
 20
81.28849423992561
 11
-210.8487947207883
 21
79.13420685323871
  0
ARC
  8
1
  6
CONTINUOUS
 62
     7
 10
-211.2023481113815
 20
78.78065346264545
 40
0.5000000000000023
 50
3.191913320977998
 51
44.99999999999989
  0
ARC
  8
1
  6
CONTINUOUS
 62
     7
 10
-234.1666666666667
 20
77.5
 40
23.50000000000001
 50
356.8080866790221
 51
3.191913320978017
  0
ARC
  8
1
  6
CONTINUOUS
 62
     7
 10
-211.2023481113815
 20
76.21934653735455
 40
0.4999999999999884
 50
315.0000000000001
 51
356.8080866790221
  0
LINE
  8
1
  6
CONTINUOUS
 62
     7
 10
-210.8487947207883
 20
75.86579314676128
 11
-213.0030821074751
 21
73.71150576007439
  0
ARC
  8
1
  6
CONTINUOUS
 62
     7
 10
-234.1666666666667
 20
77.5
 40
21.50000000000001
 50
325.149024113742
 51
349.8509758862581
  0
LINE
  8
1
  6
CONTINUOUS
 62
     7
 10
-216.5228825431099
 20
65.21395581151832
 11
-216.5228825431099
 21
62.16733337201642
  0
ARC
  8
1
  6
CONTINUOUS
 62
     7
 10
-217.0228825431099
 20
62.16733337201644
 40
0.4999999999999976
 50
318.191913320978
 51
359.9999999999996
  0
ARC
  8
1
  6
CONTINUOUS
 62
     7
 10
-234.1666666666667
 20
77.5
 40
23.5
 50
311.8080866790219
 51
318.1919133209779
  0
ARC
  8
1
  6
CONTINUOUS
 62
     7
 10
-218.8340000386831
 20
60.35621587644319
 40
0.5000000000000004
 50
270.0
 51
311.8080866790221
  0
LINE
  8
1
  6
CONTINUOUS
 62
     7
 10
-218.8340000386831
 20
59.85621587644317
 11
-221.880622478185
 21
59.85621587644319
  0
ARC
  8
1
  6
CONTINUOUS
 62
     7
 10
-234.1666666666667
 20
77.5
 40
21.5
 50
280.149024113742
 51
304.850975886258
  0
LINE
  8
1
  6
CONTINUOUS
 62
     7
 10
-230.3781724267411
 20
56.33641544080846
 11
-232.5324598134279
 21
54.18212805412156
  0
ARC
  8
1
  6
CONTINUOUS
 62
     7
 10
-232.8860132040213
 20
54.53568144471483
 40
0.4999999999999876
 50
273.1919133209779
 51
314.9999999999998
  0
ARC
  8
1
  6
CONTINUOUS
 62
     7
 10
-234.1666666666667
 20
77.5
 40
23.49999999999999
 50
266.8080866790219
 51
273.1919133209779
  0
ARC
  8
1
  6
CONTINUOUS
 62
     7
 10
-235.4473201293121
 20
54.53568144471485
 40
0.4999999999999983
 50
225.0000000000001
 51
266.8080866790221
  0
LINE
  8
1
  6
CONTINUOUS
 62
     7
 10
-235.8008735199054
 20
54.18212805412156
 11
-237.9551609065923
 21
56.33641544080846
  0
ARC
  8
1
  6
CONTINUOUS
 62
     7
 10
-234.1666666666667
 20
77.5
 40
21.49999999999999
 50
235.149024113742
 51
259.850975886258
  0
LINE
  8
1
  6
CONTINUOUS
 62
     7
 10
-246.4527108551484
 20
59.85621587644319
 11
-249.4993332946503
 21
59.85621587644317
  0
ARC
  8
1
  6
CONTINUOUS
 62
     7
 10
-249.4993332946503
 20
60.35621587644317
 40
0.5000000000000079
 50
228.1919133209782
 51
269.9999999999996
  0
ARC
  8
1
  6
CONTINUOUS
 62
     7
 10
-234.1666666666667
 20
77.5
 40
23.49999999999999
 50
221.8080866790222
 51
228.191913320978
  0
ARC
  8
1
  6
CONTINUOUS
 62
     7
 10
-251.3104507902235
 20
62.16733337201642
 40
0.5000000000000004
 50
180.0
 51
221.808086679022
  0
LINE
  8
1
  6
CONTINUOUS
 62
     7
 10
-251.8104507902235
 20
62.16733337201642
 11
-251.8104507902235
 21
65.21395581151832
  0
ARC
  8
1
  6
CONTINUOUS
 62
     7
 10
-234.1666666666667
 20
77.5
 40
21.5
 50
190.149024113742
 51
214.850975886258
  0
LINE
  8
1
  6
CONTINUOUS
 62
     7
 10
-255.3302512258582
 20
73.71150576007439
 11
-257.4845386125451
 21
75.86579314676128
  0
ARC
  8
1
  6
CONTINUOUS
 62
     7
 10
-257.1309852219518
 20
76.21934653735455
 40
0.5000000000000023
 50
183.191913320978
 51
224.9999999999999
  0
ARC
  8
1
  6
CONTINUOUS
 62
     7
 10
-234.1666666666667
 20
77.5
 40
23.49999999999998
 50
176.808086679022
 51
183.191913320978
  0
ARC
  8
1
  6
CONTINUOUS
 62
     7
 10
-257.1309852219518
 20
78.78065346264545
 40
0.500000000000008
 50
135.0000000000001
 51
176.8080866790222
  0
LINE
  8
1
  6
CONTINUOUS
 62
     7
 10
-257.4845386125451
 20
79.13420685323871
 11
-255.3302512258582
 21
81.2884942399256
  0
ARC
  8
1
  6
CONTINUOUS
 62
     7
 10
-234.1666666666667
 20
77.5
 40
21.5
 50
145.149024113742
 51
169.8509758862581
  0
LINE
  8
1
  6
CONTINUOUS
 62
     7
 10
-251.8104507902235
 20
89.78604418848167
 11
-251.8104507902235
 21
92.83266662798356
  0
ARC
  8
1
  6
CONTINUOUS
 62
     7
 10
-251.3104507902235
 20
92.83266662798356
 40
0.5000000000000183
 50
138.1919133209782
 51
179.9999999999996
  0
ARC
  8
1
  6
CONTINUOUS
 62
     7
 10
-234.1666666666667
 20
77.5
 40
23.50000000000002
 50
131.808086679022
 51
138.191913320978
  0
ARC
  8
1
  6
CONTINUOUS
 62
     7
 10
-249.4993332946503
 20
94.64378412355681
 40
0.5000000000000004
 50
90.0
 51
131.8080866790224
  0
LINE
  8
1
  6
CONTINUOUS
 62
     7
 10
-249.4993332946503
 20
95.14378412355681
 11
-246.4527108551484
 21
95.14378412355681
  0
ARC
  8
1
  6
CONTINUOUS
 62
     7
 10
-234.1666666666667
 20
77.5
 40
21.5
 50
100.149024113742
 51
124.8509758862581
  0
CIRCLE
  8
1
  6
CONTINUOUS
 62
     7
 10
-234.1666666666667
 20
77.5
 40
14.00000000000001
  0
ARC
  8
1
  6
CONTINUOUS
 62
     7
 10
-233.8175948258653
 20
76.93463191291292
 40
18.05836254637407
 50
1.79409951350087
 51
59.98808724226757
  0
LINE
  8
1
  6
CONTINUOUS
 62
     7
 10
-215.7680846723351
 20
77.49999999999945
 11
-215.7727554168115
 21
77.91309880806978
  0
ARC
  8
1
  6
CONTINUOUS
 62
     7
 10
-234.1656413691935
 20
77.49566925091582
 40
18.39727517158183
 50
359.9460869378394
 51
357.5951176398478
  0
LINE
  8
1
  6
CONTINUOUS
 62
     7
 10
-215.7845694485092
 20
76.72370501240975
 11
-215.7680846723351
 21
77.5
  0
ENDBLK
  8
0
  0
ENDSEC
  0
SECTION
  2
ENTITIES
  0
TEXT
  8
1
  6
CONTINUOUS
 62
     7
 10
-244.6219967904631
 20
40.82842003251222
 40
3.0
  1
MFPN-28PG29K
  0
LINE
  8
1
  6
CONTINUOUS
 62
     2
 10
-244.5371212121212
 20
40.27045454545457
 11
-223.7962121212121
 21
40.27045454545457
  0
INSERT
  8
1
  6
CONTINUOUS
 62
     7
  2
D_FRAME_VIEW_1491
 10
0.0
 20
0.0
 30
0.0
  0
LINE
  8
1
  6
CENTER
 62
     1
 10
-234.1666666666667
 20
53.99999999999999
 11
-234.1666666666667
 21
101.0
  0
LINE
  8
1
  6
CENTER
 62
     1
 10
-257.6666666666667
 20
77.5
 11
-210.6666666666667
 21
77.5
  0
LINE
  8
1
  6
CENTER
 62
     1
 10
-234.1666666666667
 20
162.9338016817832
 11
-234.1666666666667
 21
132.5
  0
INSERT
  8
1
  6
CONTINUOUS
 62
     7
  2
D_FRAME_VIEW_1801
 10
0.0
 20
0.0
 30
0.0
  0
ENDSEC
  0
EOF
