  0
SECTION
  2
HEADER
  9
$ACADVER
  1
AC1004
  9
$INSBASE
 10
0.0
 20
0.0
  9
$EXTMIN
 10
-186.5
 20
121.9371212121212
  9
$EXTMAX
 10
-133.5
 20
246.0785610486758
  9
$LIMMIN
 10
0.0
 20
0.0
  9
$LIMMAX
 10
12.0
 20
9.0
  9
$ORTHOMODE
 70
     0
  9
$REGENMODE
 70
     1
  9
$FILLMODE
 70
     1
  9
$QTEXTMODE
 70
     0
  9
$DRAGMODE
 70
     2
  9
$LTSCALE
 40
1.0
  9
$OSMODE
 70
    37
  9
$ATTMODE
 70
     1
  9
$TEXTSIZE
 40
0.2
  9
$TRACEWID
 40
0.05
  9
$TEXTSTYLE
  7
STANDARD
  9
$CLAYER
  8
0
  9
$CELTYPE
  6
BYLAYER
  9
$CECOLOR
 62
   256
  9
$DIMSCALE
 40
1.0
  9
$DIMASZ
 40
3.0
  9
$DIMEXO
 40
0.0625
  9
$DIMDLI
 40
0.38
  9
$DIMRND
 40
0.0
  9
$DIMDLE
 40
0.0
  9
$DIMEXE
 40
1.5
  9
$DIMTP
 40
0.0
  9
$DIMTM
 40
0.0
  9
$DIMTXT
 40
3.0
  9
$DIMCEN
 40
0.09
  9
$DIMTSZ
 40
0.0
  9
$DIMTOL
 70
     0
  9
$DIMLIM
 70
     0
  9
$DIMTIH
 70
     1
  9
$DIMTOH
 70
     1
  9
$DIMSE1
 70
     0
  9
$DIMSE2
 70
     0
  9
$DIMTAD
 70
     1
  9
$DIMZIN
 70
     0
  9
$DIMBLK
  1

  9
$DIMASO
 70
     1
  9
$DIMSHO
 70
     1
  9
$DIMPOST
  1

  9
$DIMAPOST
  1

  9
$DIMALT
 70
     0
  9
$DIMALTD
 70
     2
  9
$DIMALTF
 40
25.4
  9
$DIMLFAC
 40
1.0
  9
$DIMTOFL
 70
     0
  9
$DIMTVP
 40
0.0
  9
$DIMTIX
 70
     0
  9
$DIMSOXD
 70
     0
  9
$DIMSAH
 70
     0
  9
$DIMBLK1
  1

  9
$DIMBLK2
  1

  9
$LUNITS
 70
     2
  9
$LUPREC
 70
     4
  9
$SKETCHINC
 40
0.1
  9
$FILLETRAD
 40
0.5
  9
$AUNITS
 70
     0
  9
$AUPREC
 70
     0
  9
$MENU
  1
.
  9
$ELEVATION
 40
0.0
  9
$THICKNESS
 40
0.0
  9
$LIMCHECK
 70
     0
  9
$CHAMFERA
 40
0.0
  9
$CHAMFERB
 40
0.0
  9
$SKPOLY
 70
     0
  9
$TDCREATE
 40
2459460.414131169
  9
$TDUPDATE
 40
2459460.414131342
  9
$TDINDWG
 40
0.0000000116
  9
$TDUSRTIMER
 40
0.0000000116
  9
$USRTIMER
 70
     1
  9
$ANGBASE
 50
0.0
  9
$ANGDIR
 70
     0
  9
$PDMODE
 70
     0
  9
$PDSIZE
 40
0.0
  9
$PLINEWID
 40
0.0
  9
$COORDS
 70
     1
  9
$SPLFRAME
 70
     0
  9
$SPLINETYPE
 70
     6
  9
$SPLINESEGS
 70
     8
  9
$ATTDIA
 70
     0
  9
$ATTREQ
 70
     1
  9
$SURFTAB1
 70
     6
  9
$SURFTAB2
 70
     6
  9
$SURFTYPE
 70
     6
  9
$SURFU
 70
     6
  9
$SURFV
 70
     6
  9
$UCSNAME
  2

  9
$UCSORG
 10
0.0
 20
0.0
 30
0.0
  9
$UCSXDIR
 10
1.0
 20
0.0
 30
0.0
  9
$UCSYDIR
 10
0.0
 20
1.0
 30
0.0
  9
$USERI1
 70
     0
  9
$USERI2
 70
     0
  9
$USERI3
 70
     0
  9
$USERI4
 70
     0
  9
$USERI5
 70
     0
  9
$USERR1
 40
0.0
  9
$USERR2
 40
0.0
  9
$USERR3
 40
0.0
  9
$USERR4
 40
0.0
  9
$USERR5
 40
0.0
  9
$WORLDVIEW
 70
     1
  0
ENDSEC
  0
SECTION
  2
TABLES
  0
TABLE
  2
LTYPE
 70
     2
  0
LTYPE
  2
CONTINUOUS
 70
     0
  3
Solid line
 72
    65
 73
     0
 40
0.0
  0
LTYPE
  2
CENTER
 70
     0
  3

 72
    65
 73
     0
 40
0.0
  0
ENDTAB
  0
TABLE
  2
LAYER
 70
     2
  0
LAYER
  2
0
 70
     0
 62
     7
  6
CONTINUOUS
  0
LAYER
  2
1
 70
     0
 62
     7
  6
CONTINUOUS
  0
ENDTAB
  0
TABLE
  2
STYLE
 70
     2
  0
STYLE
  2
STANDARD
 70
     0
 40
0.0
 41
1.0
 50
0.0
 71
     0
 42
0.2
  3
txt
  4

  0
STYLE
  2
ＭＳ_ゴシック
 70
     0
 40
0.0
 41
1.0
 50
0.0
 71
     0
 42
0.2
  3
ＭＳ ゴシック.shx
  4

  0
ENDTAB
  0
TABLE
  2
VIEW
 70
     0
  0
ENDTAB
  0
ENDSEC
  0
SECTION
  2
BLOCKS
  0
BLOCK
  8
0
  2
D_FRAME_VIEW_1902
 70
     0
 10
0.0
 20
0.0
  0
CIRCLE
  8
1
  6
CONTINUOUS
 62
     7
 10
-160.0
 20
162.5
 40
22.74000000000001
  0
CIRCLE
  8
1
  6
CONTINUOUS
 62
     7
 10
-160.0
 20
162.5
 40
21.49999999999999
  0
LINE
  8
1
  6
CONTINUOUS
 62
     7
 10
-137.26
 20
162.5
 11
-136.6014180056684
 21
162.5
  0
LINE
  8
1
  6
CONTINUOUS
 62
     7
 10
-163.7455085290599
 20
186.7120045815859
 11
-161.6355868360069
 21
188.821926274639
  0
ARC
  8
1
  6
CONTINUOUS
 62
     7
 10
-161.2820334454136
 20
188.4683728840457
 40
0.5000000000000033
 50
92.82634247644619
 51
135.0000000000002
  0
ARC
  8
1
  6
CONTINUOUS
 62
     7
 10
-160.0
 20
162.5
 40
26.5
 50
87.1736575235538
 51
92.82634247644619
  0
ARC
  8
1
  6
CONTINUOUS
 62
     7
 10
-158.7179665545864
 20
188.4683728840457
 40
0.5000000000000178
 50
44.99999999999986
 51
87.1736575235538
  0
LINE
  8
1
  6
CONTINUOUS
 62
     7
 10
-158.3644131639931
 20
188.821926274639
 11
-156.25449147094
 21
186.7120045815859
  0
ARC
  8
1
  6
CONTINUOUS
 62
     7
 10
-160.0
 20
162.5
 40
24.49999999999999
 50
53.793742043492
 51
81.20625795650798
  0
LINE
  8
1
  6
CONTINUOUS
 62
     7
 10
-145.5280018541312
 20
182.2689471056495
 11
-142.5441219802703
 21
182.2689471056495
  0
ARC
  8
1
  6
CONTINUOUS
 62
     7
 10
-142.5441219802703
 20
181.7689471056495
 40
0.5000000000000101
 50
47.82634247644604
 51
90.0000000000004
  0
ARC
  8
1
  6
CONTINUOUS
 62
     7
 10
-160.0
 20
162.5
 40
26.5
 50
42.17365752355386
 51
47.8263424764462
  0
ARC
  8
1
  6
CONTINUOUS
 62
     7
 10
-140.7310528943505
 20
179.9558780197297
 40
0.5000000000000004
 50
0.0
 51
42.17365752355398
  0
LINE
  8
1
  6
CONTINUOUS
 62
     7
 10
-140.2310528943505
 20
179.9558780197297
 11
-140.2310528943505
 21
176.9719981458688
  0
ARC
  8
1
  6
CONTINUOUS
 62
     7
 10
-160.0
 20
162.5
 40
24.50000000000001
 50
8.793742043491989
 51
36.20625795650795
  0
LINE
  8
1
  6
CONTINUOUS
 62
     7
 10
-135.7879954184141
 20
166.24550852906
 11
-133.678073725361
 21
164.1355868360069
  0
ARC
  8
1
  6
CONTINUOUS
 62
     7
 10
-134.0316271159543
 20
163.7820334454136
 40
0.5000000000000033
 50
2.826342476446092
 51
45.00000000000008
  0
ARC
  8
1
  6
CONTINUOUS
 62
     7
 10
-160.0
 20
162.5
 40
26.5
 50
357.1736575235538
 51
2.8263424764462
  0
ARC
  8
1
  6
CONTINUOUS
 62
     7
 10
-134.0316271159543
 20
161.2179665545864
 40
0.5000000000000178
 50
314.9999999999998
 51
357.1736575235539
  0
LINE
  8
1
  6
CONTINUOUS
 62
     7
 10
-133.678073725361
 20
160.8644131639931
 11
-135.7879954184141
 21
158.75449147094
  0
ARC
  8
1
  6
CONTINUOUS
 62
     7
 10
-160.0
 20
162.5
 40
24.49999999999999
 50
323.793742043492
 51
351.206257956508
  0
LINE
  8
1
  6
CONTINUOUS
 62
     7
 10
-140.2310528943505
 20
148.0280018541312
 11
-140.2310528943505
 21
145.0441219802703
  0
ARC
  8
1
  6
CONTINUOUS
 62
     7
 10
-140.7310528943505
 20
145.0441219802703
 40
0.5000000000000101
 50
317.8263424764464
 51
0.0000000000004547
  0
ARC
  8
1
  6
CONTINUOUS
 62
     7
 10
-160.0
 20
162.5
 40
26.5
 50
312.1736575235539
 51
317.8263424764461
  0
ARC
  8
1
  6
CONTINUOUS
 62
     7
 10
-142.5441219802703
 20
143.2310528943505
 40
0.5000000000000004
 50
270.0
 51
312.173657523554
  0
LINE
  8
1
  6
CONTINUOUS
 62
     7
 10
-142.5441219802703
 20
142.7310528943505
 11
-145.5280018541312
 21
142.7310528943505
  0
ARC
  8
1
  6
CONTINUOUS
 62
     7
 10
-160.0
 20
162.5
 40
24.50000000000001
 50
278.793742043492
 51
306.206257956508
  0
LINE
  8
1
  6
CONTINUOUS
 62
     7
 10
-156.25449147094
 20
138.2879954184141
 11
-158.3644131639931
 21
136.178073725361
  0
ARC
  8
1
  6
CONTINUOUS
 62
     7
 10
-158.7179665545864
 20
136.5316271159543
 40
0.5000000000000033
 50
272.8263424764462
 51
315.0000000000002
  0
ARC
  8
1
  6
CONTINUOUS
 62
     7
 10
-160.0
 20
162.5
 40
26.5
 50
267.1736575235539
 51
272.8263424764461
  0
ARC
  8
1
  6
CONTINUOUS
 62
     7
 10
-161.2820334454136
 20
136.5316271159543
 40
0.5000000000000178
 50
224.9999999999998
 51
267.1736575235538
  0
LINE
  8
1
  6
CONTINUOUS
 62
     7
 10
-161.6355868360069
 20
136.178073725361
 11
-163.74550852906
 21
138.2879954184141
  0
ARC
  8
1
  6
CONTINUOUS
 62
     7
 10
-160.0
 20
162.5
 40
24.49999999999999
 50
233.793742043492
 51
261.206257956508
  0
LINE
  8
1
  6
CONTINUOUS
 62
     7
 10
-174.4719981458688
 20
142.7310528943505
 11
-177.4558780197297
 21
142.7310528943505
  0
ARC
  8
1
  6
CONTINUOUS
 62
     7
 10
-177.4558780197297
 20
143.2310528943505
 40
0.4999999999999895
 50
227.8263424764463
 51
270.0000000000004
  0
ARC
  8
1
  6
CONTINUOUS
 62
     7
 10
-160.0
 20
162.5
 40
26.5
 50
222.1736575235538
 51
227.8263424764461
  0
ARC
  8
1
  6
CONTINUOUS
 62
     7
 10
-179.2689471056495
 20
145.0441219802703
 40
0.5000000000000004
 50
180.0
 51
222.173657523554
  0
LINE
  8
1
  6
CONTINUOUS
 62
     7
 10
-179.7689471056495
 20
145.0441219802703
 11
-179.7689471056495
 21
148.0280018541312
  0
ARC
  8
1
  6
CONTINUOUS
 62
     7
 10
-160.0
 20
162.5
 40
24.50000000000001
 50
188.7937420434919
 51
216.2062579565079
  0
LINE
  8
1
  6
CONTINUOUS
 62
     7
 10
-184.2120045815859
 20
158.75449147094
 11
-186.321926274639
 21
160.8644131639931
  0
ARC
  8
1
  6
CONTINUOUS
 62
     7
 10
-185.9683728840457
 20
161.2179665545864
 40
0.5000000000000033
 50
182.8263424764461
 51
225.0000000000001
  0
ARC
  8
1
  6
CONTINUOUS
 62
     7
 10
-160.0
 20
162.5
 40
26.5
 50
177.1736575235539
 51
182.8263424764463
  0
ARC
  8
1
  6
CONTINUOUS
 62
     7
 10
-185.9683728840457
 20
163.7820334454136
 40
0.5000000000000178
 50
134.9999999999999
 51
177.1736575235538
  0
LINE
  8
1
  6
CONTINUOUS
 62
     7
 10
-186.321926274639
 20
164.1355868360069
 11
-184.2120045815859
 21
166.24550852906
  0
ARC
  8
1
  6
CONTINUOUS
 62
     7
 10
-160.0
 20
162.5
 40
24.49999999999999
 50
143.793742043492
 51
171.206257956508
  0
LINE
  8
1
  6
CONTINUOUS
 62
     7
 10
-179.7689471056495
 20
176.9719981458688
 11
-179.7689471056495
 21
179.9558780197297
  0
ARC
  8
1
  6
CONTINUOUS
 62
     7
 10
-179.2689471056495
 20
179.9558780197297
 40
0.4999999999999895
 50
137.8263424764463
 51
180.0000000000004
  0
ARC
  8
1
  6
CONTINUOUS
 62
     7
 10
-160.0
 20
162.5
 40
26.5
 50
132.1736575235539
 51
137.8263424764463
  0
ARC
  8
1
  6
CONTINUOUS
 62
     7
 10
-177.4558780197297
 20
181.7689471056495
 40
0.5000000000000004
 50
90.0
 51
132.173657523554
  0
LINE
  8
1
  6
CONTINUOUS
 62
     7
 10
-177.4558780197297
 20
182.2689471056495
 11
-174.4719981458688
 21
182.2689471056495
  0
ARC
  8
1
  6
CONTINUOUS
 62
     7
 10
-160.0
 20
162.5
 40
24.5
 50
98.793742043492
 51
126.206257956508
  0
CIRCLE
  8
1
  6
CONTINUOUS
 62
     7
 10
-160.0
 20
162.5
 40
17.99999999999999
  0
LINE
  8
1
  6
CONTINUOUS
 62
     7
 10
-147.5753862933483
 20
181.5767936085297
 11
-147.9464002393431
 21
181.7990957505421
  0
ARC
  8
1
  6
CONTINUOUS
 62
     7
 10
-159.6649777859041
 20
161.9274322680878
 40
23.07066586694308
 50
1.422112536066819
 51
58.39741147451134
  0
LINE
  8
1
  6
CONTINUOUS
 62
     7
 10
-136.6014180056684
 20
162.5000000000013
 11
-136.60411449437
 21
162.8541556947981
  0
LINE
  8
1
  6
CONTINUOUS
 62
     7
 10
-136.6218974535644
 20
161.5213157078558
 11
-136.6015870939717
 21
162.5378814851542
  0
ARC
  8
1
  6
CONTINUOUS
 62
     7
 10
-159.9945729767551
 20
162.4145231208776
 40
23.39331113370106
 50
0.3021353564239663
 51
0.2093536605148642
  0
ENDBLK
  8
0
  0
BLOCK
  8
0
  2
D_FRAME_VIEW_1491
 70
     0
 10
0.0
 20
0.0
  0
LINE
  8
1
  6
CONTINUOUS
 62
     7
 10
-161.3066879347485
 20
226.0785610486759
 11
-158.6933120652515
 21
226.0785610486759
  0
LINE
  8
1
  6
CONTINUOUS
 62
     7
 10
-161.3066879347485
 20
229.0785610486759
 11
-158.6933120652515
 21
229.0785610486759
  0
LINE
  8
1
  6
CONTINUOUS
 62
     7
 10
-161.3066879347485
 20
226.0785610486759
 11
-161.6355868360069
 21
226.0785610486759
  0
LINE
  8
1
  6
CONTINUOUS
 62
     7
 10
-161.6355868360069
 20
229.0785610486759
 11
-161.3066879347485
 21
229.0785610486759
  0
LINE
  8
1
  6
CONTINUOUS
 62
     7
 10
-158.3644131639931
 20
226.0785610486759
 11
-158.6933120652515
 21
226.0785610486759
  0
LINE
  8
1
  6
CONTINUOUS
 62
     7
 10
-158.6933120652515
 20
229.0785610486759
 11
-158.3644131639931
 21
229.0785610486759
  0
LINE
  8
1
  6
CONTINUOUS
 62
     7
 10
-163.7455085290599
 20
226.0785610486759
 11
-163.7455085290599
 21
229.0785610486759
  0
LINE
  8
1
  6
CONTINUOUS
 62
     7
 10
-163.7455085290599
 20
226.0785610486759
 11
-161.6355868360069
 21
226.0785610486759
  0
LINE
  8
1
  6
CONTINUOUS
 62
     7
 10
-163.74550852906
 20
229.0785610486759
 11
-161.6355868360069
 21
229.0785610486759
  0
LINE
  8
1
  6
CONTINUOUS
 62
     7
 10
-156.25449147094
 20
226.0785610486759
 11
-156.25449147094
 21
229.0785610486759
  0
LINE
  8
1
  6
CONTINUOUS
 62
     7
 10
-158.3644131639931
 20
226.0785610486759
 11
-156.25449147094
 21
226.0785610486759
  0
LINE
  8
1
  6
CONTINUOUS
 62
     7
 10
-158.3644131639931
 20
229.0785610486759
 11
-156.25449147094
 21
229.0785610486759
  0
LINE
  8
1
  6
CONTINUOUS
 62
     7
 10
-145.5280018541312
 20
226.0785610486759
 11
-145.5280018541312
 21
229.0785610486759
  0
LINE
  8
1
  6
CONTINUOUS
 62
     7
 10
-145.5280018541312
 20
226.0785610486759
 11
-156.25449147094
 21
226.0785610486759
  0
LINE
  8
1
  6
CONTINUOUS
 62
     7
 10
-145.5280018541312
 20
229.0785610486759
 11
-156.25449147094
 21
229.0785610486759
  0
LINE
  8
1
  6
CONTINUOUS
 62
     7
 10
-174.4719981458688
 20
226.0785610486759
 11
-174.4719981458688
 21
229.0785610486759
  0
LINE
  8
1
  6
CONTINUOUS
 62
     7
 10
-163.7455085290599
 20
226.0785610486759
 11
-174.4719981458688
 21
226.0785610486759
  0
LINE
  8
1
  6
CONTINUOUS
 62
     7
 10
-163.7455085290599
 20
229.0785610486759
 11
-174.4719981458688
 21
229.0785610486759
  0
ARC
  8
1
  6
CONTINUOUS
 62
     7
 10
583.813653737907
 20
-42565.30585604021
 40
42787.91340377383
 50
90.9656122976756
 51
91.02651976631218
  0
ARC
  8
1
  6
CONTINUOUS
 62
     7
 10
581.9583811461074
 20
-42471.22843527092
 40
42695.4052524615
 50
90.96521503524696
 51
91.02625405285096
  0
ARC
  8
1
  6
CONTINUOUS
 62
     7
 10
581.7492939229858
 20
-42460.13193026498
 40
42685.89416156985
 50
90.9651493409391
 51
91.02620204743141
  0
ARC
  8
1
  6
CONTINUOUS
 62
     7
 10
646.6219028067536
 20
-46185.59257309535
 40
46413.50640507571
 50
90.96772181458613
 51
91.02387148841308
  0
ARC
  8
1
  6
CONTINUOUS
 62
     7
 10
588.4686715013336
 20
-42854.64963363578
 40
43083.64328937847
 50
90.96517549774542
 51
91.0256644679301
  0
ARC
  8
1
  6
CONTINUOUS
 62
     7
 10
3.536555918571576
 20
-9566.576070642635
 40
9792.02604681627
 50
90.82537848286144
 51
91.09002000769884
  0
POLYLINE
  8
1
  6
CONTINUOUS
 62
     7
 66
     1
  0
VERTEX
  8
1
  6
CONTINUOUS
 62
     7
 10
-136.6014180056684
 20
215.5785610486759
  0
VERTEX
  8
1
  6
CONTINUOUS
 62
     7
 10
-136.6014602975467
 20
215.5823235203763
  0
VERTEX
  8
1
  6
CONTINUOUS
 62
     7
 10
-136.601586904479
 20
215.5860841740204
  0
VERTEX
  8
1
  6
CONTINUOUS
 62
     7
 10
-136.6017974234122
 20
215.5898411915522
  0
VERTEX
  8
1
  6
CONTINUOUS
 62
     7
 10
-136.6020914512928
 20
215.5935927549154
  0
VERTEX
  8
1
  6
CONTINUOUS
 62
     7
 10
-136.6024685850676
 20
215.5973370460538
  0
VERTEX
  8
1
  6
CONTINUOUS
 62
     7
 10
-136.6029284216831
 20
215.6010722469114
  0
VERTEX
  8
1
  6
CONTINUOUS
 62
     7
 10
-136.603470558086
 20
215.6047965394318
  0
VERTEX
  8
1
  6
CONTINUOUS
 62
     7
 10
-136.6040945912229
 20
215.6085081055589
  0
VERTEX
  8
1
  6
CONTINUOUS
 62
     7
 10
-136.6048001180406
 20
215.6122051272364
  0
VERTEX
  8
1
  6
CONTINUOUS
 62
     7
 10
-136.6055867354855
 20
215.6158857864083
  0
VERTEX
  8
1
  6
CONTINUOUS
 62
     7
 10
-136.6064540405045
 20
215.6195482650183
  0
VERTEX
  8
1
  6
CONTINUOUS
 62
     7
 10
-136.6074016300441
 20
215.6231907450102
  0
VERTEX
  8
1
  6
CONTINUOUS
 62
     7
 10
-136.608429101051
 20
215.6268114083279
  0
VERTEX
  8
1
  6
CONTINUOUS
 62
     7
 10
-136.6095360504718
 20
215.6304084369151
  0
VERTEX
  8
1
  6
CONTINUOUS
 62
     7
 10
-136.6107220752532
 20
215.6339800127157
  0
VERTEX
  8
1
  6
CONTINUOUS
 62
     7
 10
-136.6119867723418
 20
215.6375243176735
  0
VERTEX
  8
1
  6
CONTINUOUS
 62
     7
 10
-136.6133297386842
 20
215.6410395337322
  0
VERTEX
  8
1
  6
CONTINUOUS
 62
     7
 10
-136.6147505712272
 20
215.6445238428357
  0
VERTEX
  8
1
  6
CONTINUOUS
 62
     7
 10
-136.6162488669173
 20
215.6479754269278
  0
VERTEX
  8
1
  6
CONTINUOUS
 62
     7
 10
-136.6178242191864
 20
215.6513924695915
  0
VERTEX
  8
1
  6
CONTINUOUS
 62
     7
 10
-136.6194759638172
 20
215.654773274553
  0
VERTEX
  8
1
  6
CONTINUOUS
 62
     7
 10
-136.6212030077424
 20
215.6581163455151
  0
VERTEX
  8
1
  6
CONTINUOUS
 62
     7
 10
-136.6230042173278
 20
215.6614202050971
  0
VERTEX
  8
1
  6
CONTINUOUS
 62
     7
 10
-136.6248784589393
 20
215.664683375918
  0
VERTEX
  8
1
  6
CONTINUOUS
 62
     7
 10
-136.6268245989426
 20
215.6679043805973
  0
VERTEX
  8
1
  6
CONTINUOUS
 62
     7
 10
-136.6288415037039
 20
215.6710817417541
  0
VERTEX
  8
1
  6
CONTINUOUS
 62
     7
 10
-136.6309280395887
 20
215.6742139820075
  0
VERTEX
  8
1
  6
CONTINUOUS
 62
     7
 10
-136.633083072963
 20
215.6772996239769
  0
VERTEX
  8
1
  6
CONTINUOUS
 62
     7
 10
-136.6353054701928
 20
215.6803371902815
  0
VERTEX
  8
1
  6
CONTINUOUS
 62
     7
 10
-136.6375940976438
 20
215.6833252035404
  0
VERTEX
  8
1
  6
CONTINUOUS
 62
     7
 10
-136.6399478216819
 20
215.6862621863731
  0
VERTEX
  8
1
  6
CONTINUOUS
 62
     7
 10
-136.642365508673
 20
215.6891466613985
  0
VERTEX
  8
1
  6
CONTINUOUS
 62
     7
 10
-136.6448460249829
 20
215.6919771512361
  0
VERTEX
  8
1
  6
CONTINUOUS
 62
     7
 10
-136.6473882369775
 20
215.694752178505
  0
VERTEX
  8
1
  6
CONTINUOUS
 62
     7
 10
-136.6499910110226
 20
215.6974702658244
  0
VERTEX
  8
1
  6
CONTINUOUS
 62
     7
 10
-136.6526532134842
 20
215.7001299358135
  0
VERTEX
  8
1
  6
CONTINUOUS
 62
     7
 10
-136.655373710728
 20
215.7027297110916
  0
VERTEX
  8
1
  6
CONTINUOUS
 62
     7
 10
-136.65815136912
 20
215.705268114278
  0
VERTEX
  8
1
  6
CONTINUOUS
 62
     7
 10
-136.6609850550259
 20
215.7077436679918
  0
VERTEX
  8
1
  6
CONTINUOUS
 62
     7
 10
-136.6841749098351
 20
215.7272105210228
  0
VERTEX
  8
1
  6
CONTINUOUS
 62
     7
 10
-136.7201639779704
 20
215.7574089348216
  0
VERTEX
  8
1
  6
CONTINUOUS
 62
     7
 10
-136.7561530461057
 20
215.7876073486203
  0
VERTEX
  8
1
  6
CONTINUOUS
 62
     7
 10
-136.792142114241
 20
215.8178057624191
  0
VERTEX
  8
1
  6
CONTINUOUS
 62
     7
 10
-136.8281311823763
 20
215.8480041762178
  0
VERTEX
  8
1
  6
CONTINUOUS
 62
     7
 10
-136.8641202505116
 20
215.8782025900165
  0
VERTEX
  8
1
  6
CONTINUOUS
 62
     7
 10
-136.9001093186469
 20
215.9084010038153
  0
VERTEX
  8
1
  6
CONTINUOUS
 62
     7
 10
-136.9360983867822
 20
215.9385994176141
  0
VERTEX
  8
1
  6
CONTINUOUS
 62
     7
 10
-136.9720874549176
 20
215.9687978314128
  0
VERTEX
  8
1
  6
CONTINUOUS
 62
     7
 10
-137.0080765230528
 20
215.9989962452116
  0
VERTEX
  8
1
  6
CONTINUOUS
 62
     7
 10
-137.0440655911881
 20
216.0291946590103
  0
VERTEX
  8
1
  6
CONTINUOUS
 62
     7
 10
-137.0800546593234
 20
216.059393072809
  0
VERTEX
  8
1
  6
CONTINUOUS
 62
     7
 10
-137.1160437274588
 20
216.0895914866078
  0
VERTEX
  8
1
  6
CONTINUOUS
 62
     7
 10
-137.1520327955941
 20
216.1197899004066
  0
VERTEX
  8
1
  6
CONTINUOUS
 62
     7
 10
-137.1880218637293
 20
216.1499883142053
  0
VERTEX
  8
1
  6
CONTINUOUS
 62
     7
 10
-137.2240109318647
 20
216.1801867280041
  0
VERTEX
  8
1
  6
CONTINUOUS
 62
     7
 10
-137.26
 20
216.2103851418028
  0
SEQEND
  8
1
  6
CONTINUOUS
 62
     7
  0
ARC
  8
1
  6
CONTINUOUS
 62
     7
 10
-1403.117887964331
 20
71756.66527649423
 40
71542.1297370584
 50
270.9774103389976
 51
271.0138375764218
  0
ARC
  8
1
  6
CONTINUOUS
 62
     7
 10
-1488.276701064796
 20
76634.9238082871
 40
76422.71873995672
 50
270.9788384379312
 51
271.0129394603488
  0
ARC
  8
1
  6
CONTINUOUS
 62
     7
 10
-1588.90365075802
 20
82417.56034235212
 40
82207.81795147689
 50
270.9800926398065
 51
271.0117940072745
  0
ARC
  8
1
  6
CONTINUOUS
 62
     7
 10
-1809.471722064338
 20
95137.11751860933
 40
94930.87416719261
 50
270.9818675087678
 51
271.0093199973741
  0
ARC
  8
1
  6
CONTINUOUS
 62
     7
 10
-1591.644684102187
 20
82613.96950083788
 40
82407.41939750996
 50
270.979624717096
 51
271.0112491242267
  0
ARC
  8
1
  6
CONTINUOUS
 62
     7
 10
352.9658019804491
 20
-29838.16028248773
 40
30059.94135456696
 50
90.93451091869878
 51
91.02113329284788
  0
LINE
  8
1
  6
CONTINUOUS
 62
     7
 10
-137.2988940170916
 20
217.7828031627842
 11
-137.2600000000012
 21
217.7977776343604
  0
POLYLINE
  8
1
  6
CONTINUOUS
 62
     7
 66
     1
  0
VERTEX
  8
1
  6
CONTINUOUS
 62
     7
 10
-137.26
 20
225.7353851418028
  0
VERTEX
  8
1
  6
CONTINUOUS
 62
     7
 10
-137.2240109318647
 20
225.705186728004
  0
VERTEX
  8
1
  6
CONTINUOUS
 62
     7
 10
-137.1880218637294
 20
225.6749883142053
  0
VERTEX
  8
1
  6
CONTINUOUS
 62
     7
 10
-137.1520327955941
 20
225.6447899004066
  0
VERTEX
  8
1
  6
CONTINUOUS
 62
     7
 10
-137.1160437274588
 20
225.6145914866078
  0
VERTEX
  8
1
  6
CONTINUOUS
 62
     7
 10
-137.0800546593235
 20
225.584393072809
  0
VERTEX
  8
1
  6
CONTINUOUS
 62
     7
 10
-137.0440655911882
 20
225.5541946590103
  0
VERTEX
  8
1
  6
CONTINUOUS
 62
     7
 10
-137.0080765230529
 20
225.5239962452116
  0
VERTEX
  8
1
  6
CONTINUOUS
 62
     7
 10
-136.9720874549176
 20
225.4937978314128
  0
VERTEX
  8
1
  6
CONTINUOUS
 62
     7
 10
-136.9360983867822
 20
225.463599417614
  0
VERTEX
  8
1
  6
CONTINUOUS
 62
     7
 10
-136.9001093186469
 20
225.4334010038153
  0
VERTEX
  8
1
  6
CONTINUOUS
 62
     7
 10
-136.8641202505116
 20
225.4032025900166
  0
VERTEX
  8
1
  6
CONTINUOUS
 62
     7
 10
-136.8281311823763
 20
225.3730041762178
  0
VERTEX
  8
1
  6
CONTINUOUS
 62
     7
 10
-136.792142114241
 20
225.3428057624191
  0
VERTEX
  8
1
  6
CONTINUOUS
 62
     7
 10
-136.7561530461057
 20
225.3126073486203
  0
VERTEX
  8
1
  6
CONTINUOUS
 62
     7
 10
-136.7201639779704
 20
225.2824089348215
  0
VERTEX
  8
1
  6
CONTINUOUS
 62
     7
 10
-136.6841749098351
 20
225.2522105210228
  0
VERTEX
  8
1
  6
CONTINUOUS
 62
     7
 10
-136.6609850550259
 20
225.2327436679918
  0
VERTEX
  8
1
  6
CONTINUOUS
 62
     7
 10
-136.65815136912
 20
225.230268114278
  0
VERTEX
  8
1
  6
CONTINUOUS
 62
     7
 10
-136.655373710728
 20
225.2277297110916
  0
VERTEX
  8
1
  6
CONTINUOUS
 62
     7
 10
-136.6526532134842
 20
225.2251299358135
  0
VERTEX
  8
1
  6
CONTINUOUS
 62
     7
 10
-136.6499910110226
 20
225.2224702658243
  0
VERTEX
  8
1
  6
CONTINUOUS
 62
     7
 10
-136.6473882369775
 20
225.2197521785049
  0
VERTEX
  8
1
  6
CONTINUOUS
 62
     7
 10
-136.6448460249829
 20
225.2169771512361
  0
VERTEX
  8
1
  6
CONTINUOUS
 62
     7
 10
-136.642365508673
 20
225.2141466613985
  0
VERTEX
  8
1
  6
CONTINUOUS
 62
     7
 10
-136.6399478216819
 20
225.211262186373
  0
VERTEX
  8
1
  6
CONTINUOUS
 62
     7
 10
-136.6375940976438
 20
225.2083252035404
  0
VERTEX
  8
1
  6
CONTINUOUS
 62
     7
 10
-136.6353054701928
 20
225.2053371902815
  0
VERTEX
  8
1
  6
CONTINUOUS
 62
     7
 10
-136.633083072963
 20
225.2022996239768
  0
VERTEX
  8
1
  6
CONTINUOUS
 62
     7
 10
-136.6309280395887
 20
225.1992139820074
  0
VERTEX
  8
1
  6
CONTINUOUS
 62
     7
 10
-136.6288415037038
 20
225.196081741754
  0
VERTEX
  8
1
  6
CONTINUOUS
 62
     7
 10
-136.6268245989426
 20
225.1929043805972
  0
VERTEX
  8
1
  6
CONTINUOUS
 62
     7
 10
-136.6248784589393
 20
225.189683375918
  0
VERTEX
  8
1
  6
CONTINUOUS
 62
     7
 10
-136.6230042173278
 20
225.186420205097
  0
VERTEX
  8
1
  6
CONTINUOUS
 62
     7
 10
-136.6212030077424
 20
225.1831163455151
  0
VERTEX
  8
1
  6
CONTINUOUS
 62
     7
 10
-136.6194759638172
 20
225.1797732745529
  0
VERTEX
  8
1
  6
CONTINUOUS
 62
     7
 10
-136.6178242191864
 20
225.1763924695914
  0
VERTEX
  8
1
  6
CONTINUOUS
 62
     7
 10
-136.6162488669173
 20
225.1729754269278
  0
VERTEX
  8
1
  6
CONTINUOUS
 62
     7
 10
-136.6147505712272
 20
225.1695238428357
  0
VERTEX
  8
1
  6
CONTINUOUS
 62
     7
 10
-136.6133297386842
 20
225.1660395337321
  0
VERTEX
  8
1
  6
CONTINUOUS
 62
     7
 10
-136.6119867723417
 20
225.1625243176734
  0
VERTEX
  8
1
  6
CONTINUOUS
 62
     7
 10
-136.6107220752531
 20
225.1589800127156
  0
VERTEX
  8
1
  6
CONTINUOUS
 62
     7
 10
-136.6095360504718
 20
225.1554084369151
  0
VERTEX
  8
1
  6
CONTINUOUS
 62
     7
 10
-136.608429101051
 20
225.1518114083278
  0
VERTEX
  8
1
  6
CONTINUOUS
 62
     7
 10
-136.6074016300441
 20
225.1481907450101
  0
VERTEX
  8
1
  6
CONTINUOUS
 62
     7
 10
-136.6064540405045
 20
225.1445482650183
  0
VERTEX
  8
1
  6
CONTINUOUS
 62
     7
 10
-136.6055867354855
 20
225.1408857864082
  0
VERTEX
  8
1
  6
CONTINUOUS
 62
     7
 10
-136.6048001180405
 20
225.1372051272364
  0
VERTEX
  8
1
  6
CONTINUOUS
 62
     7
 10
-136.6040945912229
 20
225.1335081055588
  0
VERTEX
  8
1
  6
CONTINUOUS
 62
     7
 10
-136.6034705580859
 20
225.1297965394317
  0
VERTEX
  8
1
  6
CONTINUOUS
 62
     7
 10
-136.602928421683
 20
225.1260722469112
  0
VERTEX
  8
1
  6
CONTINUOUS
 62
     7
 10
-136.6024685850676
 20
225.1223370460538
  0
VERTEX
  8
1
  6
CONTINUOUS
 62
     7
 10
-136.6020914512928
 20
225.1185927549154
  0
VERTEX
  8
1
  6
CONTINUOUS
 62
     7
 10
-136.6017974234122
 20
225.114841191552
  0
VERTEX
  8
1
  6
CONTINUOUS
 62
     7
 10
-136.601586904479
 20
225.1110841740203
  0
VERTEX
  8
1
  6
CONTINUOUS
 62
     7
 10
-136.6014602975466
 20
225.1073235203761
  0
VERTEX
  8
1
  6
CONTINUOUS
 62
     7
 10
-136.6014180056684
 20
225.1035610486758
  0
SEQEND
  8
1
  6
CONTINUOUS
 62
     7
  0
POLYLINE
  8
1
  6
CONTINUOUS
 62
     7
 66
     1
  0
VERTEX
  8
1
  6
CONTINUOUS
 62
     7
 10
-137.26
 20
214.9467369555489
  0
VERTEX
  8
1
  6
CONTINUOUS
 62
     7
 10
-137.2240109318647
 20
214.9769353693476
  0
VERTEX
  8
1
  6
CONTINUOUS
 62
     7
 10
-137.1880218637294
 20
215.0071337831464
  0
VERTEX
  8
1
  6
CONTINUOUS
 62
     7
 10
-137.1520327955941
 20
215.0373321969451
  0
VERTEX
  8
1
  6
CONTINUOUS
 62
     7
 10
-137.1160437274587
 20
215.0675306107439
  0
VERTEX
  8
1
  6
CONTINUOUS
 62
     7
 10
-137.0800546593235
 20
215.0977290245426
  0
VERTEX
  8
1
  6
CONTINUOUS
 62
     7
 10
-137.0440655911881
 20
215.1279274383413
  0
VERTEX
  8
1
  6
CONTINUOUS
 62
     7
 10
-137.0080765230528
 20
215.1581258521401
  0
VERTEX
  8
1
  6
CONTINUOUS
 62
     7
 10
-136.9720874549176
 20
215.1883242659389
  0
VERTEX
  8
1
  6
CONTINUOUS
 62
     7
 10
-136.9360983867822
 20
215.2185226797376
  0
VERTEX
  8
1
  6
CONTINUOUS
 62
     7
 10
-136.9001093186469
 20
215.2487210935363
  0
VERTEX
  8
1
  6
CONTINUOUS
 62
     7
 10
-136.8641202505116
 20
215.2789195073351
  0
VERTEX
  8
1
  6
CONTINUOUS
 62
     7
 10
-136.8281311823763
 20
215.3091179211339
  0
VERTEX
  8
1
  6
CONTINUOUS
 62
     7
 10
-136.792142114241
 20
215.3393163349326
  0
VERTEX
  8
1
  6
CONTINUOUS
 62
     7
 10
-136.7561530461057
 20
215.3695147487314
  0
VERTEX
  8
1
  6
CONTINUOUS
 62
     7
 10
-136.7201639779704
 20
215.3997131625302
  0
VERTEX
  8
1
  6
CONTINUOUS
 62
     7
 10
-136.6841749098351
 20
215.4299115763289
  0
VERTEX
  8
1
  6
CONTINUOUS
 62
     7
 10
-136.6609850550259
 20
215.4493784293599
  0
VERTEX
  8
1
  6
CONTINUOUS
 62
     7
 10
-136.6581513691199
 20
215.4518539830737
  0
VERTEX
  8
1
  6
CONTINUOUS
 62
     7
 10
-136.655373710728
 20
215.4543923862601
  0
VERTEX
  8
1
  6
CONTINUOUS
 62
     7
 10
-136.6526532134841
 20
215.4569921615382
  0
VERTEX
  8
1
  6
CONTINUOUS
 62
     7
 10
-136.6499910110226
 20
215.4596518315274
  0
VERTEX
  8
1
  6
CONTINUOUS
 62
     7
 10
-136.6473882369775
 20
215.4623699188467
  0
VERTEX
  8
1
  6
CONTINUOUS
 62
     7
 10
-136.6448460249829
 20
215.4651449461156
  0
VERTEX
  8
1
  6
CONTINUOUS
 62
     7
 10
-136.642365508673
 20
215.4679754359531
  0
VERTEX
  8
1
  6
CONTINUOUS
 62
     7
 10
-136.6399478216819
 20
215.4708599109786
  0
VERTEX
  8
1
  6
CONTINUOUS
 62
     7
 10
-136.6375940976438
 20
215.4737968938112
  0
VERTEX
  8
1
  6
CONTINUOUS
 62
     7
 10
-136.6353054701928
 20
215.4767849070702
  0
VERTEX
  8
1
  6
CONTINUOUS
 62
     7
 10
-136.633083072963
 20
215.4798224733748
  0
VERTEX
  8
1
  6
CONTINUOUS
 62
     7
 10
-136.6309280395887
 20
215.4829081153442
  0
VERTEX
  8
1
  6
CONTINUOUS
 62
     7
 10
-136.6288415037038
 20
215.4860403555977
  0
VERTEX
  8
1
  6
CONTINUOUS
 62
     7
 10
-136.6268245989426
 20
215.4892177167544
  0
VERTEX
  8
1
  6
CONTINUOUS
 62
     7
 10
-136.6248784589392
 20
215.4924387214336
  0
VERTEX
  8
1
  6
CONTINUOUS
 62
     7
 10
-136.6230042173278
 20
215.4957018922546
  0
VERTEX
  8
1
  6
CONTINUOUS
 62
     7
 10
-136.6212030077424
 20
215.4990057518366
  0
VERTEX
  8
1
  6
CONTINUOUS
 62
     7
 10
-136.6194759638173
 20
215.5023488227987
  0
VERTEX
  8
1
  6
CONTINUOUS
 62
     7
 10
-136.6178242191864
 20
215.5057296277603
  0
VERTEX
  8
1
  6
CONTINUOUS
 62
     7
 10
-136.6162488669173
 20
215.5091466704238
  0
VERTEX
  8
1
  6
CONTINUOUS
 62
     7
 10
-136.6147505712271
 20
215.512598254516
  0
VERTEX
  8
1
  6
CONTINUOUS
 62
     7
 10
-136.6133297386842
 20
215.5160825636195
  0
VERTEX
  8
1
  6
CONTINUOUS
 62
     7
 10
-136.6119867723417
 20
215.5195977796782
  0
VERTEX
  8
1
  6
CONTINUOUS
 62
     7
 10
-136.6107220752531
 20
215.523142084636
  0
VERTEX
  8
1
  6
CONTINUOUS
 62
     7
 10
-136.6095360504718
 20
215.5267136604366
  0
VERTEX
  8
1
  6
CONTINUOUS
 62
     7
 10
-136.608429101051
 20
215.5303106890238
  0
VERTEX
  8
1
  6
CONTINUOUS
 62
     7
 10
-136.6074016300441
 20
215.5339313523415
  0
VERTEX
  8
1
  6
CONTINUOUS
 62
     7
 10
-136.6064540405045
 20
215.5375738323335
  0
VERTEX
  8
1
  6
CONTINUOUS
 62
     7
 10
-136.6055867354856
 20
215.5412363109434
  0
VERTEX
  8
1
  6
CONTINUOUS
 62
     7
 10
-136.6048001180405
 20
215.5449169701153
  0
VERTEX
  8
1
  6
CONTINUOUS
 62
     7
 10
-136.6040945912229
 20
215.5486139917929
  0
VERTEX
  8
1
  6
CONTINUOUS
 62
     7
 10
-136.603470558086
 20
215.55232555792
  0
VERTEX
  8
1
  6
CONTINUOUS
 62
     7
 10
-136.6029284216831
 20
215.5560498504403
  0
VERTEX
  8
1
  6
CONTINUOUS
 62
     7
 10
-136.6024685850676
 20
215.5597850512979
  0
VERTEX
  8
1
  6
CONTINUOUS
 62
     7
 10
-136.6020914512928
 20
215.5635293424363
  0
VERTEX
  8
1
  6
CONTINUOUS
 62
     7
 10
-136.6017974234122
 20
215.5672809057996
  0
VERTEX
  8
1
  6
CONTINUOUS
 62
     7
 10
-136.601586904479
 20
215.5710379233314
  0
VERTEX
  8
1
  6
CONTINUOUS
 62
     7
 10
-136.6014602975467
 20
215.5747985769755
  0
VERTEX
  8
1
  6
CONTINUOUS
 62
     7
 10
-136.6014180056684
 20
215.5785610486759
  0
SEQEND
  8
1
  6
CONTINUOUS
 62
     7
  0
LINE
  8
1
  6
CONTINUOUS
 62
     7
 10
-137.26
 20
216.2103851418028
 11
-137.3486300223898
 21
216.1408862652777
  0
ARC
  8
1
  6
CONTINUOUS
 62
     7
 10
-150.4716728310774
 20
320.9932449291034
 40
105.6703902232134
 50
271.1695131831759
 51
277.1338926758687
  0
LINE
  8
1
  6
CONTINUOUS
 62
     7
 10
-148.3148938503318
 20
215.3448674008403
 11
-148.2322470872202
 21
215.2789041497648
  0
ARC
  8
1
  6
CONTINUOUS
 62
     7
 10
-151.3713428120909
 20
-78.76732640403372
 40
294.0629858123384
 50
87.2528286631495
 51
89.38836112918267
  0
LINE
  8
1
  6
CONTINUOUS
 62
     7
 10
-137.2772521220622
 20
214.9577086755264
 11
-137.26
 21
214.9467369555489
  0
LINE
  8
1
  6
CONTINUOUS
 62
     7
 10
-137.26
 20
214.0785610486758
 11
-182.74
 21
214.0785610486758
  0
POLYLINE
  8
1
  6
CONTINUOUS
 62
     7
 66
     1
  0
VERTEX
  8
1
  6
CONTINUOUS
 62
     7
 10
-139.1485871176883
 20
231.0331065032213
  0
VERTEX
  8
1
  6
CONTINUOUS
 62
     7
 10
-139.1487150956897
 20
231.0241620759691
  0
VERTEX
  8
1
  6
CONTINUOUS
 62
     7
 10
-139.1490977569646
 20
231.0152244748222
  0
VERTEX
  8
1
  6
CONTINUOUS
 62
     7
 10
-139.1497331924193
 20
231.0063005258858
  0
VERTEX
  8
1
  6
CONTINUOUS
 62
     7
 10
-139.1506194929598
 20
230.9973970552651
  0
VERTEX
  8
1
  6
CONTINUOUS
 62
     7
 10
-139.1517547494924
 20
230.9885208890655
  0
VERTEX
  8
1
  6
CONTINUOUS
 62
     7
 10
-139.153137052923
 20
230.979678853392
  0
VERTEX
  8
1
  6
CONTINUOUS
 62
     7
 10
-139.1547644941579
 20
230.9708777743498
  0
VERTEX
  8
1
  6
CONTINUOUS
 62
     7
 10
-139.1566351641033
 20
230.9621244780445
  0
VERTEX
  8
1
  6
CONTINUOUS
 62
     7
 10
-139.1587471536653
 20
230.9534257905811
  0
VERTEX
  8
1
  6
CONTINUOUS
 62
     7
 10
-139.1610985537499
 20
230.9447885380648
  0
VERTEX
  8
1
  6
CONTINUOUS
 62
     7
 10
-139.1636874552634
 20
230.9362195466009
  0
VERTEX
  8
1
  6
CONTINUOUS
 62
     7
 10
-139.1665119491119
 20
230.9277256422947
  0
VERTEX
  8
1
  6
CONTINUOUS
 62
     7
 10
-139.1695701262016
 20
230.9193136512514
  0
VERTEX
  8
1
  6
CONTINUOUS
 62
     7
 10
-139.1728600774385
 20
230.9109903995762
  0
VERTEX
  8
1
  6
CONTINUOUS
 62
     7
 10
-139.1763798937289
 20
230.9027627133744
  0
VERTEX
  8
1
  6
CONTINUOUS
 62
     7
 10
-139.1801276659788
 20
230.8946374187512
  0
VERTEX
  8
1
  6
CONTINUOUS
 62
     7
 10
-139.1841014850945
 20
230.8866213418119
  0
VERTEX
  8
1
  6
CONTINUOUS
 62
     7
 10
-139.188299441982
 20
230.8787213086617
  0
VERTEX
  8
1
  6
CONTINUOUS
 62
     7
 10
-139.1927196275475
 20
230.8709441454058
  0
VERTEX
  8
1
  6
CONTINUOUS
 62
     7
 10
-139.1973600649438
 20
230.8632966370358
  0
VERTEX
  8
1
  6
CONTINUOUS
 62
     7
 10
-139.2022172144787
 20
230.8557846201854
  0
VERTEX
  8
1
  6
CONTINUOUS
 62
     7
 10
-139.2072859711004
 20
230.8484129816052
  0
VERTEX
  8
1
  6
CONTINUOUS
 62
     7
 10
-139.2125611615011
 20
230.8411865666266
  0
VERTEX
  8
1
  6
CONTINUOUS
 62
     7
 10
-139.2180376123729
 20
230.8341102205812
  0
VERTEX
  8
1
  6
CONTINUOUS
 62
     7
 10
-139.223710150408
 20
230.8271887888006
  0
VERTEX
  8
1
  6
CONTINUOUS
 62
     7
 10
-139.2295736022986
 20
230.8204271166164
  0
VERTEX
  8
1
  6
CONTINUOUS
 62
     7
 10
-139.2356227947367
 20
230.8138300493601
  0
VERTEX
  8
1
  6
CONTINUOUS
 62
     7
 10
-139.2418525544145
 20
230.8074024323633
  0
VERTEX
  8
1
  6
CONTINUOUS
 62
     7
 10
-139.2482577080241
 20
230.8011491109575
  0
VERTEX
  8
1
  6
CONTINUOUS
 62
     7
 10
-139.2548330822578
 20
230.7950749304742
  0
VERTEX
  8
1
  6
CONTINUOUS
 62
     7
 10
-139.2615735038076
 20
230.7891847362452
  0
VERTEX
  8
1
  6
CONTINUOUS
 62
     7
 10
-139.2684737993657
 20
230.7834833736018
  0
VERTEX
  8
1
  6
CONTINUOUS
 62
     7
 10
-139.2755287956243
 20
230.7779756878758
  0
VERTEX
  8
1
  6
CONTINUOUS
 62
     7
 10
-139.2827333192753
 20
230.7726665243985
  0
VERTEX
  8
1
  6
CONTINUOUS
 62
     7
 10
-139.2900821970111
 20
230.7675607285017
  0
VERTEX
  8
1
  6
CONTINUOUS
 62
     7
 10
-139.2975702555238
 20
230.7626631455169
  0
VERTEX
  8
1
  6
CONTINUOUS
 62
     7
 10
-139.3051923215054
 20
230.7579786207755
  0
VERTEX
  8
1
  6
CONTINUOUS
 62
     7
 10
-139.3129432216483
 20
230.7535119996092
  0
VERTEX
  8
1
  6
CONTINUOUS
 62
     7
 10
-139.3208177826444
 20
230.7492681273496
  0
VERTEX
  8
1
  6
CONTINUOUS
 62
     7
 10
-139.3915203123684
 20
230.7124627197649
  0
VERTEX
  8
1
  6
CONTINUOUS
 62
     7
 10
-139.4623002928454
 20
230.6756169940898
  0
VERTEX
  8
1
  6
CONTINUOUS
 62
     7
 10
-139.5330802733224
 20
230.6387712684149
  0
VERTEX
  8
1
  6
CONTINUOUS
 62
     7
 10
-139.6038602537993
 20
230.6019255427398
  0
VERTEX
  8
1
  6
CONTINUOUS
 62
     7
 10
-139.6746402342763
 20
230.5650798170648
  0
VERTEX
  8
1
  6
CONTINUOUS
 62
     7
 10
-139.7454202147533
 20
230.5282340913898
  0
VERTEX
  8
1
  6
CONTINUOUS
 62
     7
 10
-139.8162001952303
 20
230.4913883657148
  0
VERTEX
  8
1
  6
CONTINUOUS
 62
     7
 10
-139.8869801757072
 20
230.4545426400398
  0
VERTEX
  8
1
  6
CONTINUOUS
 62
     7
 10
-139.9577601561842
 20
230.4176969143648
  0
VERTEX
  8
1
  6
CONTINUOUS
 62
     7
 10
-140.0285401366612
 20
230.3808511886897
  0
VERTEX
  8
1
  6
CONTINUOUS
 62
     7
 10
-140.0993201171382
 20
230.3440054630148
  0
VERTEX
  8
1
  6
CONTINUOUS
 62
     7
 10
-140.1701000976151
 20
230.3071597373398
  0
VERTEX
  8
1
  6
CONTINUOUS
 62
     7
 10
-140.2408800780921
 20
230.2703140116648
  0
VERTEX
  8
1
  6
CONTINUOUS
 62
     7
 10
-140.3116600585691
 20
230.2334682859897
  0
VERTEX
  8
1
  6
CONTINUOUS
 62
     7
 10
-140.382440039046
 20
230.1966225603147
  0
VERTEX
  8
1
  6
CONTINUOUS
 62
     7
 10
-140.4532200195231
 20
230.1597768346398
  0
VERTEX
  8
1
  6
CONTINUOUS
 62
     7
 10
-140.524
 20
230.1229311089647
  0
SEQEND
  8
1
  6
CONTINUOUS
 62
     7
  0
POLYLINE
  8
1
  6
CONTINUOUS
 62
     7
 66
     1
  0
VERTEX
  8
1
  6
CONTINUOUS
 62
     7
 10
-139.1485871176883
 20
242.5785610486758
  0
VERTEX
  8
1
  6
CONTINUOUS
 62
     7
 10
-139.1487150956897
 20
242.587505475928
  0
VERTEX
  8
1
  6
CONTINUOUS
 62
     7
 10
-139.1490977569646
 20
242.5964430770749
  0
VERTEX
  8
1
  6
CONTINUOUS
 62
     7
 10
-139.1497331924193
 20
242.6053670260113
  0
VERTEX
  8
1
  6
CONTINUOUS
 62
     7
 10
-139.1506194929598
 20
242.6142704966319
  0
VERTEX
  8
1
  6
CONTINUOUS
 62
     7
 10
-139.1517547494923
 20
242.6231466628316
  0
VERTEX
  8
1
  6
CONTINUOUS
 62
     7
 10
-139.153137052923
 20
242.6319886985052
  0
VERTEX
  8
1
  6
CONTINUOUS
 62
     7
 10
-139.1547644941579
 20
242.6407897775472
  0
VERTEX
  8
1
  6
CONTINUOUS
 62
     7
 10
-139.1566351641033
 20
242.6495430738526
  0
VERTEX
  8
1
  6
CONTINUOUS
 62
     7
 10
-139.1587471536652
 20
242.658241761316
  0
VERTEX
  8
1
  6
CONTINUOUS
 62
     7
 10
-139.1610985537499
 20
242.6668790138323
  0
VERTEX
  8
1
  6
CONTINUOUS
 62
     7
 10
-139.1636874552634
 20
242.6754480052962
  0
VERTEX
  8
1
  6
CONTINUOUS
 62
     7
 10
-139.1665119491119
 20
242.6839419096024
  0
VERTEX
  8
1
  6
CONTINUOUS
 62
     7
 10
-139.1695701262016
 20
242.6923539006457
  0
VERTEX
  8
1
  6
CONTINUOUS
 62
     7
 10
-139.1728600774385
 20
242.7006771523209
  0
VERTEX
  8
1
  6
CONTINUOUS
 62
     7
 10
-139.1763798937289
 20
242.7089048385227
  0
VERTEX
  8
1
  6
CONTINUOUS
 62
     7
 10
-139.1801276659788
 20
242.7170301331459
  0
VERTEX
  8
1
  6
CONTINUOUS
 62
     7
 10
-139.1841014850945
 20
242.7250462100852
  0
VERTEX
  8
1
  6
CONTINUOUS
 62
     7
 10
-139.188299441982
 20
242.7329462432354
  0
VERTEX
  8
1
  6
CONTINUOUS
 62
     7
 10
-139.1927196275475
 20
242.7407234064913
  0
VERTEX
  8
1
  6
CONTINUOUS
 62
     7
 10
-139.1973600649438
 20
242.7483709148613
  0
VERTEX
  8
1
  6
CONTINUOUS
 62
     7
 10
-139.2022172144787
 20
242.7558829317117
  0
VERTEX
  8
1
  6
CONTINUOUS
 62
     7
 10
-139.2072859711004
 20
242.7632545702918
  0
VERTEX
  8
1
  6
CONTINUOUS
 62
     7
 10
-139.2125611615011
 20
242.7704809852705
  0
VERTEX
  8
1
  6
CONTINUOUS
 62
     7
 10
-139.2180376123729
 20
242.7775573313159
  0
VERTEX
  8
1
  6
CONTINUOUS
 62
     7
 10
-139.223710150408
 20
242.7844787630964
  0
VERTEX
  8
1
  6
CONTINUOUS
 62
     7
 10
-139.2295736022986
 20
242.7912404352807
  0
VERTEX
  8
1
  6
CONTINUOUS
 62
     7
 10
-139.2356227947367
 20
242.797837502537
  0
VERTEX
  8
1
  6
CONTINUOUS
 62
     7
 10
-139.2418525544145
 20
242.8042651195339
  0
VERTEX
  8
1
  6
CONTINUOUS
 62
     7
 10
-139.2482577080241
 20
242.8105184409396
  0
VERTEX
  8
1
  6
CONTINUOUS
 62
     7
 10
-139.2548330822578
 20
242.8165926214228
  0
VERTEX
  8
1
  6
CONTINUOUS
 62
     7
 10
-139.2615735038076
 20
242.8224828156519
  0
VERTEX
  8
1
  6
CONTINUOUS
 62
     7
 10
-139.2684737993657
 20
242.8281841782953
  0
VERTEX
  8
1
  6
CONTINUOUS
 62
     7
 10
-139.2755287956242
 20
242.8336918640214
  0
VERTEX
  8
1
  6
CONTINUOUS
 62
     7
 10
-139.2827333192753
 20
242.8390010274986
  0
VERTEX
  8
1
  6
CONTINUOUS
 62
     7
 10
-139.2900821970111
 20
242.8441068233955
  0
VERTEX
  8
1
  6
CONTINUOUS
 62
     7
 10
-139.2975702555238
 20
242.8490044063803
  0
VERTEX
  8
1
  6
CONTINUOUS
 62
     7
 10
-139.3051923215054
 20
242.8536889311217
  0
VERTEX
  8
1
  6
CONTINUOUS
 62
     7
 10
-139.3129432216482
 20
242.8581555522879
  0
VERTEX
  8
1
  6
CONTINUOUS
 62
     7
 10
-139.3208177826444
 20
242.8623994245476
  0
VERTEX
  8
1
  6
CONTINUOUS
 62
     7
 10
-139.3915203123684
 20
242.8992048321323
  0
VERTEX
  8
1
  6
CONTINUOUS
 62
     7
 10
-139.4623002928454
 20
242.9360505578073
  0
VERTEX
  8
1
  6
CONTINUOUS
 62
     7
 10
-139.5330802733224
 20
242.9728962834823
  0
VERTEX
  8
1
  6
CONTINUOUS
 62
     7
 10
-139.6038602537993
 20
243.0097420091573
  0
VERTEX
  8
1
  6
CONTINUOUS
 62
     7
 10
-139.6746402342763
 20
243.0465877348323
  0
VERTEX
  8
1
  6
CONTINUOUS
 62
     7
 10
-139.7454202147533
 20
243.0834334605073
  0
VERTEX
  8
1
  6
CONTINUOUS
 62
     7
 10
-139.8162001952303
 20
243.1202791861823
  0
VERTEX
  8
1
  6
CONTINUOUS
 62
     7
 10
-139.8869801757072
 20
243.1571249118573
  0
VERTEX
  8
1
  6
CONTINUOUS
 62
     7
 10
-139.9577601561842
 20
243.1939706375324
  0
VERTEX
  8
1
  6
CONTINUOUS
 62
     7
 10
-140.0285401366612
 20
243.2308163632073
  0
VERTEX
  8
1
  6
CONTINUOUS
 62
     7
 10
-140.0993201171381
 20
243.2676620888823
  0
VERTEX
  8
1
  6
CONTINUOUS
 62
     7
 10
-140.1701000976151
 20
243.3045078145574
  0
VERTEX
  8
1
  6
CONTINUOUS
 62
     7
 10
-140.2408800780921
 20
243.3413535402324
  0
VERTEX
  8
1
  6
CONTINUOUS
 62
     7
 10
-140.3116600585691
 20
243.3781992659074
  0
VERTEX
  8
1
  6
CONTINUOUS
 62
     7
 10
-140.3824400390461
 20
243.4150449915824
  0
VERTEX
  8
1
  6
CONTINUOUS
 62
     7
 10
-140.453220019523
 20
243.4518907172574
  0
VERTEX
  8
1
  6
CONTINUOUS
 62
     7
 10
-140.524
 20
243.4887364429324
  0
SEQEND
  8
1
  6
CONTINUOUS
 62
     7
  0
POLYLINE
  8
1
  6
CONTINUOUS
 62
     7
 66
     1
  0
VERTEX
  8
1
  6
CONTINUOUS
 62
     7
 10
-140.524
 20
231.9432818974779
  0
VERTEX
  8
1
  6
CONTINUOUS
 62
     7
 10
-140.453220019523
 20
231.9064361718029
  0
VERTEX
  8
1
  6
CONTINUOUS
 62
     7
 10
-140.3824400390461
 20
231.8695904461279
  0
VERTEX
  8
1
  6
CONTINUOUS
 62
     7
 10
-140.3116600585691
 20
231.8327447204528
  0
VERTEX
  8
1
  6
CONTINUOUS
 62
     7
 10
-140.2408800780921
 20
231.7958989947779
  0
VERTEX
  8
1
  6
CONTINUOUS
 62
     7
 10
-140.1701000976151
 20
231.7590532691028
  0
VERTEX
  8
1
  6
CONTINUOUS
 62
     7
 10
-140.0993201171382
 20
231.7222075434278
  0
VERTEX
  8
1
  6
CONTINUOUS
 62
     7
 10
-140.0285401366612
 20
231.6853618177528
  0
VERTEX
  8
1
  6
CONTINUOUS
 62
     7
 10
-139.9577601561842
 20
231.6485160920778
  0
VERTEX
  8
1
  6
CONTINUOUS
 62
     7
 10
-139.8869801757073
 20
231.6116703664028
  0
VERTEX
  8
1
  6
CONTINUOUS
 62
     7
 10
-139.8162001952303
 20
231.5748246407278
  0
VERTEX
  8
1
  6
CONTINUOUS
 62
     7
 10
-139.7454202147533
 20
231.5379789150528
  0
VERTEX
  8
1
  6
CONTINUOUS
 62
     7
 10
-139.6746402342764
 20
231.5011331893778
  0
VERTEX
  8
1
  6
CONTINUOUS
 62
     7
 10
-139.6038602537994
 20
231.4642874637027
  0
VERTEX
  8
1
  6
CONTINUOUS
 62
     7
 10
-139.5330802733224
 20
231.4274417380277
  0
VERTEX
  8
1
  6
CONTINUOUS
 62
     7
 10
-139.4623002928454
 20
231.3905960123527
  0
VERTEX
  8
1
  6
CONTINUOUS
 62
     7
 10
-139.3915203123684
 20
231.3537502866777
  0
VERTEX
  8
1
  6
CONTINUOUS
 62
     7
 10
-139.3208177826444
 20
231.316944879093
  0
VERTEX
  8
1
  6
CONTINUOUS
 62
     7
 10
-139.3129432216482
 20
231.3127010068334
  0
VERTEX
  8
1
  6
CONTINUOUS
 62
     7
 10
-139.3051923215054
 20
231.3082343856671
  0
VERTEX
  8
1
  6
CONTINUOUS
 62
     7
 10
-139.2975702555238
 20
231.3035498609258
  0
VERTEX
  8
1
  6
CONTINUOUS
 62
     7
 10
-139.2900821970111
 20
231.2986522779409
  0
VERTEX
  8
1
  6
CONTINUOUS
 62
     7
 10
-139.2827333192753
 20
231.2935464820441
  0
VERTEX
  8
1
  6
CONTINUOUS
 62
     7
 10
-139.2755287956242
 20
231.2882373185668
  0
VERTEX
  8
1
  6
CONTINUOUS
 62
     7
 10
-139.2684737993657
 20
231.2827296328408
  0
VERTEX
  8
1
  6
CONTINUOUS
 62
     7
 10
-139.2615735038077
 20
231.2770282701974
  0
VERTEX
  8
1
  6
CONTINUOUS
 62
     7
 10
-139.2548330822578
 20
231.2711380759683
  0
VERTEX
  8
1
  6
CONTINUOUS
 62
     7
 10
-139.2482577080242
 20
231.2650638954851
  0
VERTEX
  8
1
  6
CONTINUOUS
 62
     7
 10
-139.2418525544145
 20
231.2588105740793
  0
VERTEX
  8
1
  6
CONTINUOUS
 62
     7
 10
-139.2356227947367
 20
231.2523829570825
  0
VERTEX
  8
1
  6
CONTINUOUS
 62
     7
 10
-139.2295736022986
 20
231.2457858898261
  0
VERTEX
  8
1
  6
CONTINUOUS
 62
     7
 10
-139.223710150408
 20
231.2390242176419
  0
VERTEX
  8
1
  6
CONTINUOUS
 62
     7
 10
-139.2180376123729
 20
231.2321027858613
  0
VERTEX
  8
1
  6
CONTINUOUS
 62
     7
 10
-139.2125611615011
 20
231.225026439816
  0
VERTEX
  8
1
  6
CONTINUOUS
 62
     7
 10
-139.2072859711004
 20
231.2178000248374
  0
VERTEX
  8
1
  6
CONTINUOUS
 62
     7
 10
-139.2022172144787
 20
231.2104283862571
  0
VERTEX
  8
1
  6
CONTINUOUS
 62
     7
 10
-139.1973600649439
 20
231.2029163694068
  0
VERTEX
  8
1
  6
CONTINUOUS
 62
     7
 10
-139.1927196275475
 20
231.1952688610367
  0
VERTEX
  8
1
  6
CONTINUOUS
 62
     7
 10
-139.188299441982
 20
231.1874916977808
  0
VERTEX
  8
1
  6
CONTINUOUS
 62
     7
 10
-139.1841014850945
 20
231.1795916646306
  0
VERTEX
  8
1
  6
CONTINUOUS
 62
     7
 10
-139.1801276659788
 20
231.1715755876913
  0
VERTEX
  8
1
  6
CONTINUOUS
 62
     7
 10
-139.1763798937289
 20
231.1634502930681
  0
VERTEX
  8
1
  6
CONTINUOUS
 62
     7
 10
-139.1728600774385
 20
231.1552226068663
  0
VERTEX
  8
1
  6
CONTINUOUS
 62
     7
 10
-139.1695701262016
 20
231.1468993551911
  0
VERTEX
  8
1
  6
CONTINUOUS
 62
     7
 10
-139.1665119491119
 20
231.1384873641479
  0
VERTEX
  8
1
  6
CONTINUOUS
 62
     7
 10
-139.1636874552634
 20
231.1299934598416
  0
VERTEX
  8
1
  6
CONTINUOUS
 62
     7
 10
-139.1610985537499
 20
231.1214244683778
  0
VERTEX
  8
1
  6
CONTINUOUS
 62
     7
 10
-139.1587471536653
 20
231.1127872158615
  0
VERTEX
  8
1
  6
CONTINUOUS
 62
     7
 10
-139.1566351641033
 20
231.1040885283981
  0
VERTEX
  8
1
  6
CONTINUOUS
 62
     7
 10
-139.1547644941579
 20
231.0953352320927
  0
VERTEX
  8
1
  6
CONTINUOUS
 62
     7
 10
-139.153137052923
 20
231.0865341530506
  0
VERTEX
  8
1
  6
CONTINUOUS
 62
     7
 10
-139.1517547494924
 20
231.0776921173771
  0
VERTEX
  8
1
  6
CONTINUOUS
 62
     7
 10
-139.1506194929598
 20
231.0688159511774
  0
VERTEX
  8
1
  6
CONTINUOUS
 62
     7
 10
-139.1497331924193
 20
231.0599124805567
  0
VERTEX
  8
1
  6
CONTINUOUS
 62
     7
 10
-139.1490977569646
 20
231.0509885316203
  0
VERTEX
  8
1
  6
CONTINUOUS
 62
     7
 10
-139.1487150956897
 20
231.0420509304734
  0
VERTEX
  8
1
  6
CONTINUOUS
 62
     7
 10
-139.1485871176883
 20
231.0331065032213
  0
SEQEND
  8
1
  6
CONTINUOUS
 62
     7
  0
LINE
  8
1
  6
CONTINUOUS
 62
     7
 10
-140.524
 20
243.4887364429324
 11
-140.7305314837985
 21
243.4348809949651
  0
ARC
  8
1
  6
CONTINUOUS
 62
     7
 10
667.7142354561282
 20
-30017.47533721509
 40
30271.70742088662
 50
91.53033921728316
 51
91.60342318614913
  0
POLYLINE
  8
1
  6
CONTINUOUS
 62
     7
 66
     1
  0
VERTEX
  8
1
  6
CONTINUOUS
 62
     7
 10
-179.3293455085399
 20
242.37904689768
  0
VERTEX
  8
1
  6
CONTINUOUS
 62
     7
 10
-179.4615323105826
 20
242.3481771922893
  0
VERTEX
  8
1
  6
CONTINUOUS
 62
     7
 10
-179.4654324915178
 20
242.3461834973013
  0
SEQEND
  8
1
  6
CONTINUOUS
 62
     7
  0
LINE
  8
1
  6
CONTINUOUS
 62
     7
 10
-177.4558780197297
 20
226.0785610486759
 11
-174.4719981458688
 21
226.0785610486759
  0
LINE
  8
1
  6
CONTINUOUS
 62
     7
 10
-177.4558780197297
 20
229.0785610486759
 11
-174.4719981458688
 21
229.0785610486759
  0
LINE
  8
1
  6
CONTINUOUS
 62
     7
 10
-145.5280018541312
 20
226.0785610486759
 11
-142.5441219802703
 21
226.0785610486759
  0
LINE
  8
1
  6
CONTINUOUS
 62
     7
 10
-145.5280018541312
 20
229.0785610486759
 11
-142.5441219802703
 21
229.0785610486759
  0
LINE
  8
1
  6
CONTINUOUS
 62
     7
 10
-142.2084320183525
 20
226.0785610486759
 11
-142.5441219802703
 21
226.0785610486759
  0
LINE
  8
1
  6
CONTINUOUS
 62
     7
 10
-142.5441219802703
 20
229.0785610486759
 11
-142.2084320183525
 21
229.0785610486759
  0
LINE
  8
1
  6
CONTINUOUS
 62
     7
 10
-177.4558780197297
 20
226.0785610486759
 11
-177.7915679816475
 21
226.0785610486759
  0
LINE
  8
1
  6
CONTINUOUS
 62
     7
 10
-177.7915679816475
 20
229.0785610486759
 11
-177.4558780197297
 21
229.0785610486759
  0
LINE
  8
1
  6
CONTINUOUS
 62
     7
 10
-142.2084320183525
 20
226.0785610486759
 11
-140.3604962192418
 21
226.0785610486759
  0
LINE
  8
1
  6
CONTINUOUS
 62
     7
 10
-142.2084320183525
 20
229.0785610486759
 11
-140.3604962192418
 21
229.0785610486759
  0
LINE
  8
1
  6
CONTINUOUS
 62
     7
 10
-179.6395037807582
 20
226.0785610486759
 11
-177.7915679816475
 21
226.0785610486759
  0
LINE
  8
1
  6
CONTINUOUS
 62
     7
 10
-179.6395037807582
 20
229.0785610486759
 11
-177.7915679816475
 21
229.0785610486759
  0
LINE
  8
1
  6
CONTINUOUS
 62
     7
 10
-179.4759999999992
 20
240.5138762873866
 11
-179.3672377567254
 21
240.5529359469157
  0
ARC
  8
1
  6
CONTINUOUS
 62
     7
 10
375.0975269650228
 20
-19172.73587125009
 40
19421.2052532009
 50
91.52187872958486
 51
91.63598539193129
  0
LINE
  8
1
  6
CONTINUOUS
 62
     7
 10
-179.4759999999995
 20
238.2049437301693
 11
-179.3713917813183
 21
238.2430540151878
  0
ARC
  8
1
  6
CONTINUOUS
 62
     7
 10
-577.8901316473587
 20
14948.55177899204
 40
14715.70589438898
 50
271.5518272727282
 51
271.7030946318997
  0
LINE
  8
1
  6
CONTINUOUS
 62
     7
 10
-179.4759999999945
 20
235.8959331776359
 11
-179.3755502641608
 21
235.9331035102404
  0
ARC
  8
1
  6
CONTINUOUS
 62
     7
 10
-575.8319439760899
 20
14850.9783023154
 40
14620.42146571818
 50
271.5538582724502
 51
271.706134015177
  0
LINE
  8
1
  6
CONTINUOUS
 62
     7
 10
-179.4759999999993
 20
233.5867601043716
 11
-179.3709832913427
 21
233.6247534213146
  0
ARC
  8
1
  6
CONTINUOUS
 62
     7
 10
-570.6665991001113
 20
14692.43704490726
 40
14464.10609541344
 50
271.5502045366378
 51
271.7040968572994
  0
LINE
  8
1
  6
CONTINUOUS
 62
     7
 10
-179.475999999999
 20
231.2775112131409
 11
-179.326524686456
 21
231.3232135486775
  0
ARC
  8
1
  6
CONTINUOUS
 62
     7
 10
-7272.635793462094
 20
257372.9243000248
 40
257239.4177526043
 50
271.5801163340744
 51
271.5887381158623
  0
LINE
  8
1
  6
CONTINUOUS
 62
     7
 10
-140.6323279721591
 20
232.3935152666456
 11
-140.5365974648136
 21
232.4190054663631
  0
LINE
  8
1
  6
CONTINUOUS
 62
     7
 10
-140.5240000000083
 20
234.2522594160699
 11
-140.6810700743268
 21
234.2054369384763
  0
ARC
  8
1
  6
CONTINUOUS
 62
     7
 10
2133.111149953895
 20
-82681.70766890592
 40
82947.08419972217
 50
91.57082097298539
 51
91.59755834837196
  0
LINE
  8
1
  6
CONTINUOUS
 62
     7
 10
-179.3739659106728
 20
233.1353317577442
 11
-179.4629378025279
 21
233.1112868894354
  0
LINE
  8
1
  6
CONTINUOUS
 62
     7
 10
-140.5240000000148
 20
236.5612107069217
 11
-140.6764767957653
 21
236.5153316699839
  0
ARC
  8
1
  6
CONTINUOUS
 62
     7
 10
-23740.83698591894
 20
854063.3937656392
 40
854152.9757088905
 50
271.5806822433901
 51
271.5832780974081
  0
LINE
  8
1
  6
CONTINUOUS
 62
     7
 10
-179.3601519099417
 20
235.4469743943302
 11
-179.4636855794517
 21
235.4198847870914
  0
LINE
  8
1
  6
CONTINUOUS
 62
     7
 10
-140.5240000000092
 20
238.8703026165757
 11
-140.6687836175221
 21
238.8257074277345
  0
ARC
  8
1
  6
CONTINUOUS
 62
     7
 10
-10000.96263181648
 20
356028.2560882367
 40
355926.0374930069
 50
271.5812487836643
 51
271.5874801268137
  0
LINE
  8
1
  6
CONTINUOUS
 62
     7
 10
-179.3635947406281
 20
237.7554311389835
 11
-179.4631439567452
 21
237.7291159473173
  0
LINE
  8
1
  6
CONTINUOUS
 62
     7
 10
-140.5240000000084
 20
241.1795347143206
 11
-140.6805130690597
 21
241.1329020049657
  0
ARC
  8
1
  6
CONTINUOUS
 62
     7
 10
82.36950404936175
 20
-8345.98185572313
 40
8590.011127613756
 50
91.48792137369483
 51
91.74671097967095
  0
LINE
  8
1
  6
CONTINUOUS
 62
     7
 10
-140.524
 20
244.0785610486758
 11
-179.476
 21
244.0785610486758
  0
LINE
  8
1
  6
CONTINUOUS
 62
     7
 10
-140.524
 20
231.9432818974779
 11
-140.6459689169505
 21
231.8371812792695
  0
ARC
  8
1
  6
CONTINUOUS
 62
     7
 10
-156.2341925339424
 20
336.4777815718303
 40
105.7953115460265
 50
271.7282340861719
 51
278.4729944724614
  0
POLYLINE
  8
1
  6
CONTINUOUS
 62
     7
 66
     1
  0
VERTEX
  8
1
  6
CONTINUOUS
 62
     7
 10
-153.0435327506299
 20
230.73059420844
  0
VERTEX
  8
1
  6
CONTINUOUS
 62
     7
 10
-153.2291163846216
 20
230.7006454242699
  0
VERTEX
  8
1
  6
CONTINUOUS
 62
     7
 10
-153.4085889857845
 20
230.662723463053
  0
VERTEX
  8
1
  6
CONTINUOUS
 62
     7
 10
-153.5192537638108
 20
230.6274530974668
  0
VERTEX
  8
1
  6
CONTINUOUS
 62
     7
 10
-153.47998996062
 20
230.520541241463
  0
SEQEND
  8
1
  6
CONTINUOUS
 62
     7
  0
ARC
  8
1
  6
CONTINUOUS
 62
     7
 10
-35.04319450971562
 20
3989.339456425595
 40
3760.684367460622
 50
268.1952617901414
 51
268.3922098154167
  0
LINE
  8
1
  6
CONTINUOUS
 62
     7
 10
-140.5587835255396
 20
230.1356348514923
 11
-140.524
 21
230.1229311089647
  0
LINE
  8
1
  6
CONTINUOUS
 62
     7
 10
-140.2310528943505
 20
229.0785610486759
 11
-140.2310528943505
 21
226.0785610486759
  0
LINE
  8
1
  6
CONTINUOUS
 62
     7
 10
-140.2310528943505
 20
226.0785610486759
 11
-140.3604962192418
 21
226.0785610486759
  0
LINE
  8
1
  6
CONTINUOUS
 62
     7
 10
-140.3604962192418
 20
229.0785610486759
 11
-140.2310528943505
 21
229.0785610486759
  0
LINE
  8
1
  6
CONTINUOUS
 62
     7
 10
-179.7689471056495
 20
226.0785610486759
 11
-179.7689471056495
 21
229.0785610486759
  0
LINE
  8
1
  6
CONTINUOUS
 62
     7
 10
-179.6395037807582
 20
226.0785610486759
 11
-179.7689471056495
 21
226.0785610486759
  0
LINE
  8
1
  6
CONTINUOUS
 62
     7
 10
-179.7689471056495
 20
229.0785610486759
 11
-179.6395037807582
 21
229.0785610486759
  0
LINE
  8
1
  6
CONTINUOUS
 62
     7
 10
-135.7879954184141
 20
226.0785610486759
 11
-135.7879954184141
 21
226.4300072087105
  0
LINE
  8
1
  6
CONTINUOUS
 62
     7
 10
-135.7879954184141
 20
226.0785610486759
 11
-140.2310528943505
 21
226.0785610486759
  0
LINE
  8
1
  6
CONTINUOUS
 62
     7
 10
-135.7879954184141
 20
229.0785610486759
 11
-140.2310528943505
 21
229.0785610486759
  0
LINE
  8
1
  6
CONTINUOUS
 62
     7
 10
-184.2120045815859
 20
226.0785610486759
 11
-184.2120045815859
 21
229.0785610486759
  0
LINE
  8
1
  6
CONTINUOUS
 62
     7
 10
-179.7689471056495
 20
226.0785610486759
 11
-184.212004581586
 21
226.0785610486759
  0
LINE
  8
1
  6
CONTINUOUS
 62
     7
 10
-179.7689471056495
 20
229.0785610486759
 11
-184.2120045815859
 21
229.0785610486759
  0
LINE
  8
1
  6
CONTINUOUS
 62
     7
 10
-186.321926274639
 20
226.0785610486759
 11
-184.212004581586
 21
226.0785610486759
  0
LINE
  8
1
  6
CONTINUOUS
 62
     7
 10
-186.321926274639
 20
229.0785610486759
 11
-184.212004581586
 21
229.0785610486759
  0
LINE
  8
1
  6
CONTINUOUS
 62
     7
 10
-135.7879954184141
 20
226.0785610486759
 11
-133.678073725361
 21
226.0785610486759
  0
LINE
  8
1
  6
CONTINUOUS
 62
     7
 10
-135.7879954184141
 20
229.0785610486759
 11
-133.678073725361
 21
229.0785610486759
  0
LINE
  8
1
  6
CONTINUOUS
 62
     7
 10
-133.5322353297226
 20
226.0785610486759
 11
-133.678073725361
 21
226.0785610486759
  0
LINE
  8
1
  6
CONTINUOUS
 62
     7
 10
-133.678073725361
 20
229.0785610486759
 11
-133.5322353297226
 21
229.0785610486759
  0
LINE
  8
1
  6
CONTINUOUS
 62
     7
 10
-186.321926274639
 20
226.0785610486759
 11
-186.4677646702774
 21
226.0785610486759
  0
LINE
  8
1
  6
CONTINUOUS
 62
     7
 10
-186.4677646702774
 20
229.0785610486759
 11
-186.321926274639
 21
229.0785610486759
  0
LINE
  8
1
  6
CONTINUOUS
 62
     7
 10
-133.5322353297227
 20
226.0785610486759
 11
-133.5
 21
226.0785610486759
  0
LINE
  8
1
  6
CONTINUOUS
 62
     7
 10
-133.5322353297227
 20
229.0785610486759
 11
-133.5
 21
229.0785610486759
  0
LINE
  8
1
  6
CONTINUOUS
 62
     7
 10
-186.5
 20
226.0785610486759
 11
-186.4677646702774
 21
226.0785610486759
  0
LINE
  8
1
  6
CONTINUOUS
 62
     7
 10
-186.5
 20
229.0785610486759
 11
-186.4677646702774
 21
229.0785610486759
  0
LINE
  8
1
  6
CONTINUOUS
 62
     7
 10
-137.5485631191475
 20
224.4128868085795
 11
-136.7695155611434
 21
224.9549329370094
  0
LINE
  8
1
  6
CONTINUOUS
 62
     7
 10
-136.7695155611434
 20
224.9549329370094
 11
-136.6014180056684
 21
225.1035610486758
  0
LINE
  8
1
  6
CONTINUOUS
 62
     7
 10
-137.2863997746597
 20
222.8604736111622
 11
-136.6516643969724
 21
223.3942457579465
  0
POLYLINE
  8
1
  6
CONTINUOUS
 62
     7
 66
     1
  0
VERTEX
  8
1
  6
CONTINUOUS
 62
     7
 10
-136.6516643969724
 20
223.3942457579465
  0
VERTEX
  8
1
  6
CONTINUOUS
 62
     7
 10
-136.6043473923218
 20
223.4851504700966
  0
VERTEX
  8
1
  6
CONTINUOUS
 62
     7
 10
-136.6185694424611
 20
223.5907679814332
  0
VERTEX
  8
1
  6
CONTINUOUS
 62
     7
 10
-136.6640290553621
 20
223.6491183174759
  0
SEQEND
  8
1
  6
CONTINUOUS
 62
     7
  0
LINE
  8
1
  6
CONTINUOUS
 62
     7
 10
-136.6640290553621
 20
223.6491183174759
 11
-137.2599948860742
 21
224.149395877284
  0
LINE
  8
1
  6
CONTINUOUS
 62
     7
 10
-137.2862947263583
 20
221.273236674957
 11
-136.6516719714648
 21
221.8070150180837
  0
POLYLINE
  8
1
  6
CONTINUOUS
 62
     7
 66
     1
  0
VERTEX
  8
1
  6
CONTINUOUS
 62
     7
 10
-136.6516719714648
 20
221.8070150180837
  0
VERTEX
  8
1
  6
CONTINUOUS
 62
     7
 10
-136.6045126300519
 20
221.8979130657422
  0
VERTEX
  8
1
  6
CONTINUOUS
 62
     7
 10
-136.6188883893175
 20
222.0035303039917
  0
VERTEX
  8
1
  6
CONTINUOUS
 62
     7
 10
-136.664443353323
 20
222.0618756089461
  0
SEQEND
  8
1
  6
CONTINUOUS
 62
     7
  0
LINE
  8
1
  6
CONTINUOUS
 62
     7
 10
-136.664443353323
 20
222.0618756089461
 11
-137.2599948952328
 21
222.5617436602865
  0
LINE
  8
1
  6
CONTINUOUS
 62
     7
 10
-137.2866670285297
 20
219.685528222406
 11
-136.6519266885062
 21
220.2193293712843
  0
POLYLINE
  8
1
  6
CONTINUOUS
 62
     7
 66
     1
  0
VERTEX
  8
1
  6
CONTINUOUS
 62
     7
 10
-136.6519266885062
 20
220.2193293712843
  0
VERTEX
  8
1
  6
CONTINUOUS
 62
     7
 10
-136.6046288149506
 20
220.3102707060395
  0
VERTEX
  8
1
  6
CONTINUOUS
 62
     7
 10
-136.618911352606
 20
220.4159264984505
  0
VERTEX
  8
1
  6
CONTINUOUS
 62
     7
 10
-136.6644317746319
 20
220.4742996192055
  0
SEQEND
  8
1
  6
CONTINUOUS
 62
     7
  0
LINE
  8
1
  6
CONTINUOUS
 62
     7
 10
-136.6644317746319
 20
220.4742996192055
 11
-137.2599946061654
 21
220.9742110756386
  0
LINE
  8
1
  6
CONTINUOUS
 62
     7
 10
-137.2866945503791
 20
218.097973986501
 11
-136.6519361579694
 21
218.6317440463325
  0
POLYLINE
  8
1
  6
CONTINUOUS
 62
     7
 66
     1
  0
VERTEX
  8
1
  6
CONTINUOUS
 62
     7
 10
-136.6519361579693
 20
218.6317440463325
  0
VERTEX
  8
1
  6
CONTINUOUS
 62
     7
 10
-136.6045715786244
 20
218.7226503772863
  0
VERTEX
  8
1
  6
CONTINUOUS
 62
     7
 10
-136.6187411394659
 20
218.8282676155358
  0
VERTEX
  8
1
  6
CONTINUOUS
 62
     7
 10
-136.6641652538704
 20
218.8866195209477
  0
SEQEND
  8
1
  6
CONTINUOUS
 62
     7
  0
LINE
  8
1
  6
CONTINUOUS
 62
     7
 10
-136.6641652538704
 20
218.8866195209477
 11
-137.2599948504819
 21
219.3868125233291
  0
LINE
  8
1
  6
CONTINUOUS
 62
     7
 10
-137.2861978389122
 20
216.5107359579477
 11
-136.6515317774168
 21
217.04451230043
  0
POLYLINE
  8
1
  6
CONTINUOUS
 62
     7
 66
     1
  0
VERTEX
  8
1
  6
CONTINUOUS
 62
     7
 10
-136.6515317774168
 20
217.04451230043
  0
VERTEX
  8
1
  6
CONTINUOUS
 62
     7
 10
-136.6043179224324
 20
217.1354128168821
  0
VERTEX
  8
1
  6
CONTINUOUS
 62
     7
 10
-136.6186431389773
 20
217.2410303282187
  0
VERTEX
  8
1
  6
CONTINUOUS
 62
     7
 10
-136.6641687242419
 20
217.2993773193346
  0
SEQEND
  8
1
  6
CONTINUOUS
 62
     7
  0
LINE
  8
1
  6
CONTINUOUS
 62
     7
 10
-136.6641687242419
 20
217.2993773193346
 11
-137.2599948912764
 21
217.7994907879843
  0
LINE
  8
1
  6
CONTINUOUS
 62
     7
 10
-136.6014180056684
 20
215.5785610486759
 11
-136.81073678734
 21
215.7479498733648
  0
LINE
  8
1
  6
CONTINUOUS
 62
     7
 10
-182.7140288787545
 20
217.0275884165044
 11
-183.3486498316369
 21
216.4938092282613
  0
POLYLINE
  8
1
  6
CONTINUOUS
 62
     7
 66
     1
  0
VERTEX
  8
1
  6
CONTINUOUS
 62
     7
 10
-183.3486498316369
 20
216.4938092282613
  0
VERTEX
  8
1
  6
CONTINUOUS
 62
     7
 10
-183.3957887442846
 20
216.4029117956042
  0
VERTEX
  8
1
  6
CONTINUOUS
 62
     7
 10
-183.3813853043078
 20
216.2972944231211
  0
VERTEX
  8
1
  6
CONTINUOUS
 62
     7
 10
-183.3358091149949
 20
216.2389500910299
  0
SEQEND
  8
1
  6
CONTINUOUS
 62
     7
  0
LINE
  8
1
  6
CONTINUOUS
 62
     7
 10
-183.3358091149949
 20
216.2389500910299
 11
-182.7400050769711
 21
215.7388926322425
  0
LINE
  8
1
  6
CONTINUOUS
 62
     7
 10
-182.713507982206
 20
218.6153922974043
 11
-183.3482574017925
 21
218.0815912554785
  0
POLYLINE
  8
1
  6
CONTINUOUS
 62
     7
 66
     1
  0
VERTEX
  8
1
  6
CONTINUOUS
 62
     7
 10
-183.3482574017925
 20
218.0815912554785
  0
VERTEX
  8
1
  6
CONTINUOUS
 62
     7
 10
-183.3955583824957
 20
217.9906498916869
  0
VERTEX
  8
1
  6
CONTINUOUS
 62
     7
 10
-183.3812756878629
 20
217.884994144727
  0
VERTEX
  8
1
  6
CONTINUOUS
 62
     7
 10
-183.3357534877154
 20
217.826621042385
  0
SEQEND
  8
1
  6
CONTINUOUS
 62
     7
  0
LINE
  8
1
  6
CONTINUOUS
 62
     7
 10
-183.3357534877154
 20
217.826621042385
 11
-182.7400053684949
 21
217.3265596865934
  0
LINE
  8
1
  6
CONTINUOUS
 62
     7
 10
-182.7133711842931
 20
220.2028511559816
 11
-183.3480850646542
 21
219.6690782804627
  0
POLYLINE
  8
1
  6
CONTINUOUS
 62
     7
 66
     1
  0
VERTEX
  8
1
  6
CONTINUOUS
 62
     7
 10
-183.3480850646542
 20
219.6690782804627
  0
VERTEX
  8
1
  6
CONTINUOUS
 62
     7
 10
-183.3953849086584
 20
219.5781742245152
  0
VERTEX
  8
1
  6
CONTINUOUS
 62
     7
 10
-183.3811508298688
 20
219.4725566708683
  0
VERTEX
  8
1
  6
CONTINUOUS
 62
     7
 10
-183.3356862368182
 20
219.4142066229276
  0
SEQEND
  8
1
  6
CONTINUOUS
 62
     7
  0
LINE
  8
1
  6
CONTINUOUS
 62
     7
 10
-183.3356862368182
 20
219.4142066229276
 11
-182.7400051414992
 21
218.9141649267183
  0
LINE
  8
1
  6
CONTINUOUS
 62
     7
 10
-182.7135209309912
 20
221.7901836388531
 11
-183.3481837272781
 21
221.2564076567142
  0
POLYLINE
  8
1
  6
CONTINUOUS
 62
     7
 66
     1
  0
VERTEX
  8
1
  6
CONTINUOUS
 62
     7
 10
-183.348183727278
 20
221.2564076567142
  0
VERTEX
  8
1
  6
CONTINUOUS
 62
     7
 10
-183.3954068809537
 20
221.1655067073867
  0
VERTEX
  8
1
  6
CONTINUOUS
 62
     7
 10
-183.3810959155917
 20
221.0598891537398
  0
VERTEX
  8
1
  6
CONTINUOUS
 62
     7
 10
-183.3355823552501
 20
221.0015415817837
  0
SEQEND
  8
1
  6
CONTINUOUS
 62
     7
  0
LINE
  8
1
  6
CONTINUOUS
 62
     7
 10
-183.3355823552501
 20
221.0015415817837
 11
-182.7400051305537
 21
220.5016215723991
  0
LINE
  8
1
  6
CONTINUOUS
 62
     7
 10
-182.7135113113817
 20
223.3777952706827
 11
-183.3482590786765
 21
222.8439941519323
  0
POLYLINE
  8
1
  6
CONTINUOUS
 62
     7
 66
     1
  0
VERTEX
  8
1
  6
CONTINUOUS
 62
     7
 10
-183.3482590786765
 20
222.8439941519323
  0
VERTEX
  8
1
  6
CONTINUOUS
 62
     7
 10
-183.3955586781818
 20
222.7530528649653
  0
VERTEX
  8
1
  6
CONTINUOUS
 62
     7
 10
-183.3812748960329
 20
222.6473971180054
  0
VERTEX
  8
1
  6
CONTINUOUS
 62
     7
 10
-183.3357516802146
 20
222.5890240778536
  0
SEQEND
  8
1
  6
CONTINUOUS
 62
     7
  0
LINE
  8
1
  6
CONTINUOUS
 62
     7
 10
-183.3357516802146
 20
222.5890240778536
 11
-182.7400053790602
 21
222.088965400697
  0
LINE
  8
1
  6
CONTINUOUS
 62
     7
 10
-182.7135285670791
 20
224.9654456536756
 11
-183.3483188422314
 21
224.4316768240496
  0
POLYLINE
  8
1
  6
CONTINUOUS
 62
     7
 66
     1
  0
VERTEX
  8
1
  6
CONTINUOUS
 62
     7
 10
-183.3483188422314
 20
224.4316768240496
  0
VERTEX
  8
1
  6
CONTINUOUS
 62
     7
 10
-183.3957148297087
 20
224.3407690327755
  0
VERTEX
  8
1
  6
CONTINUOUS
 62
     7
 10
-183.3815698972663
 20
224.2351516602923
  0
VERTEX
  8
1
  6
CONTINUOUS
 62
     7
 10
-183.336157500259
 20
224.1767990740955
  0
SEQEND
  8
1
  6
CONTINUOUS
 62
     7
  0
LINE
  8
1
  6
CONTINUOUS
 62
     7
 10
-183.336157500259
 20
224.1767990740955
 11
-182.74000513919
 21
223.6763349310806
  0
LINE
  8
1
  6
CONTINUOUS
 62
     7
 10
-137.26
 20
225.7353851418028
 11
-137.26
 21
226.0785610486759
  0
LINE
  8
1
  6
CONTINUOUS
 62
     7
 10
-137.26
 20
224.1477782274485
 11
-137.26
 21
224.4717369555489
  0
LINE
  8
1
  6
CONTINUOUS
 62
     7
 10
-137.26
 20
222.5601114411834
 11
-137.26
 21
222.8843472886318
  0
LINE
  8
1
  6
CONTINUOUS
 62
     7
 10
-137.26
 20
220.97253950872
 11
-137.26
 21
221.2970123799812
  0
LINE
  8
1
  6
CONTINUOUS
 62
     7
 10
-137.26
 20
219.3851097174803
 11
-137.26
 21
219.7095825886241
  0
LINE
  8
1
  6
CONTINUOUS
 62
     7
 10
-137.26
 20
217.7977760970131
 11
-137.26
 21
218.1220106561683
  0
LINE
  8
1
  6
CONTINUOUS
 62
     7
 10
-137.26
 20
216.2103851418028
 11
-137.26
 21
216.5343438699032
  0
LINE
  8
1
  6
CONTINUOUS
 62
     7
 10
-137.26
 20
214.0785610486758
 11
-137.26
 21
214.9467369555489
  0
LINE
  8
1
  6
CONTINUOUS
 62
     7
 10
-182.74
 20
215.7406034056593
 11
-182.74
 21
214.0785610486758
  0
LINE
  8
1
  6
CONTINUOUS
 62
     7
 10
-182.74
 20
217.3281799188105
 11
-182.74
 21
217.004081126093
  0
LINE
  8
1
  6
CONTINUOUS
 62
     7
 10
-182.74
 20
218.9157717738526
 11
-182.74
 21
218.591472691563
  0
LINE
  8
1
  6
CONTINUOUS
 62
     7
 10
-182.74
 20
220.5032731884595
 11
-182.74
 21
220.178848909167
  0
LINE
  8
1
  6
CONTINUOUS
 62
     7
 10
-182.74
 20
222.0906495462937
 11
-182.74
 21
221.7663503234991
  0
LINE
  8
1
  6
CONTINUOUS
 62
     7
 10
-182.74
 20
223.6780540082864
 11
-182.74
 21
223.3539421785411
  0
LINE
  8
1
  6
CONTINUOUS
 62
     7
 10
-182.74
 20
226.0785610486759
 11
-182.74
 21
224.9415186916924
  0
POLYLINE
  8
1
  6
CONTINUOUS
 62
     7
 66
     1
  0
VERTEX
  8
1
  6
CONTINUOUS
 62
     7
 10
-139.1485871176883
 20
231.0331065022588
  0
VERTEX
  8
1
  6
CONTINUOUS
 62
     7
 10
-139.1858393659474
 20
231.1692540510852
  0
VERTEX
  8
1
  6
CONTINUOUS
 62
     7
 10
-139.2933437523221
 20
231.2862158799206
  0
SEQEND
  8
1
  6
CONTINUOUS
 62
     7
  0
ARC
  8
1
  6
CONTINUOUS
 62
     7
 10
-165.3795088087049
 20
181.026770222168
 40
56.62596476152465
 50
62.56932883694425
 51
64.22425063375834
  0
POLYLINE
  8
1
  6
CONTINUOUS
 62
     7
 66
     1
  0
VERTEX
  8
1
  6
CONTINUOUS
 62
     7
 10
-140.5848015495639
 20
232.3938954956358
  0
VERTEX
  8
1
  6
CONTINUOUS
 62
     7
 10
-139.8858566902828
 20
232.758063559333
  0
VERTEX
  8
1
  6
CONTINUOUS
 62
     7
 10
-139.5197270942934
 20
232.9489081875534
  0
VERTEX
  8
1
  6
CONTINUOUS
 62
     7
 10
-139.3325099837747
 20
233.0465206507565
  0
VERTEX
  8
1
  6
CONTINUOUS
 62
     7
 10
-139.3295627822425
 20
233.0480574307553
  0
VERTEX
  8
1
  6
CONTINUOUS
 62
     7
 10
-139.3288258764583
 20
233.0484416814534
  0
VERTEX
  8
1
  6
CONTINUOUS
 62
     7
 10
-139.3284574077562
 20
233.0486338151572
  0
VERTEX
  8
1
  6
CONTINUOUS
 62
     7
 10
-139.3283652889338
 20
233.0486818494535
  0
VERTEX
  8
1
  6
CONTINUOUS
 62
     7
 10
-139.3283422591253
 20
233.0486938580819
  0
VERTEX
  8
1
  6
CONTINUOUS
 62
     7
 10
-139.3283307442055
 20
233.0486998624043
  0
VERTEX
  8
1
  6
CONTINUOUS
 62
     7
 10
-139.3283250820302
 20
233.0487028148805
  0
VERTEX
  8
1
  6
CONTINUOUS
 62
     7
 10
-139.3283215465021
 20
233.0487046590646
  0
VERTEX
  8
1
  6
CONTINUOUS
 62
     7
 10
-139.3283206238075
 20
233.0487051449892
  0
VERTEX
  8
1
  6
CONTINUOUS
 62
     7
 10
-139.3283189761409
 20
233.0487060127197
  0
VERTEX
  8
1
  6
CONTINUOUS
 62
     7
 10
-139.3283160338868
 20
233.0487075622635
  0
VERTEX
  8
1
  6
CONTINUOUS
 62
     7
 10
-139.3071819002447
 20
233.0608351082747
  0
VERTEX
  8
1
  6
CONTINUOUS
 62
     7
 10
-139.2883876134261
 20
233.0734257102263
  0
VERTEX
  8
1
  6
CONTINUOUS
 62
     7
 10
-139.2702569687357
 20
233.0874048404818
  0
VERTEX
  8
1
  6
CONTINUOUS
 62
     7
 10
-139.2529049236158
 20
233.1027462293833
  0
VERTEX
  8
1
  6
CONTINUOUS
 62
     7
 10
-139.2364529710451
 20
233.1194185605319
  0
VERTEX
  8
1
  6
CONTINUOUS
 62
     7
 10
-139.2210293298548
 20
233.1373852908782
  0
VERTEX
  8
1
  6
CONTINUOUS
 62
     7
 10
-139.2070127673269
 20
233.1562505531217
  0
VERTEX
  8
1
  6
CONTINUOUS
 62
     7
 10
-139.1942529830806
 20
233.1762788493472
  0
VERTEX
  8
1
  6
CONTINUOUS
 62
     7
 10
-139.1828727834664
 20
233.1974084662144
  0
VERTEX
  8
1
  6
CONTINUOUS
 62
     7
 10
-139.1729653782635
 20
233.219549948429
  0
VERTEX
  8
1
  6
CONTINUOUS
 62
     7
 10
-139.16531454456
 20
233.2404727348659
  0
VERTEX
  8
1
  6
CONTINUOUS
 62
     7
 10
-139.1590291798157
 20
233.2620682030581
  0
VERTEX
  8
1
  6
CONTINUOUS
 62
     7
 10
-139.1541641628669
 20
233.2843538242242
  0
VERTEX
  8
1
  6
CONTINUOUS
 62
     7
 10
-139.1507339912504
 20
233.3080079457136
  0
VERTEX
  8
1
  6
CONTINUOUS
 62
     7
 10
-139.1490096191381
 20
233.3330963391901
  0
VERTEX
  8
1
  6
CONTINUOUS
 62
     7
 10
-139.1491146127961
 20
233.3550114460619
  0
VERTEX
  8
1
  6
CONTINUOUS
 62
     7
 10
-139.1508094993476
 20
233.3777435060597
  0
VERTEX
  8
1
  6
CONTINUOUS
 62
     7
 10
-139.1542511464188
 20
233.4011746600023
  0
VERTEX
  8
1
  6
CONTINUOUS
 62
     7
 10
-139.1595960055787
 20
233.4251612424584
  0
VERTEX
  8
1
  6
CONTINUOUS
 62
     7
 10
-139.16699990717
 20
233.4495313722062
  0
VERTEX
  8
1
  6
CONTINUOUS
 62
     7
 10
-139.1766173497881
 20
233.4740824533924
  0
VERTEX
  8
1
  6
CONTINUOUS
 62
     7
 10
-139.1867382864334
 20
233.4950924016889
  0
VERTEX
  8
1
  6
CONTINUOUS
 62
     7
 10
-139.1986918421216
 20
233.5158931216236
  0
VERTEX
  8
1
  6
CONTINUOUS
 62
     7
 10
-139.2125536841772
 20
233.5363046382062
  0
VERTEX
  8
1
  6
CONTINUOUS
 62
     7
 10
-139.228353594315
 20
233.5561514400975
  0
VERTEX
  8
1
  6
CONTINUOUS
 62
     7
 10
-139.2461032668522
 20
233.5752440313148
  0
VERTEX
  8
1
  6
CONTINUOUS
 62
     7
 10
-139.2658004726156
 20
233.5933747838239
  0
VERTEX
  8
1
  6
CONTINUOUS
 62
     7
 10
-139.2874279805956
 20
233.6103169304574
  0
VERTEX
  8
1
  6
CONTINUOUS
 62
     7
 10
-139.3079097109298
 20
233.6239726696151
  0
VERTEX
  8
1
  6
CONTINUOUS
 62
     7
 10
-139.3186853722118
 20
233.6303331511287
  0
VERTEX
  8
1
  6
CONTINUOUS
 62
     7
 10
-139.3242047686941
 20
233.6333863775166
  0
VERTEX
  8
1
  6
CONTINUOUS
 62
     7
 10
-139.3255982064553
 20
233.6341359460072
  0
VERTEX
  8
1
  6
CONTINUOUS
 62
     7
 10
-139.326296955871
 20
233.6345086368617
  0
VERTEX
  8
1
  6
CONTINUOUS
 62
     7
 10
-139.3266468375819
 20
233.634694456326
  0
VERTEX
  8
1
  6
CONTINUOUS
 62
     7
 10
-139.3266905965483
 20
233.6347176590497
  0
VERTEX
  8
1
  6
CONTINUOUS
 62
     7
 10
-139.3267124780104
 20
233.6347292583507
  0
VERTEX
  8
1
  6
CONTINUOUS
 62
     7
 10
-139.3267179485821
 20
233.6347321579613
  0
VERTEX
  8
1
  6
CONTINUOUS
 62
     7
 10
-139.3267194803569
 20
233.6347329698368
  0
VERTEX
  8
1
  6
CONTINUOUS
 62
     7
 10
-139.3267268175961
 20
233.6347368016465
  0
VERTEX
  8
1
  6
CONTINUOUS
 62
     7
 10
-139.7479528235035
 20
233.854468742355
  0
VERTEX
  8
1
  6
CONTINUOUS
 62
     7
 10
-140.5219382906464
 20
234.2579170755065
  0
SEQEND
  8
1
  6
CONTINUOUS
 62
     7
  0
LINE
  8
1
  6
CONTINUOUS
 62
     7
 10
-140.5854863694207
 20
234.7027036588055
 11
-139.3037411316205
 21
235.3722750336153
  0
POLYLINE
  8
1
  6
CONTINUOUS
 62
     7
 66
     1
  0
VERTEX
  8
1
  6
CONTINUOUS
 62
     7
 10
-139.3037411316205
 20
235.3722750336153
  0
VERTEX
  8
1
  6
CONTINUOUS
 62
     7
 10
-139.2857447288531
 20
235.3846148268223
  0
VERTEX
  8
1
  6
CONTINUOUS
 62
     7
 10
-139.2674676355163
 20
235.3990034692919
  0
VERTEX
  8
1
  6
CONTINUOUS
 62
     7
 10
-139.2500003731074
 20
235.414800696326
  0
VERTEX
  8
1
  6
CONTINUOUS
 62
     7
 10
-139.2334733449785
 20
235.4319771450777
  0
VERTEX
  8
1
  6
CONTINUOUS
 62
     7
 10
-139.2180247767605
 20
235.4504974223307
  0
VERTEX
  8
1
  6
CONTINUOUS
 62
     7
 10
-139.2038009635524
 20
235.4703198703451
  0
VERTEX
  8
1
  6
CONTINUOUS
 62
     7
 10
-139.1909551349541
 20
235.4913954888771
  0
VERTEX
  8
1
  6
CONTINUOUS
 62
     7
 10
-139.1796178184138
 20
235.5136495556549
  0
VERTEX
  8
1
  6
CONTINUOUS
 62
     7
 10
-139.1698947385981
 20
235.5369799539724
  0
VERTEX
  8
1
  6
CONTINUOUS
 62
     7
 10
-139.1618942749907
 20
235.5612734319122
  0
VERTEX
  8
1
  6
CONTINUOUS
 62
     7
 10
-139.1557287758076
 20
235.5864059896496
  0
VERTEX
  8
1
  6
CONTINUOUS
 62
     7
 10
-139.1515146536077
 20
235.6122425222754
  0
VERTEX
  8
1
  6
CONTINUOUS
 62
     7
 10
-139.1493724817981
 20
235.6386364580701
  0
VERTEX
  8
1
  6
CONTINUOUS
 62
     7
 10
-139.1494246001382
 20
235.6654293922265
  0
VERTEX
  8
1
  6
CONTINUOUS
 62
     7
 10
-139.1517483696816
 20
235.6924507160234
  0
VERTEX
  8
1
  6
CONTINUOUS
 62
     7
 10
-139.1563765233626
 20
235.7195172414488
  0
VERTEX
  8
1
  6
CONTINUOUS
 62
     7
 10
-139.1620142509804
 20
235.7419660961855
  0
VERTEX
  8
1
  6
CONTINUOUS
 62
     7
 10
-139.169287090457
 20
235.7641897910135
  0
VERTEX
  8
1
  6
CONTINUOUS
 62
     7
 10
-139.1782086562516
 20
235.7860611623013
  0
VERTEX
  8
1
  6
CONTINUOUS
 62
     7
 10
-139.1887911231044
 20
235.8074462975898
  0
VERTEX
  8
1
  6
CONTINUOUS
 62
     7
 10
-139.2010448119727
 20
235.8282045999819
  0
VERTEX
  8
1
  6
CONTINUOUS
 62
     7
 10
-139.2149562119114
 20
235.8482019376199
  0
VERTEX
  8
1
  6
CONTINUOUS
 62
     7
 10
-139.2304740279011
 20
235.8673189222714
  0
VERTEX
  8
1
  6
CONTINUOUS
 62
     7
 10
-139.2475390543492
 20
235.8854325897523
  0
VERTEX
  8
1
  6
CONTINUOUS
 62
     7
 10
-139.2660869237275
 20
235.9024145393262
  0
VERTEX
  8
1
  6
CONTINUOUS
 62
     7
 10
-139.2809292423493
 20
235.9143279411068
  0
VERTEX
  8
1
  6
CONTINUOUS
 62
     7
 10
-139.2965352130973
 20
235.9254709161253
  0
VERTEX
  8
1
  6
CONTINUOUS
 62
     7
 10
-139.3128717159964
 20
235.9357830386572
  0
VERTEX
  8
1
  6
CONTINUOUS
 62
     7
 10
-139.3213030831378
 20
235.9406081413698
  0
VERTEX
  8
1
  6
CONTINUOUS
 62
     7
 10
-139.32558258232
 20
235.9429344896679
  0
VERTEX
  8
1
  6
CONTINUOUS
 62
     7
 10
-139.3261204690676
 20
235.9432211689982
  0
VERTEX
  8
1
  6
CONTINUOUS
 62
     7
 10
-139.3263896568773
 20
235.9433641634734
  0
VERTEX
  8
1
  6
CONTINUOUS
 62
     7
 10
-139.326524311829
 20
235.9434355743056
  0
VERTEX
  8
1
  6
CONTINUOUS
 62
     7
 10
-139.3265579819229
 20
235.9434534180078
  0
VERTEX
  8
1
  6
CONTINUOUS
 62
     7
 10
-139.3265748179231
 20
235.9434623385078
  0
VERTEX
  8
1
  6
CONTINUOUS
 62
     7
 10
-139.326579532117
 20
235.9434648360863
  0
VERTEX
  8
1
  6
CONTINUOUS
 62
     7
 10
-139.3265808530178
 20
235.9434655344365
  0
VERTEX
  8
1
  6
CONTINUOUS
 62
     7
 10
-139.3265887515363
 20
235.9434696555694
  0
VERTEX
  8
1
  6
CONTINUOUS
 62
     7
 10
-139.3266028560406
 20
235.943477014739
  0
VERTEX
  8
1
  6
CONTINUOUS
 62
     7
 10
-139.355252940735
 20
235.9584252580942
  0
VERTEX
  8
1
  6
CONTINUOUS
 62
     7
 10
-140.5225407195176
 20
236.5671019814967
  0
SEQEND
  8
1
  6
CONTINUOUS
 62
     7
  0
LINE
  8
1
  6
CONTINUOUS
 62
     7
 10
-140.582577459256
 20
237.0132766516545
 11
-139.3024393236056
 21
237.6823968166039
  0
POLYLINE
  8
1
  6
CONTINUOUS
 62
     7
 66
     1
  0
VERTEX
  8
1
  6
CONTINUOUS
 62
     7
 10
-139.3024393236056
 20
237.6823968166038
  0
VERTEX
  8
1
  6
CONTINUOUS
 62
     7
 10
-139.2842320443334
 20
237.6949386335621
  0
VERTEX
  8
1
  6
CONTINUOUS
 62
     7
 10
-139.2660880496481
 20
237.7093114942447
  0
VERTEX
  8
1
  6
CONTINUOUS
 62
     7
 10
-139.2487511415693
 20
237.7250946007325
  0
VERTEX
  8
1
  6
CONTINUOUS
 62
     7
 10
-139.2323521106949
 20
237.7422585901786
  0
VERTEX
  8
1
  6
CONTINUOUS
 62
     7
 10
-139.2170295788829
 20
237.7607680693667
  0
VERTEX
  8
1
  6
CONTINUOUS
 62
     7
 10
-139.2029302462029
 20
237.7805813805569
  0
VERTEX
  8
1
  6
CONTINUOUS
 62
     7
 10
-139.190207755621
 20
237.8016495235055
  0
VERTEX
  8
1
  6
CONTINUOUS
 62
     7
 10
-139.1789930551245
 20
237.8238977759406
  0
VERTEX
  8
1
  6
CONTINUOUS
 62
     7
 10
-139.169392297513
 20
237.8472240211561
  0
VERTEX
  8
1
  6
CONTINUOUS
 62
     7
 10
-139.1615142989542
 20
237.8715150072346
  0
VERTEX
  8
1
  6
CONTINUOUS
 62
     7
 10
-139.1554718525014
 20
237.8966467343513
  0
VERTEX
  8
1
  6
CONTINUOUS
 62
     7
 10
-139.1513818231909
 20
237.9224840975972
  0
VERTEX
  8
1
  6
CONTINUOUS
 62
     7
 10
-139.1493652439657
 20
237.9488805252527
  0
VERTEX
  8
1
  6
CONTINUOUS
 62
     7
 10
-139.149544920536
 20
237.9756776125107
  0
VERTEX
  8
1
  6
CONTINUOUS
 62
     7
 10
-139.1519986862249
 20
238.0027047506499
  0
VERTEX
  8
1
  6
CONTINUOUS
 62
     7
 10
-139.1567597533032
 20
238.0297787516583
  0
VERTEX
  8
1
  6
CONTINUOUS
 62
     7
 10
-139.1625108211035
 20
238.0522351050507
  0
VERTEX
  8
1
  6
CONTINUOUS
 62
     7
 10
-139.169899648863
 20
238.0744674521739
  0
VERTEX
  8
1
  6
CONTINUOUS
 62
     7
 10
-139.1789401385662
 20
238.0963486293963
  0
VERTEX
  8
1
  6
CONTINUOUS
 62
     7
 10
-139.1896447550536
 20
238.1177447242587
  0
VERTEX
  8
1
  6
CONTINUOUS
 62
     7
 10
-139.2020241117381
 20
238.1385151398641
  0
VERTEX
  8
1
  6
CONTINUOUS
 62
     7
 10
-139.2160649934251
 20
238.1585257443548
  0
VERTEX
  8
1
  6
CONTINUOUS
 62
     7
 10
-139.2317164054527
 20
238.1776571494983
  0
VERTEX
  8
1
  6
CONTINUOUS
 62
     7
 10
-139.2489194462213
 20
238.1957863911107
  0
VERTEX
  8
1
  6
CONTINUOUS
 62
     7
 10
-139.2676100557458
 20
238.2127850684555
  0
VERTEX
  8
1
  6
CONTINUOUS
 62
     7
 10
-139.282562717846
 20
238.22471177314
  0
VERTEX
  8
1
  6
CONTINUOUS
 62
     7
 10
-139.2982819979471
 20
238.2358686999847
  0
VERTEX
  8
1
  6
CONTINUOUS
 62
     7
 10
-139.3147349099349
 20
238.2461954232649
  0
VERTEX
  8
1
  6
CONTINUOUS
 62
     7
 10
-139.3232256861969
 20
238.2510280696974
  0
VERTEX
  8
1
  6
CONTINUOUS
 62
     7
 10
-139.3275351985129
 20
238.253358250692
  0
VERTEX
  8
1
  6
CONTINUOUS
 62
     7
 10
-139.3280768515228
 20
238.253645411961
  0
VERTEX
  8
1
  6
CONTINUOUS
 62
     7
 10
-139.3283479236869
 20
238.2537886476433
  0
VERTEX
  8
1
  6
CONTINUOUS
 62
     7
 10
-139.3284835211219
 20
238.2538601791384
  0
VERTEX
  8
1
  6
CONTINUOUS
 62
     7
 10
-139.3285174268686
 20
238.2538780530126
  0
VERTEX
  8
1
  6
CONTINUOUS
 62
     7
 10
-139.3285343806999
 20
238.2538869885994
  0
VERTEX
  8
1
  6
CONTINUOUS
 62
     7
 10
-139.3285391278871
 20
238.2538894904024
  0
VERTEX
  8
1
  6
CONTINUOUS
 62
     7
 10
-139.3285404569024
 20
238.2538901897934
  0
VERTEX
  8
1
  6
CONTINUOUS
 62
     7
 10
-139.3285483611462
 20
238.2538943117442
  0
VERTEX
  8
1
  6
CONTINUOUS
 62
     7
 10
-139.3285624758743
 20
238.2539016723743
  0
VERTEX
  8
1
  6
CONTINUOUS
 62
     7
 10
-139.3572333468871
 20
238.2688528923724
  0
VERTEX
  8
1
  6
CONTINUOUS
 62
     7
 10
-140.5224701175582
 20
238.8761396684408
  0
SEQEND
  8
1
  6
CONTINUOUS
 62
     7
  0
POLYLINE
  8
1
  6
CONTINUOUS
 62
     7
 66
     1
  0
VERTEX
  8
1
  6
CONTINUOUS
 62
     7
 10
-140.5838473674207
 20
239.3214950973447
  0
VERTEX
  8
1
  6
CONTINUOUS
 62
     7
 10
-139.7479524602548
 20
239.7571989988307
  0
VERTEX
  8
1
  6
CONTINUOUS
 62
     7
 10
-139.353259366083
 20
239.9630864301031
  0
VERTEX
  8
1
  6
CONTINUOUS
 62
     7
 10
-139.3291055205522
 20
239.9756895549339
  0
VERTEX
  8
1
  6
CONTINUOUS
 62
     7
 10
-139.327597914392
 20
239.976476215706
  0
VERTEX
  8
1
  6
CONTINUOUS
 62
     7
 10
-139.3268441999511
 20
239.9768695004511
  0
VERTEX
  8
1
  6
CONTINUOUS
 62
     7
 10
-139.3267499898009
 20
239.9769186589048
  0
VERTEX
  8
1
  6
CONTINUOUS
 62
     7
 10
-139.3267264374076
 20
239.9769309484439
  0
VERTEX
  8
1
  6
CONTINUOUS
 62
     7
 10
-139.3267191993455
 20
239.9769347308211
  0
VERTEX
  8
1
  6
CONTINUOUS
 62
     7
 10
-139.3267180670577
 20
239.9769353309598
  0
VERTEX
  8
1
  6
CONTINUOUS
 62
     7
 10
-139.326716045124
 20
239.9769364026453
  0
VERTEX
  8
1
  6
CONTINUOUS
 62
     7
 10
-139.3267124345561
 20
239.9769383163984
  0
VERTEX
  8
1
  6
CONTINUOUS
 62
     7
 10
-139.3028157621838
 20
239.990893078861
  0
VERTEX
  8
1
  6
CONTINUOUS
 62
     7
 10
-139.2806617447891
 20
240.0063525281537
  0
VERTEX
  8
1
  6
CONTINUOUS
 62
     7
 10
-139.2602909372688
 20
240.0230808017678
  0
VERTEX
  8
1
  6
CONTINUOUS
 62
     7
 10
-139.241729156423
 20
240.0408602789096
  0
VERTEX
  8
1
  6
CONTINUOUS
 62
     7
 10
-139.2249884274941
 20
240.0594906948268
  0
VERTEX
  8
1
  6
CONTINUOUS
 62
     7
 10
-139.2103184433288
 20
240.0784388219618
  0
VERTEX
  8
1
  6
CONTINUOUS
 62
     7
 10
-139.1973922429308
 20
240.0978710487218
  0
VERTEX
  8
1
  6
CONTINUOUS
 62
     7
 10
-139.1861812349592
 20
240.1176379899032
  0
VERTEX
  8
1
  6
CONTINUOUS
 62
     7
 10
-139.1766173289599
 20
240.1375851459772
  0
VERTEX
  8
1
  6
CONTINUOUS
 62
     7
 10
-139.1669998903742
 20
240.1621362281567
  0
VERTEX
  8
1
  6
CONTINUOUS
 62
     7
 10
-139.1595959927516
 20
240.1865063583071
  0
VERTEX
  8
1
  6
CONTINUOUS
 62
     7
 10
-139.1542511374405
 20
240.2104929406053
  0
VERTEX
  8
1
  6
CONTINUOUS
 62
     7
 10
-139.1508094940442
 20
240.2339240938651
  0
VERTEX
  8
1
  6
CONTINUOUS
 62
     7
 10
-139.1491146109424
 20
240.2566561526948
  0
VERTEX
  8
1
  6
CONTINUOUS
 62
     7
 10
-139.1490096204527
 20
240.2785712579554
  0
VERTEX
  8
1
  6
CONTINUOUS
 62
     7
 10
-139.1507339958403
 20
240.3036596489753
  0
VERTEX
  8
1
  6
CONTINUOUS
 62
     7
 10
-139.1541641701035
 20
240.3273137675109
  0
VERTEX
  8
1
  6
CONTINUOUS
 62
     7
 10
-139.1590291892292
 20
240.349599385934
  0
VERTEX
  8
1
  6
CONTINUOUS
 62
     7
 10
-139.1653145559511
 20
240.3711948518612
  0
VERTEX
  8
1
  6
CONTINUOUS
 62
     7
 10
-139.1729653914115
 20
240.3921176361012
  0
VERTEX
  8
1
  6
CONTINUOUS
 62
     7
 10
-139.1830668412706
 20
240.4146526122398
  0
VERTEX
  8
1
  6
CONTINUOUS
 62
     7
 10
-139.1946934223237
 20
240.4361368162058
  0
VERTEX
  8
1
  6
CONTINUOUS
 62
     7
 10
-139.2077461650015
 20
240.456476461821
  0
VERTEX
  8
1
  6
CONTINUOUS
 62
     7
 10
-139.222094094734
 20
240.4756076864206
  0
VERTEX
  8
1
  6
CONTINUOUS
 62
     7
 10
-139.2375955864977
 20
240.493483283984
  0
VERTEX
  8
1
  6
CONTINUOUS
 62
     7
 10
-139.2538128114987
 20
240.5097772445118
  0
VERTEX
  8
1
  6
CONTINUOUS
 62
     7
 10
-139.2708918097898
 20
240.5247856127448
  0
VERTEX
  8
1
  6
CONTINUOUS
 62
     7
 10
-139.2887177624865
 20
240.5384789379605
  0
VERTEX
  8
1
  6
CONTINUOUS
 62
     7
 10
-139.3071819254664
 20
240.5508324592825
  0
VERTEX
  8
1
  6
CONTINUOUS
 62
     7
 10
-139.3179177940946
 20
240.5572467162794
  0
VERTEX
  8
1
  6
CONTINUOUS
 62
     7
 10
-139.3233448430597
 20
240.5602881873654
  0
VERTEX
  8
1
  6
CONTINUOUS
 62
     7
 10
-139.326072178144
 20
240.5617673540283
  0
VERTEX
  8
1
  6
CONTINUOUS
 62
     7
 10
-139.327439179204
 20
240.5624965272455
  0
VERTEX
  8
1
  6
CONTINUOUS
 62
     7
 10
-139.3281234983384
 20
240.5628585091768
  0
VERTEX
  8
1
  6
CONTINUOUS
 62
     7
 10
-139.3282946626814
 20
240.5629487332372
  0
VERTEX
  8
1
  6
CONTINUOUS
 62
     7
 10
-139.3283160605947
 20
240.5629600036099
  0
VERTEX
  8
1
  6
CONTINUOUS
 62
     7
 10
-139.3283214101552
 20
240.5629628209379
  0
VERTEX
  8
1
  6
CONTINUOUS
 62
     7
 10
-139.328325912322
 20
240.5629651698699
  0
VERTEX
  8
1
  6
CONTINUOUS
 62
     7
 10
-139.3283309788901
 20
240.5629678117735
  0
VERTEX
  8
1
  6
CONTINUOUS
 62
     7
 10
-139.8858569491891
 20
240.8536041274363
  0
VERTEX
  8
1
  6
CONTINUOUS
 62
     7
 10
-140.5257676420041
 20
241.1870206302297
  0
SEQEND
  8
1
  6
CONTINUOUS
 62
     7
  0
LINE
  8
1
  6
CONTINUOUS
 62
     7
 10
-140.755707861552
 20
241.593051797958
 11
-139.3959753351244
 21
242.2673416456764
  0
POLYLINE
  8
1
  6
CONTINUOUS
 62
     7
 66
     1
  0
VERTEX
  8
1
  6
CONTINUOUS
 62
     7
 10
-139.3959753351243
 20
242.2673416456764
  0
VERTEX
  8
1
  6
CONTINUOUS
 62
     7
 10
-139.2933437384717
 20
242.3254516855218
  0
VERTEX
  8
1
  6
CONTINUOUS
 62
     7
 10
-139.1858393625746
 20
242.4424135088209
  0
VERTEX
  8
1
  6
CONTINUOUS
 62
     7
 10
-139.1485871176883
 20
242.5785610477134
  0
SEQEND
  8
1
  6
CONTINUOUS
 62
     7
  0
LINE
  8
1
  6
CONTINUOUS
 62
     7
 10
-179.417385048925
 20
242.3712218325638
 11
-180.6977608600312
 21
241.702073806833
  0
POLYLINE
  8
1
  6
CONTINUOUS
 62
     7
 66
     1
  0
VERTEX
  8
1
  6
CONTINUOUS
 62
     7
 10
-180.6977608600312
 20
241.702073806833
  0
VERTEX
  8
1
  6
CONTINUOUS
 62
     7
 10
-180.7159690553742
 20
241.6895446066587
  0
VERTEX
  8
1
  6
CONTINUOUS
 62
     7
 10
-180.7341367584708
 20
241.6751700601836
  0
VERTEX
  8
1
  6
CONTINUOUS
 62
     7
 10
-180.751497168906
 20
241.6593852354604
  0
VERTEX
  8
1
  6
CONTINUOUS
 62
     7
 10
-180.767919453301
 20
241.6422194953302
  0
VERTEX
  8
1
  6
CONTINUOUS
 62
     7
 10
-180.783264944885
 20
241.6237082330033
  0
VERTEX
  8
1
  6
CONTINUOUS
 62
     7
 10
-180.7973868964951
 20
241.6038931062136
  0
VERTEX
  8
1
  6
CONTINUOUS
 62
     7
 10
-180.8101316158578
 20
241.5828231151903
  0
VERTEX
  8
1
  6
CONTINUOUS
 62
     7
 10
-180.8213681039009
 20
241.56057298215
  0
VERTEX
  8
1
  6
CONTINUOUS
 62
     7
 10
-180.8309901552684
 20
241.5372448237822
  0
VERTEX
  8
1
  6
CONTINUOUS
 62
     7
 10
-180.8388888993265
 20
241.5129518919952
  0
VERTEX
  8
1
  6
CONTINUOUS
 62
     7
 10
-180.8449514866161
 20
241.4878181866048
  0
VERTEX
  8
1
  6
CONTINUOUS
 62
     7
 10
-180.8490609937643
 20
241.4619788125107
  0
VERTEX
  8
1
  6
CONTINUOUS
 62
     7
 10
-180.8510963275777
 20
241.4355803414233
  0
VERTEX
  8
1
  6
CONTINUOUS
 62
     7
 10
-180.8509346202429
 20
241.4087811781402
  0
VERTEX
  8
1
  6
CONTINUOUS
 62
     7
 10
-180.8484979755727
 20
241.3817519313731
  0
VERTEX
  8
1
  6
CONTINUOUS
 62
     7
 10
-180.8437531180858
 20
241.3546757891244
  0
VERTEX
  8
1
  6
CONTINUOUS
 62
     7
 10
-180.838014815598
 20
241.3322176264457
  0
VERTEX
  8
1
  6
CONTINUOUS
 62
     7
 10
-180.8306380375459
 20
241.3099834473761
  0
VERTEX
  8
1
  6
CONTINUOUS
 62
     7
 10
-180.8216088434323
 20
241.2881004155415
  0
VERTEX
  8
1
  6
CONTINUOUS
 62
     7
 10
-180.8109147293569
 20
241.2667024433951
  0
VERTEX
  8
1
  6
CONTINUOUS
 62
     7
 10
-180.7985450423278
 20
241.2459301278316
  0
VERTEX
  8
1
  6
CONTINUOUS
 62
     7
 10
-180.7845129580127
 20
241.2259176007478
  0
VERTEX
  8
1
  6
CONTINUOUS
 62
     7
 10
-180.7688694321787
 20
241.2067842503854
  0
VERTEX
  8
1
  6
CONTINUOUS
 62
     7
 10
-180.7516733273611
 20
241.1886530409242
  0
VERTEX
  8
1
  6
CONTINUOUS
 62
     7
 10
-180.7329886642171
 20
241.1716523730962
  0
VERTEX
  8
1
  6
CONTINUOUS
 62
     7
 10
-180.7180397886896
 20
241.1597241606929
  0
VERTEX
  8
1
  6
CONTINUOUS
 62
     7
 10
-180.7023236994623
 20
241.1485657133932
  0
VERTEX
  8
1
  6
CONTINUOUS
 62
     7
 10
-180.6858733657613
 20
241.13823745692
  0
VERTEX
  8
1
  6
CONTINUOUS
 62
     7
 10
-180.6773836436209
 20
241.1334040391137
  0
VERTEX
  8
1
  6
CONTINUOUS
 62
     7
 10
-180.6730745986789
 20
241.1310734712377
  0
VERTEX
  8
1
  6
CONTINUOUS
 62
     7
 10
-180.6725330012734
 20
241.1307862615525
  0
VERTEX
  8
1
  6
CONTINUOUS
 62
     7
 10
-180.6722619566761
 20
241.1306430016575
  0
VERTEX
  8
1
  6
CONTINUOUS
 62
     7
 10
-180.6721263729656
 20
241.1305714580548
  0
VERTEX
  8
1
  6
CONTINUOUS
 62
     7
 10
-180.672092470644
 20
241.1305535811537
  0
VERTEX
  8
1
  6
CONTINUOUS
 62
     7
 10
-180.6720755185242
 20
241.1305446440533
  0
VERTEX
  8
1
  6
CONTINUOUS
 62
     7
 10
-180.6720707718161
 20
241.1305421418265
  0
VERTEX
  8
1
  6
CONTINUOUS
 62
     7
 10
-180.6720696022196
 20
241.1305415252887
  0
VERTEX
  8
1
  6
CONTINUOUS
 62
     7
 10
-180.67206182205
 20
241.1305374679261
  0
VERTEX
  8
1
  6
CONTINUOUS
 62
     7
 10
-180.6720477071194
 20
241.1305301071498
  0
VERTEX
  8
1
  6
CONTINUOUS
 62
     7
 10
-180.6433764124932
 20
241.1155785899237
  0
VERTEX
  8
1
  6
CONTINUOUS
 62
     7
 10
-179.4775174428573
 20
240.507975004356
  0
SEQEND
  8
1
  6
CONTINUOUS
 62
     7
  0
ARC
  8
1
  6
CONTINUOUS
 62
     7
 10
855.1327823530737
 20
-1745.929501290125
 40
2239.298197943817
 50
117.5160220055611
 51
117.5518650617857
  0
POLYLINE
  8
1
  6
CONTINUOUS
 62
     7
 66
     1
  0
VERTEX
  8
1
  6
CONTINUOUS
 62
     7
 10
-180.6576455048862
 20
239.4154583761419
  0
VERTEX
  8
1
  6
CONTINUOUS
 62
     7
 10
-180.7515026579188
 20
239.3500217561551
  0
VERTEX
  8
1
  6
CONTINUOUS
 62
     7
 10
-180.8155864044767
 20
239.2628107946177
  0
VERTEX
  8
1
  6
CONTINUOUS
 62
     7
 10
-180.8481160620168
 20
239.1578885291081
  0
VERTEX
  8
1
  6
CONTINUOUS
 62
     7
 10
-180.8458028791765
 20
239.0573746977188
  0
VERTEX
  8
1
  6
CONTINUOUS
 62
     7
 10
-180.8093162032113
 20
238.9552418647735
  0
VERTEX
  8
1
  6
CONTINUOUS
 62
     7
 10
-180.7347726197126
 20
238.8643168088259
  0
VERTEX
  8
1
  6
CONTINUOUS
 62
     7
 10
-180.5785433486772
 20
238.7728433508815
  0
VERTEX
  8
1
  6
CONTINUOUS
 62
     7
 10
-179.4698894465019
 20
238.1950146640308
  0
SEQEND
  8
1
  6
CONTINUOUS
 62
     7
  0
LINE
  8
1
  6
CONTINUOUS
 62
     7
 10
-179.4148081465275
 20
237.7542947791893
 11
-180.6970529021866
 21
237.084305281661
  0
POLYLINE
  8
1
  6
CONTINUOUS
 62
     7
 66
     1
  0
VERTEX
  8
1
  6
CONTINUOUS
 62
     7
 10
-180.6970529021866
 20
237.084305281661
  0
VERTEX
  8
1
  6
CONTINUOUS
 62
     7
 10
-180.7146226926399
 20
237.0722174745116
  0
VERTEX
  8
1
  6
CONTINUOUS
 62
     7
 10
-180.7328935158639
 20
237.057807005652
  0
VERTEX
  8
1
  6
CONTINUOUS
 62
     7
 10
-180.7503510764798
 20
237.0419870013612
  0
VERTEX
  8
1
  6
CONTINUOUS
 62
     7
 10
-180.7668646330993
 20
237.0247868244801
  0
VERTEX
  8
1
  6
CONTINUOUS
 62
     7
 10
-180.7822956167757
 20
237.0062418682193
  0
VERTEX
  8
1
  6
CONTINUOUS
 62
     7
 10
-180.7964973842331
 20
236.9863937903125
  0
VERTEX
  8
1
  6
CONTINUOUS
 62
     7
 10
-180.80931635333
 20
236.965291590989
  0
VERTEX
  8
1
  6
CONTINUOUS
 62
     7
 10
-180.8206216405649
 20
236.9430099924654
  0
VERTEX
  8
1
  6
CONTINUOUS
 62
     7
 10
-180.8303071622369
 20
236.919651111431
  0
VERTEX
  8
1
  6
CONTINUOUS
 62
     7
 10
-180.8382641769053
 20
236.8953281997944
  0
VERTEX
  8
1
  6
CONTINUOUS
 62
     7
 10
-180.8443799720414
 20
236.8701652573712
  0
VERTEX
  8
1
  6
CONTINUOUS
 62
     7
 10
-180.848537769076
 20
236.8442973890612
  0
VERTEX
  8
1
  6
CONTINUOUS
 62
     7
 10
-180.8506166276206
 20
236.8178711665747
  0
VERTEX
  8
1
  6
CONTINUOUS
 62
     7
 10
-180.8504938407276
 20
236.7910449947095
  0
VERTEX
  8
1
  6
CONTINUOUS
 62
     7
 10
-180.8480916803442
 20
236.763989482177
  0
VERTEX
  8
1
  6
CONTINUOUS
 62
     7
 10
-180.8433770468299
 20
236.7368878169798
  0
VERTEX
  8
1
  6
CONTINUOUS
 62
     7
 10
-180.8363210813424
 20
236.7099361463376
  0
VERTEX
  8
1
  6
CONTINUOUS
 62
     7
 10
-180.8268977250075
 20
236.6833439611644
  0
VERTEX
  8
1
  6
CONTINUOUS
 62
     7
 10
-180.8150838309447
 20
236.6573344850952
  0
VERTEX
  8
1
  6
CONTINUOUS
 62
     7
 10
-180.8008593012646
 20
236.632145053622
  0
VERTEX
  8
1
  6
CONTINUOUS
 62
     7
 10
-180.7842308560478
 20
236.6080131561137
  0
VERTEX
  8
1
  6
CONTINUOUS
 62
     7
 10
-180.7685948888624
 20
236.5888621991274
  0
VERTEX
  8
1
  6
CONTINUOUS
 62
     7
 10
-180.7514043729332
 20
236.5707138988873
  0
VERTEX
  8
1
  6
CONTINUOUS
 62
     7
 10
-180.7327234664939
 20
236.5536966561255
  0
VERTEX
  8
1
  6
CONTINUOUS
 62
     7
 10
-180.7177762908229
 20
236.5417563510451
  0
VERTEX
  8
1
  6
CONTINUOUS
 62
     7
 10
-180.7020610107996
 20
236.5305861012311
  0
VERTEX
  8
1
  6
CONTINUOUS
 62
     7
 10
-180.685610657355
 20
236.5202463324065
  0
VERTEX
  8
1
  6
CONTINUOUS
 62
     7
 10
-180.6771206340353
 20
236.5154072672355
  0
VERTEX
  8
1
  6
CONTINUOUS
 62
     7
 10
-180.6728113691331
 20
236.5130739028799
  0
VERTEX
  8
1
  6
CONTINUOUS
 62
     7
 10
-180.6722697410536
 20
236.51278634491
  0
VERTEX
  8
1
  6
CONTINUOUS
 62
     7
 10
-180.6719986808567
 20
236.5126429109788
  0
VERTEX
  8
1
  6
CONTINUOUS
 62
     7
 10
-180.6718630892809
 20
236.5125712803847
  0
VERTEX
  8
1
  6
CONTINUOUS
 62
     7
 10
-180.6718291849861
 20
236.5125533817384
  0
VERTEX
  8
1
  6
CONTINUOUS
 62
     7
 10
-180.6718122318788
 20
236.5125444337659
  0
VERTEX
  8
1
  6
CONTINUOUS
 62
     7
 10
-180.671807484894
 20
236.512541928495
  0
VERTEX
  8
1
  6
CONTINUOUS
 62
     7
 10
-180.6718063152293
 20
236.5125413112071
  0
VERTEX
  8
1
  6
CONTINUOUS
 62
     7
 10
-180.6717985350935
 20
236.5125372532551
  0
VERTEX
  8
1
  6
CONTINUOUS
 62
     7
 10
-180.6717844202261
 20
236.5125298914264
  0
VERTEX
  8
1
  6
CONTINUOUS
 62
     7
 10
-180.6431132411971
 20
236.4975762432217
  0
VERTEX
  8
1
  6
CONTINUOUS
 62
     7
 10
-179.4775243688169
 20
235.8900427630286
  0
SEQEND
  8
1
  6
CONTINUOUS
 62
     7
  0
LINE
  8
1
  6
CONTINUOUS
 62
     7
 10
-179.4156798394185
 20
235.4448942775609
 11
-180.6899181251407
 21
234.779923792456
  0
POLYLINE
  8
1
  6
CONTINUOUS
 62
     7
 66
     1
  0
VERTEX
  8
1
  6
CONTINUOUS
 62
     7
 10
-180.6899181251407
 20
234.779923792456
  0
VERTEX
  8
1
  6
CONTINUOUS
 62
     7
 10
-180.7066412165313
 20
234.7690633978393
  0
VERTEX
  8
1
  6
CONTINUOUS
 62
     7
 10
-180.723457372031
 20
234.7566493969879
  0
VERTEX
  8
1
  6
CONTINUOUS
 62
     7
 10
-180.739796060733
 20
234.7429535732546
  0
VERTEX
  8
1
  6
CONTINUOUS
 62
     7
 10
-180.7555401575399
 20
234.727972863165
  0
VERTEX
  8
1
  6
CONTINUOUS
 62
     7
 10
-180.7705634894767
 20
234.7117103316474
  0
VERTEX
  8
1
  6
CONTINUOUS
 62
     7
 10
-180.784730433881
 20
234.6941755494526
  0
VERTEX
  8
1
  6
CONTINUOUS
 62
     7
 10
-180.7978955090641
 20
234.6753849781664
  0
VERTEX
  8
1
  6
CONTINUOUS
 62
     7
 10
-180.8095134447163
 20
234.6560709893928
  0
VERTEX
  8
1
  6
CONTINUOUS
 62
     7
 10
-180.8199326835969
 20
234.6356547321259
  0
VERTEX
  8
1
  6
CONTINUOUS
 62
     7
 10
-180.8290464406465
 20
234.6142033284964
  0
VERTEX
  8
1
  6
CONTINUOUS
 62
     7
 10
-180.8367438632118
 20
234.5917948922784
  0
VERTEX
  8
1
  6
CONTINUOUS
 62
     7
 10
-180.8429094161941
 20
234.5685187377428
  0
VERTEX
  8
1
  6
CONTINUOUS
 62
     7
 10
-180.8466008958136
 20
234.5496869859872
  0
VERTEX
  8
1
  6
CONTINUOUS
 62
     7
 10
-180.8492119565379
 20
234.5304359491867
  0
VERTEX
  8
1
  6
CONTINUOUS
 62
     7
 10
-180.8506801454075
 20
234.5108247162739
  0
VERTEX
  8
1
  6
CONTINUOUS
 62
     7
 10
-180.8509412427899
 20
234.4909166441197
  0
VERTEX
  8
1
  6
CONTINUOUS
 62
     7
 10
-180.8498037696969
 20
234.469106954482
  0
VERTEX
  8
1
  6
CONTINUOUS
 62
     7
 10
-180.8480769904361
 20
234.4534886751058
  0
VERTEX
  8
1
  6
CONTINUOUS
 62
     7
 10
-180.8453423773678
 20
234.4365806805328
  0
VERTEX
  8
1
  6
CONTINUOUS
 62
     7
 10
-180.8413942178588
 20
234.4184610575985
  0
VERTEX
  8
1
  6
CONTINUOUS
 62
     7
 10
-180.8360156074754
 20
234.3992347560453
  0
VERTEX
  8
1
  6
CONTINUOUS
 62
     7
 10
-180.8289798145648
 20
234.3790384289946
  0
VERTEX
  8
1
  6
CONTINUOUS
 62
     7
 10
-180.8202291665126
 20
234.3584263123319
  0
VERTEX
  8
1
  6
CONTINUOUS
 62
     7
 10
-180.8094241451644
 20
234.337250078559
  0
VERTEX
  8
1
  6
CONTINUOUS
 62
     7
 10
-180.7963323710522
 20
234.3157580530813
  0
VERTEX
  8
1
  6
CONTINUOUS
 62
     7
 10
-180.7807548142428
 20
234.2942271306125
  0
VERTEX
  8
1
  6
CONTINUOUS
 62
     7
 10
-180.7672058367161
 20
234.2780737853701
  0
VERTEX
  8
1
  6
CONTINUOUS
 62
     7
 10
-180.7520886365533
 20
234.2622205256093
  0
VERTEX
  8
1
  6
CONTINUOUS
 62
     7
 10
-180.735358333293
 20
234.246833523239
  0
VERTEX
  8
1
  6
CONTINUOUS
 62
     7
 10
-180.7169813485875
 20
234.2320969785921
  0
VERTEX
  8
1
  6
CONTINUOUS
 62
     7
 10
-180.696936773373
 20
234.2182143969122
  0
VERTEX
  8
1
  6
CONTINUOUS
 62
     7
 10
-180.6752177816431
 20
234.2054099090954
  0
VERTEX
  8
1
  6
CONTINUOUS
 62
     7
 10
-180.6730959580472
 20
234.2042733831435
  0
VERTEX
  8
1
  6
CONTINUOUS
 62
     7
 10
-180.6728297005676
 20
234.2041321451363
  0
VERTEX
  8
1
  6
CONTINUOUS
 62
     7
 10
-180.6727631004642
 20
234.2040968645764
  0
VERTEX
  8
1
  6
CONTINUOUS
 62
     7
 10
-180.6727297950528
 20
234.2040792286423
  0
VERTEX
  8
1
  6
CONTINUOUS
 62
     7
 10
-180.6727214681417
 20
234.2040748201115
  0
VERTEX
  8
1
  6
CONTINUOUS
 62
     7
 10
-180.6727168049739
 20
234.2040723514134
  0
VERTEX
  8
1
  6
CONTINUOUS
 62
     7
 10
-180.6727147531579
 20
234.2040712652043
  0
VERTEX
  8
1
  6
CONTINUOUS
 62
     7
 10
-180.6727095786607
 20
234.2040685628773
  0
VERTEX
  8
1
  6
CONTINUOUS
 62
     7
 10
-180.6727034780339
 20
234.2040653799615
  0
VERTEX
  8
1
  6
CONTINUOUS
 62
     7
 10
-180.0822599050602
 20
233.8961287698236
  0
VERTEX
  8
1
  6
CONTINUOUS
 62
     7
 10
-179.478262375386
 20
233.5813506409301
  0
SEQEND
  8
1
  6
CONTINUOUS
 62
     7
  0
LINE
  8
1
  6
CONTINUOUS
 62
     7
 10
-179.4150823851604
 20
233.1362131008271
 11
-180.6969037114182
 21
232.4665989490731
  0
POLYLINE
  8
1
  6
CONTINUOUS
 62
     7
 66
     1
  0
VERTEX
  8
1
  6
CONTINUOUS
 62
     7
 10
-180.6969037114182
 20
232.4665989490731
  0
VERTEX
  8
1
  6
CONTINUOUS
 62
     7
 10
-180.714855499117
 20
232.4542832307997
  0
VERTEX
  8
1
  6
CONTINUOUS
 62
     7
 10
-180.7331271880927
 20
232.4398926835303
  0
VERTEX
  8
1
  6
CONTINUOUS
 62
     7
 10
-180.750588004976
 20
232.4240935423069
  0
VERTEX
  8
1
  6
CONTINUOUS
 62
     7
 10
-180.767107530193
 20
232.4069151699707
  0
VERTEX
  8
1
  6
CONTINUOUS
 62
     7
 10
-180.7825475227158
 20
232.388392959732
  0
VERTEX
  8
1
  6
CONTINUOUS
 62
     7
 10
-180.7967616729764
 20
232.3685685693247
  0
VERTEX
  8
1
  6
CONTINUOUS
 62
     7
 10
-180.8095967379684
 20
232.3474909989779
  0
VERTEX
  8
1
  6
CONTINUOUS
 62
     7
 10
-180.8209221787366
 20
232.3252349709083
  0
VERTEX
  8
1
  6
CONTINUOUS
 62
     7
 10
-180.8306322612248
 20
232.3019026018052
  0
VERTEX
  8
1
  6
CONTINUOUS
 62
     7
 10
-180.8386185979595
 20
232.2776071435772
  0
VERTEX
  8
1
  6
CONTINUOUS
 62
     7
 10
-180.8447688341826
 20
232.25247259604
  0
VERTEX
  8
1
  6
CONTINUOUS
 62
     7
 10
-180.848966552338
 20
232.2266340640932
  0
VERTEX
  8
1
  6
CONTINUOUS
 62
     7
 10
-180.8510911756668
 20
232.2002381194473
  0
VERTEX
  8
1
  6
CONTINUOUS
 62
     7
 10
-180.8510203628392
 20
232.1734431668999
  0
VERTEX
  8
1
  6
CONTINUOUS
 62
     7
 10
-180.848676753993
 20
232.1464198151626
  0
VERTEX
  8
1
  6
CONTINUOUS
 62
     7
 10
-180.8440276201883
 20
232.1193512522379
  0
VERTEX
  8
1
  6
CONTINUOUS
 62
     7
 10
-180.8383715418106
 20
232.0969006922761
  0
VERTEX
  8
1
  6
CONTINUOUS
 62
     7
 10
-180.8310795676507
 20
232.0746752855721
  0
VERTEX
  8
1
  6
CONTINUOUS
 62
     7
 10
-180.8221380884332
 20
232.0528021957518
  0
VERTEX
  8
1
  6
CONTINUOUS
 62
     7
 10
-180.8115349354826
 20
232.0314153352685
  0
VERTEX
  8
1
  6
CONTINUOUS
 62
     7
 10
-180.799259794792
 20
232.0106553010169
  0
VERTEX
  8
1
  6
CONTINUOUS
 62
     7
 10
-180.7853261853815
 20
231.9906562248936
  0
VERTEX
  8
1
  6
CONTINUOUS
 62
     7
 10
-180.7697854116409
 20
231.9715374951406
  0
VERTEX
  8
1
  6
CONTINUOUS
 62
     7
 10
-180.7526966892508
 20
231.9534220759373
  0
VERTEX
  8
1
  6
CONTINUOUS
 62
     7
 10
-180.7341243964353
 20
231.936438368016
  0
VERTEX
  8
1
  6
CONTINUOUS
 62
     7
 10
-180.7192632895694
 20
231.9245236431247
  0
VERTEX
  8
1
  6
CONTINUOUS
 62
     7
 10
-180.7036381326239
 20
231.9133793412645
  0
VERTEX
  8
1
  6
CONTINUOUS
 62
     7
 10
-180.6872820506643
 20
231.9030658881581
  0
VERTEX
  8
1
  6
CONTINUOUS
 62
     7
 10
-180.6788407482973
 20
231.8982401187579
  0
VERTEX
  8
1
  6
CONTINUOUS
 62
     7
 10
-180.6745562453681
 20
231.8959134367657
  0
VERTEX
  8
1
  6
CONTINUOUS
 62
     7
 10
-180.6740177314644
 20
231.8956267157073
  0
VERTEX
  8
1
  6
CONTINUOUS
 62
     7
 10
-180.6737482299363
 20
231.8954837003666
  0
VERTEX
  8
1
  6
CONTINUOUS
 62
     7
 10
-180.6736134180903
 20
231.8954122791014
  0
VERTEX
  8
1
  6
CONTINUOUS
 62
     7
 10
-180.6735797087691
 20
231.8953944327908
  0
VERTEX
  8
1
  6
CONTINUOUS
 62
     7
 10
-180.6735628531547
 20
231.8953855109867
  0
VERTEX
  8
1
  6
CONTINUOUS
 62
     7
 10
-180.6735581334687
 20
231.895383013043
  0
VERTEX
  8
1
  6
CONTINUOUS
 62
     7
 10
-180.6735569705305
 20
231.8953823975605
  0
VERTEX
  8
1
  6
CONTINUOUS
 62
     7
 10
-180.6735491950987
 20
231.8953783410272
  0
VERTEX
  8
1
  6
CONTINUOUS
 62
     7
 10
-180.6735350886126
 20
231.8953709817315
  0
VERTEX
  8
1
  6
CONTINUOUS
 62
     7
 10
-180.6448809784779
 20
231.8804224824561
  0
VERTEX
  8
1
  6
CONTINUOUS
 62
     7
 10
-179.4774600343754
 20
231.2717508021071
  0
SEQEND
  8
1
  6
CONTINUOUS
 62
     7
  0
LINE
  8
1
  6
CONTINUOUS
 62
     7
 10
-140.524
 20
243.4887364429324
 11
-140.524
 21
244.0785610486758
  0
LINE
  8
1
  6
CONTINUOUS
 62
     7
 10
-140.524
 20
241.1795317654006
 11
-140.524
 21
241.6683856544193
  0
LINE
  8
1
  6
CONTINUOUS
 62
     7
 10
-140.524
 20
238.8703040300209
 11
-140.524
 21
239.3593993361216
  0
LINE
  8
1
  6
CONTINUOUS
 62
     7
 10
-140.524
 20
236.561227016375
 11
-140.524
 21
237.0504405349262
  0
LINE
  8
1
  6
CONTINUOUS
 62
     7
 10
-140.524
 20
234.2522576665587
 11
-140.524
 21
234.7413635214557
  0
LINE
  8
1
  6
CONTINUOUS
 62
     7
 10
-140.524
 20
231.9432818974779
 11
-140.524
 21
232.4321336896583
  0
LINE
  8
1
  6
CONTINUOUS
 62
     7
 10
-140.524
 20
229.0785610486759
 11
-140.524
 21
230.1229311089647
  0
LINE
  8
1
  6
CONTINUOUS
 62
     7
 10
-179.476
 20
231.2775124937036
 11
-179.476
 21
229.0785610486759
  0
LINE
  8
1
  6
CONTINUOUS
 62
     7
 10
-179.476
 20
233.5867392974716
 11
-179.476
 21
233.09774425857
  0
LINE
  8
1
  6
CONTINUOUS
 62
     7
 10
-179.476
 20
235.8959081797875
 11
-179.476
 21
235.406722930433
  0
LINE
  8
1
  6
CONTINUOUS
 62
     7
 10
-179.476
 20
238.2049447794956
 11
-179.476
 21
237.7157593723456
  0
LINE
  8
1
  6
CONTINUOUS
 62
     7
 10
-179.476
 20
240.5138788009561
 11
-179.476
 21
240.0249312569348
  0
LINE
  8
1
  6
CONTINUOUS
 62
     7
 10
-179.476
 20
244.0785610486758
 11
-179.476
 21
242.3341142689106
  0
LINE
  8
1
  6
CONTINUOUS
 62
     7
 10
-133.5
 20
226.0785610486759
 11
-133.5
 21
229.0785610486759
  0
LINE
  8
1
  6
CONTINUOUS
 62
     7
 10
-186.5
 20
229.0785610486759
 11
-186.5
 21
226.0785610486759
  0
ENDBLK
  8
0
  0
ENDSEC
  0
SECTION
  2
ENTITIES
  0
LINE
  8
1
  6
CENTER
 62
     1
 10
-160.0
 20
246.0785610486758
 11
-160.0
 21
209.1666666666667
  0
LINE
  8
1
  6
CONTINUOUS
 62
     7
 10
-135.7879954184141
 20
226.0785610486759
 11
-135.7879954184141
 21
229.0785610486758
  0
INSERT
  8
1
  6
CONTINUOUS
 62
     7
  2
D_FRAME_VIEW_1902
 10
0.0
 20
0.0
 30
0.0
  0
TEXT
  8
1
  6
CONTINUOUS
 62
     7
 10
-170.4553301237964
 20
122.4950866991789
 40
3.0
  1
MFPN-36PG36K
  0
LINE
  8
1
  6
CONTINUOUS
 62
     2
 10
-170.3704545454545
 20
121.9371212121212
 11
-149.6295454545455
 21
121.9371212121212
  0
LINE
  8
1
  6
CENTER
 62
     1
 10
-160.0
 20
136.0
 11
-160.0
 21
189.0
  0
LINE
  8
1
  6
CENTER
 62
     1
 10
-186.5
 20
162.5
 11
-133.5
 21
162.5
  0
INSERT
  8
1
  6
CONTINUOUS
 62
     7
  2
D_FRAME_VIEW_1491
 10
0.0
 20
0.0
 30
0.0
  0
ENDSEC
  0
EOF
