  0
SECTION
  2
HEADER
  9
$ACADVER
  1
AC1006
  9
$DWGCODEPAGE
  3
ansi_932
  9
$INSBASE
 10
0.0
 20
0.0
 30
0.0
  9
$EXTMIN
 10
69.05
 20
51.92502188320619
  9
$EXTMAX
 10
369.9999999999999
 20
151.551089
  9
$LIMMIN
 10
0.0
 20
0.0
  9
$LIMMAX
 10
12.0
 20
9.0
  9
$ORTHOMODE
 70
     0
  9
$REGENMODE
 70
     1
  9
$FILLMODE
 70
     1
  9
$QTEXTMODE
 70
     0
  9
$MIRRTEXT
 70
     1
  9
$DRAGMODE
 70
     2
  9
$LTSCALE
 40
1.0
  9
$OSMODE
 70
    37
  9
$ATTMODE
 70
     1
  9
$TEXTSIZE
 40
0.2
  9
$TRACEWID
 40
0.05
  9
$TEXTSTYLE
  7
STANDARD
  9
$CLAYER
  8
0
  9
$CELTYPE
  6
BYLAYER
  9
$CECOLOR
 62
   256
  9
$DIMSCALE
 40
1.0
  9
$DIMASZ
 40
0.9
  9
$DIMEXO
 40
0.0625
  9
$DIMDLI
 40
0.38
  9
$DIMRND
 40
0.0
  9
$DIMDLE
 40
0.0
  9
$DIMEXE
 40
0.45
  9
$DIMTP
 40
0.0
  9
$DIMTM
 40
0.0
  9
$DIMTXT
 40
3.0
  9
$DIMCEN
 40
0.09
  9
$DIMTSZ
 40
0.0
  9
$DIMTOL
 70
     0
  9
$DIMLIM
 70
     0
  9
$DIMTIH
 70
     1
  9
$DIMTOH
 70
     1
  9
$DIMSE1
 70
     0
  9
$DIMSE2
 70
     0
  9
$DIMTAD
 70
     1
  9
$DIMZIN
 70
     0
  9
$DIMBLK
  1

  9
$DIMASO
 70
     1
  9
$DIMSHO
 70
     1
  9
$DIMPOST
  1

  9
$DIMAPOST
  1

  9
$DIMALT
 70
     0
  9
$DIMALTD
 70
     2
  9
$DIMALTF
 40
25.4
  9
$DIMLFAC
 40
1.0
  9
$DIMTOFL
 70
     0
  9
$DIMTVP
 40
0.0
  9
$DIMTIX
 70
     0
  9
$DIMSOXD
 70
     0
  9
$DIMSAH
 70
     0
  9
$DIMBLK1
  1

  9
$DIMBLK2
  1

  9
$LUNITS
 70
     2
  9
$LUPREC
 70
     4
  9
$SKETCHINC
 40
0.1
  9
$FILLETRAD
 40
0.5
  9
$AUNITS
 70
     0
  9
$AUPREC
 70
     0
  9
$MENU
  1
.
  9
$ELEVATION
 40
0.0
  9
$THICKNESS
 40
0.0
  9
$LIMCHECK
 70
     0
  9
$CHAMFERA
 40
0.0
  9
$CHAMFERB
 40
0.0
  9
$SKPOLY
 70
     0
  9
$TDCREATE
 40
2460742.401975868
  9
$TDUPDATE
 40
2460742.401976146
  9
$TDINDWG
 40
0.0000000116
  9
$TDUSRTIMER
 40
0.0000000116
  9
$USRTIMER
 70
     1
  9
$ANGBASE
 50
0.0
  9
$ANGDIR
 70
     0
  9
$PDMODE
 70
     0
  9
$PDSIZE
 40
0.0
  9
$PLINEWID
 40
0.0
  9
$COORDS
 70
     1
  9
$SPLFRAME
 70
     0
  9
$SPLINETYPE
 70
     6
  9
$SPLINESEGS
 70
     8
  9
$ATTDIA
 70
     0
  9
$ATTREQ
 70
     1
  9
$HANDLING
 70
     1
  9
$HANDSEED
  5
25C
  9
$SURFTAB1
 70
     6
  9
$SURFTAB2
 70
     6
  9
$SURFTYPE
 70
     6
  9
$SURFU
 70
     6
  9
$SURFV
 70
     6
  9
$UCSNAME
  2

  9
$UCSORG
 10
0.0
 20
0.0
 30
0.0
  9
$UCSXDIR
 10
1.0
 20
0.0
 30
0.0
  9
$UCSYDIR
 10
0.0
 20
1.0
 30
0.0
  9
$USERI1
 70
     0
  9
$USERI2
 70
     0
  9
$USERI3
 70
     0
  9
$USERI4
 70
     0
  9
$USERI5
 70
     0
  9
$USERR1
 40
0.0
  9
$USERR2
 40
0.0
  9
$USERR3
 40
0.0
  9
$USERR4
 40
0.0
  9
$USERR5
 40
0.0
  9
$WORLDVIEW
 70
     1
  0
ENDSEC
  0
SECTION
  2
TABLES
  0
TABLE
  2
VPORT
 70
     1
  0
VPORT
  2
*ACTIVE
 70
     0
 10
0.0
 20
0.0
 11
1.0
 21
1.0
 12
219.5249999999999
 22
101.7380554416031
 13
0.0
 23
0.0
 14
0.5
 24
0.5
 15
0.5
 25
0.5
 16
0.0
 26
0.0
 36
1.0
 17
0.0
 27
0.0
 37
0.0
 40
99.62606711679379
 41
1.6
 42
50.0
 43
0.0
 44
0.0
 50
0.0
 51
0.0
 71
     0
 72
   100
 73
     1
 74
     3
 75
     0
 76
     0
 77
     0
 78
     0
  0
ENDTAB
  0
TABLE
  2
LTYPE
 70
     2
  0
LTYPE
  2
CONTINUOUS
 70
     0
  3
Solid line
 72
    65
 73
     0
 40
0.0
  0
LTYPE
  2
CENTER
 70
     0
  3

 72
    65
 73
     0
 40
0.0
  0
ENDTAB
  0
TABLE
  2
LAYER
 70
     2
  0
LAYER
  2
0
 70
     0
 62
     7
  6
CONTINUOUS
  0
LAYER
  2
1
 70
     0
 62
     7
  6
CONTINUOUS
  0
ENDTAB
  0
TABLE
  2
STYLE
 70
     2
  0
STYLE
  2
STANDARD
 70
     0
 40
0.0
 41
1.0
 50
0.0
 71
     0
 42
0.2
  3
txt
  4

  0
STYLE
  2
ＭＳ_ゴシック
 70
     0
 40
0.0
 41
1.0
 50
0.0
 71
     0
 42
0.2
  3
ＭＳ ゴシック.shx
  4

  0
ENDTAB
  0
TABLE
  2
VIEW
 70
     0
  0
ENDTAB
  0
TABLE
  2
UCS
 70
     0
  0
ENDTAB
  0
ENDSEC
  0
SECTION
  2
BLOCKS
  0
ENDSEC
  0
SECTION
  2
ENTITIES
  0
ARC
  5
70
  8
1
  6
CONTINUOUS
 62
     7
 10
341.401227
 20
147.521696
 30
0.0
 40
2.001228
 50
90.035136
 51
180.030523
  0
ARC
  5
71
  8
1
  6
CONTINUOUS
 62
     7
 10
341.400232
 20
147.523211
 30
0.0
 40
2.499351
 50
90.00531400000001
 51
143.158817
  0
LINE
  5
72
  8
1
  6
CONTINUOUS
 62
     7
 10
319.0
 20
73.667749
 30
0.0
 11
339.0
 21
73.667749
 31
0.0
  0
ARC
  5
73
  8
1
  6
CONTINUOUS
 62
     7
 10
359.156937
 20
72.724447
 30
0.0
 40
2.996974
 50
270.008066
 51
315.06929
  0
CIRCLE
  5
74
  8
1
  6
CONTINUOUS
 62
     7
 10
227.499996
 20
115.600976
 30
0.0
 40
0.749996
  0
ARC
  5
75
  8
1
  6
CONTINUOUS
 62
     7
 10
341.404275
 20
73.768152
 30
0.0
 40
2.004282
 50
179.859222
 51
269.877778
  0
LINE
  5
76
  8
1
  6
CONTINUOUS
 62
     7
 10
339.4
 20
69.727473
 30
0.0
 11
359.157359
 21
69.727473
 31
0.0
  0
LINE
  5
77
  8
1
  6
CONTINUOUS
 62
     7
 10
241.252638
 20
148.033528
 30
0.0
 11
245.526676
 21
148.033528
 31
0.0
  0
LINE
  5
78
  8
1
  6
CONTINUOUS
 62
     7
 10
319.0
 20
147.534429
 30
0.0
 11
319.473324
 21
148.033528
 31
0.0
  0
LINE
  5
79
  8
1
  6
CONTINUOUS
 62
     7
 10
361.27868
 20
70.607831
 30
0.0
 11
361.93487
 21
71.265323
 31
0.0
  0
LINE
  5
7A
  8
1
  6
CONTINUOUS
 62
     7
 10
226.0
 20
148.033528
 30
0.0
 11
229.747362
 21
148.033528
 31
0.0
  0
LINE
  5
7B
  8
1
  6
CONTINUOUS
 62
     7
 10
323.747362
 20
148.033528
 30
0.0
 11
335.252638
 21
148.033528
 31
0.0
  0
LINE
  5
7C
  8
1
  6
CONTINUOUS
 62
     7
 10
246.0
 20
147.534429
 30
0.0
 11
246.0
 21
147.601089
 31
0.0
  0
LINE
  5
7D
  8
1
  6
CONTINUOUS
 62
     7
 10
319.0
 20
147.534429
 30
0.0
 11
319.0
 21
147.601089
 31
0.0
  0
LINE
  5
7E
  8
1
  6
CONTINUOUS
 62
     7
 10
341.4
 20
150.022562
 30
0.0
 11
361.915846
 21
150.022562
 31
0.0
  0
LINE
  5
7F
  8
1
  6
CONTINUOUS
 62
     7
 10
335.252638
 20
73.16865
 30
0.0
 11
323.747362
 21
73.16865
 31
0.0
  0
ARC
  5
80
  8
1
  6
CONTINUOUS
 62
     7
 10
359.157237
 20
148.539229
 30
0.0
 40
2.999648
 50
44.989981
 51
89.997669
  0
LINE
  5
81
  8
1
  6
CONTINUOUS
 62
     7
 10
362.4
 20
149.522923
 30
0.0
 11
341.4
 21
149.522923
 31
0.0
  0
CIRCLE
  5
82
  8
1
  6
CONTINUOUS
 62
     7
 10
227.5
 20
110.601072
 30
0.0
 40
0.75
  0
LINE
  5
83
  8
1
  6
CONTINUOUS
 62
     7
 10
242.92868
 20
150.634178
 30
0.0
 11
242.92868
 21
150.672409
 31
0.0
  0
LINE
  5
84
  8
1
  6
CONTINUOUS
 62
     7
 10
361.27868
 20
150.672409
 30
0.0
 11
361.27868
 21
150.65993
 31
0.0
  0
LINE
  5
85
  8
0
  6
CENTER
 62
     1
 10
190.0
 20
110.601089
 30
0.0
 11
369.9999999999999
 21
110.601089
 31
0.0
  0
TEXT
  5
87
  8
1
  6
CONTINUOUS
 62
     1
 10
145.2902904949356
 20
51.24095285732149
 30
0.0
 40
6.0
  1
MFSC-54GFP
 41
1.409504
  0
LINE
  5
88
  8
1
  6
CONTINUOUS
 62
     7
 10
205.842641
 20
69.651089
 30
0.0
 11
205.842641
 21
69.663301
 31
0.0
  0
LINE
  5
89
  8
1
  6
CONTINUOUS
 62
     7
 10
324.192641
 20
151.513679
 30
0.0
 11
339.0
 21
151.513679
 31
0.0
  0
ARC
  5
8A
  8
1
  6
CONTINUOUS
 62
     7
 10
205.843063
 20
148.477731
 30
0.0
 40
2.996974
 50
90.00806600000001
 51
135.06929
  0
LINE
  5
8B
  8
1
  6
CONTINUOUS
 62
     7
 10
226.0
 20
146.601089
 30
0.0
 11
225.6
 21
146.601089
 31
0.0
  0
ARC
  5
8C
  8
1
  6
CONTINUOUS
 62
     7
 10
240.807039
 20
148.514887
 30
0.0
 40
2.998792
 50
44.96826
 51
89.99388600000002
  0
LINE
  5
8D
  8
1
  6
CONTINUOUS
 62
     7
 10
339.0
 20
74.601089
 30
0.0
 11
339.4
 21
74.601089
 31
0.0
  0
LINE
  5
8E
  8
1
  6
CONTINUOUS
 62
     7
 10
246.0
 20
147.601089
 30
0.0
 11
242.92868
 21
150.672409
 31
0.0
  0
LINE
  5
8F
  8
1
  6
CONTINUOUS
 62
     7
 10
245.526676
 20
73.16865
 30
0.0
 11
241.252638
 21
73.16865
 31
0.0
  0
LINE
  5
90
  8
1
  6
CONTINUOUS
 62
     7
 10
341.4
 20
71.763875
 30
0.0
 11
362.4
 21
71.763875
 31
0.0
  0
LINE
  5
91
  8
1
  6
CONTINUOUS
 62
     7
 10
364.4
 20
147.551089
 30
0.0
 11
364.4
 21
73.651089
 31
0.0
  0
LINE
  5
92
  8
1
  6
CONTINUOUS
 62
     7
 10
339.4
 20
146.601089
 30
0.0
 11
339.0
 21
146.601089
 31
0.0
  0
LINE
  5
93
  8
1
  6
CONTINUOUS
 62
     7
 10
229.747362
 20
73.16865
 30
0.0
 11
226.0
 21
73.16865
 31
0.0
  0
LINE
  5
94
  8
1
  6
CONTINUOUS
 62
     7
 10
322.07132
 20
70.568
 30
0.0
 11
322.07132
 21
70.529769
 31
0.0
  0
LINE
  5
95
  8
1
  6
CONTINUOUS
 62
     7
 10
319.473324
 20
73.16865
 30
0.0
 11
322.07132
 21
70.568
 31
0.0
  0
ARC
  5
96
  8
1
  6
CONTINUOUS
 62
     7
 10
230.0
 20
149.001089
 30
0.0
 40
1.0
 50
90.0
 51
255.366327
  0
ARC
  5
97
  8
1
  6
CONTINUOUS
 62
     7
 10
205.842763
 20
72.662949
 30
0.0
 40
2.999648
 50
224.989981
 51
269.997669
  0
LINE
  5
98
  8
1
  6
CONTINUOUS
 62
     7
 10
230.0
 20
71.201089
 30
0.0
 11
241.0
 21
71.201089
 31
0.0
  0
LINE
  5
99
  8
1
  6
CONTINUOUS
 62
     7
 10
242.92868
 20
70.568
 30
0.0
 11
242.92868
 21
70.529769
 31
0.0
  0
LINE
  5
9A
  8
1
  6
CONTINUOUS
 62
     7
 10
245.526676
 20
73.16865
 30
0.0
 11
242.92868
 21
70.568
 31
0.0
  0
LINE
  5
9B
  8
1
  6
CONTINUOUS
 62
     7
 10
361.915846
 20
150.022562
 30
0.0
 11
361.27868
 21
150.65993
 31
0.0
  0
LINE
  5
9C
  8
1
  6
CONTINUOUS
 62
     7
 10
361.915846
 20
150.022562
 30
0.0
 11
362.4
 21
149.522923
 31
0.0
  0
LINE
  5
9D
  8
1
  6
CONTINUOUS
 62
     7
 10
324.192641
 20
69.688499
 30
0.0
 11
339.0
 21
69.688499
 31
0.0
  0
LINE
  5
9E
  8
1
  6
CONTINUOUS
 62
     7
 10
203.084154
 20
71.179617
 30
0.0
 11
202.6
 21
71.679255
 31
0.0
  0
LINE
  5
9F
  8
1
  6
CONTINUOUS
 62
     7
 10
241.252638
 20
73.16865
 30
0.0
 11
229.747362
 21
73.16865
 31
0.0
  0
LINE
  5
A0
  8
1
  6
CONTINUOUS
 62
     7
 10
362.4
 20
71.763875
 30
0.0
 11
361.93487
 21
71.265323
 31
0.0
  0
LINE
  5
A1
  8
1
  6
CONTINUOUS
 62
     7
 10
223.6
 20
71.179617
 30
0.0
 11
203.084154
 21
71.179617
 31
0.0
  0
LINE
  5
A2
  8
1
  6
CONTINUOUS
 62
     7
 10
246.0
 20
73.667749
 30
0.0
 11
245.526676
 21
73.16865
 31
0.0
  0
LINE
  5
A3
  8
1
  6
CONTINUOUS
 62
     7
 10
335.0
 20
150.001089
 30
0.0
 11
324.0
 21
150.001089
 31
0.0
  0
ARC
  5
A4
  8
1
  6
CONTINUOUS
 62
     7
 10
110.0
 20
110.601089
 30
0.0
 40
36.0
 50
230.806252
 51
233.1937480000001
  0
ARC
  5
A5
  8
1
  6
CONTINUOUS
 62
     7
 10
110.0
 20
110.601089
 30
0.0
 40
33.7
 50
306.7246030000001
 51
308.0
  0
ARC
  5
A6
  8
1
  6
CONTINUOUS
 62
     7
 10
110.0
 20
110.601089
 30
0.0
 40
33.7
 50
117.224603
 51
118.5
  0
ARC
  5
A7
  8
1
  6
CONTINUOUS
 62
     7
 10
110.0
 20
110.601089
 30
0.0
 40
33.7
 50
287.724603
 51
289.0
  0
LINE
  5
A8
  8
1
  6
CONTINUOUS
 62
     7
 10
322.07132
 20
150.634178
 30
0.0
 11
322.07132
 21
150.672409
 31
0.0
  0
ARC
  5
A9
  8
1
  6
CONTINUOUS
 62
     7
 10
110.0
 20
110.601089
 30
0.0
 40
36.0
 50
240.3062520000001
 51
242.693748
  0
ARC
  5
AA
  8
1
  6
CONTINUOUS
 62
     7
 10
110.0
 20
110.601089
 30
0.0
 40
33.7
 50
155.224563
 51
157.775498
  0
LINE
  5
AB
  8
1
  6
CONTINUOUS
 62
     7
 10
319.473324
 20
148.033528
 30
0.0
 11
322.07132
 21
150.634178
 31
0.0
  0
LINE
  5
AC
  8
1
  6
CONTINUOUS
 62
     7
 10
76.23022
 20
100.351089
 30
0.0
 11
75.490038
 21
100.351089
 31
0.0
  0
LINE
  5
AD
  8
1
  6
CONTINUOUS
 62
     7
 10
245.526676
 20
148.033528
 30
0.0
 11
242.92868
 21
150.634178
 31
0.0
  0
LINE
  5
AE
  8
1
  6
CONTINUOUS
 62
     7
 10
359.157359
 20
69.727473
 30
0.0
 11
359.157359
 21
69.651089
 31
0.0
  0
LINE
  5
AF
  8
1
  6
CONTINUOUS
 62
     7
 10
344.4
 20
111.601089
 30
0.0
 11
344.4
 21
109.601089
 31
0.0
  0
LINE
  5
B0
  8
1
  6
CONTINUOUS
 62
     7
 10
361.27868
 20
70.607831
 30
0.0
 11
361.27868
 21
70.529769
 31
0.0
  0
ARC
  5
B1
  8
1
  6
CONTINUOUS
 62
     7
 10
110.0
 20
110.601089
 30
0.0
 40
35.6
 50
358.792837
 51
1.20716299999998
  0
CIRCLE
  5
B2
  8
1
  6
CONTINUOUS
 62
     7
 10
337.5
 20
110.601106
 30
0.0
 40
0.75
  0
LINE
  5
B3
  8
1
  6
CONTINUOUS
 62
     7
 10
229.747362
 20
148.033528
 30
0.0
 11
241.252638
 21
148.033528
 31
0.0
  0
LINE
  5
B4
  8
1
  6
CONTINUOUS
 62
     7
 10
339.0
 20
147.534429
 30
0.0
 11
319.0
 21
147.534429
 31
0.0
  0
LINE
  5
B5
  8
1
  6
CONTINUOUS
 62
     7
 10
246.0
 20
147.534429
 30
0.0
 11
226.0
 21
147.534429
 31
0.0
  0
LINE
  5
B6
  8
1
  6
CONTINUOUS
 62
     7
 10
245.526676
 20
148.033528
 30
0.0
 11
246.0
 21
147.534429
 31
0.0
  0
ARC
  5
B7
  8
1
  6
CONTINUOUS
 62
     7
 10
110.0
 20
110.601089
 30
0.0
 40
35.6
 50
343.266449
 51
345.540497
  0
ARC
  5
B8
  8
1
  6
CONTINUOUS
 62
     7
 10
110.0
 20
110.601089
 30
0.0
 40
35.6
 50
350.959503
 51
353.37383
  0
ARC
  5
B9
  8
1
  6
CONTINUOUS
 62
     7
 10
110.0
 20
110.601089
 30
0.0
 40
33.7
 50
259.224603
 51
260.5
  0
ARC
  5
BA
  8
1
  6
CONTINUOUS
 62
     7
 10
110.0
 20
110.601089
 30
0.0
 40
36.0
 50
316.306252
 51
318.693748
  0
ARC
  5
BB
  8
1
  6
CONTINUOUS
 62
     7
 10
110.0
 20
110.601089
 30
0.0
 40
35.6
 50
6.62617
 51
9.040497
  0
ARC
  5
BC
  8
1
  6
CONTINUOUS
 62
     7
 10
110.0
 20
110.601089
 30
0.0
 40
33.7
 50
41.224603
 51
42.50000000000001
  0
ARC
  5
BD
  8
1
  6
CONTINUOUS
 62
     7
 10
110.0
 20
110.601089
 30
0.0
 40
36.0
 50
31.806252
 51
34.19374800000001
  0
ARC
  5
BE
  8
1
  6
CONTINUOUS
 62
     7
 10
110.0
 20
110.601089
 30
0.0
 40
36.0
 50
79.30625199999999
 51
81.693748
  0
ARC
  5
BF
  8
1
  6
CONTINUOUS
 62
     7
 10
110.0
 20
110.601089
 30
0.0
 40
33.7
 50
69.72460300000002
 51
71.0
  0
ARC
  5
C0
  8
1
  6
CONTINUOUS
 62
     7
 10
110.0
 20
110.601089
 30
0.0
 40
33.7
 50
325.724603
 51
327.0
  0
ARC
  5
C1
  8
1
  6
CONTINUOUS
 62
     7
 10
110.0
 20
110.601089
 30
0.0
 40
36.0
 50
259.306252
 51
261.693748
  0
ARC
  5
C2
  8
1
  6
CONTINUOUS
 62
     7
 10
110.0
 20
110.601089
 30
0.0
 40
33.7
 50
136.224603
 51
137.5
  0
ARC
  5
C3
  8
1
  6
CONTINUOUS
 62
     7
 10
341.401032
 20
73.762928
 30
0.0
 40
2.497606
 50
216.757061
 51
269.976328
  0
LINE
  5
C4
  8
1
  6
CONTINUOUS
 62
     7
 10
319.473324
 20
73.16865
 30
0.0
 11
319.0
 21
73.667749
 31
0.0
  0
ARC
  5
C5
  8
1
  6
CONTINUOUS
 62
     7
 10
110.0
 20
110.601089
 30
0.0
 40
33.7
 50
170.891013
 51
173.44239
  0
ARC
  5
C6
  8
1
  6
CONTINUOUS
 62
     7
 10
110.0
 20
110.601089
 30
0.0
 40
33.7
 50
211.724603
 51
213.0
  0
LINE
  5
C7
  8
1
  6
CONTINUOUS
 62
     7
 10
226.0
 20
73.667749
 30
0.0
 11
246.0
 21
73.667749
 31
0.0
  0
LINE
  5
C8
  8
1
  6
CONTINUOUS
 62
     7
 10
319.0
 20
73.667749
 30
0.0
 11
319.0
 21
73.601089
 31
0.0
  0
ARC
  5
C9
  8
1
  6
CONTINUOUS
 62
     7
 10
110.0
 20
110.601089
 30
0.0
 40
36.0
 50
325.806252
 51
328.193748
  0
LINE
  5
CA
  8
1
  6
CONTINUOUS
 62
     7
 10
246.0
 20
73.667749
 30
0.0
 11
246.0
 21
73.601089
 31
0.0
  0
ARC
  5
CB
  8
1
  6
CONTINUOUS
 62
     7
 10
110.0
 20
110.601089
 30
0.0
 40
36.0
 50
335.306252
 51
337.693748
  0
ARC
  5
CC
  8
1
  6
CONTINUOUS
 62
     7
 10
110.0
 20
110.601089
 30
0.0
 40
36.0
 50
221.306252
 51
223.693748
  0
LINE
  5
CD
  8
1
  6
CONTINUOUS
 62
     7
 10
359.157359
 20
151.551089
 30
0.0
 11
359.157359
 21
151.538877
 31
0.0
  0
ARC
  5
CE
  8
1
  6
CONTINUOUS
 62
     7
 10
110.0
 20
110.601089
 30
0.0
 40
36.0
 50
268.806252
 51
271.193748
  0
LINE
  5
CF
  8
1
  6
CONTINUOUS
 62
     7
 10
144.509962
 20
100.351089
 30
0.0
 11
143.76978
 21
100.351089
 31
0.0
  0
ARC
  5
D0
  8
1
  6
CONTINUOUS
 62
     7
 10
110.0
 20
110.601089
 30
0.0
 40
33.7
 50
178.724717
 51
181.275266
  0
ARC
  5
D1
  8
1
  6
CONTINUOUS
 62
     7
 10
110.0
 20
110.601089
 30
0.0
 40
33.7
 50
268.7246030000001
 51
270.0
  0
ARC
  5
D2
  8
1
  6
CONTINUOUS
 62
     7
 10
110.0
 20
110.601089
 30
0.0
 40
33.7
 50
126.724603
 51
128.0
  0
ARC
  5
D3
  8
1
  6
CONTINUOUS
 62
     7
 10
110.0
 20
110.601089
 30
0.0
 40
36.0
 50
126.806252
 51
129.193748
  0
LINE
  5
D4
  8
1
  6
CONTINUOUS
 62
     7
 10
362.4
 20
149.551089
 30
0.0
 11
362.4
 21
149.522923
 31
0.0
  0
LINE
  5
D5
  8
1
  6
CONTINUOUS
 62
     7
 10
359.157359
 20
151.538877
 30
0.0
 11
339.4
 21
151.538877
 31
0.0
  0
ARC
  5
D6
  8
1
  6
CONTINUOUS
 62
     7
 10
110.0
 20
110.601089
 30
0.0
 40
36.0
 50
211.806252
 51
214.193748
  0
ARC
  5
D7
  8
1
  6
CONTINUOUS
 62
     7
 10
110.0
 20
110.601089
 30
0.0
 40
36.0
 50
287.8062519999999
 51
290.193748
  0
LINE
  5
D8
  8
1
  6
CONTINUOUS
 62
     7
 10
339.0
 20
73.16865
 30
0.0
 11
335.252638
 21
73.16865
 31
0.0
  0
LINE
  5
D9
  8
1
  6
CONTINUOUS
 62
     7
 10
323.747362
 20
73.16865
 30
0.0
 11
319.473324
 21
73.16865
 31
0.0
  0
LINE
  5
DA
  8
1
  6
CONTINUOUS
 62
     7
 10
319.473324
 20
148.033528
 30
0.0
 11
323.747362
 21
148.033528
 31
0.0
  0
LINE
  5
DB
  8
1
  6
CONTINUOUS
 62
     7
 10
362.4
 20
71.763875
 30
0.0
 11
362.4
 21
71.651089
 31
0.0
  0
LINE
  5
DC
  8
1
  6
CONTINUOUS
 62
     7
 10
361.93487
 20
71.265323
 30
0.0
 11
341.4
 21
71.265323
 31
0.0
  0
ARC
  5
DD
  8
1
  6
CONTINUOUS
 62
     7
 10
110.0
 20
110.601089
 30
0.0
 40
36.0
 50
249.806252
 51
252.193748
  0
ARC
  5
DE
  8
1
  6
CONTINUOUS
 62
     7
 10
110.0
 20
110.601089
 30
0.0
 40
36.0
 50
98.306252
 51
100.693748
  0
ARC
  5
DF
  8
1
  6
CONTINUOUS
 62
     7
 10
110.0
 20
110.601089
 30
0.0
 40
33.7
 50
79.224603
 51
80.5
  0
ARC
  5
E0
  8
1
  6
CONTINUOUS
 62
     7
 10
110.0
 20
110.601089
 30
0.0
 40
36.0
 50
278.306252
 51
280.693748
  0
CIRCLE
  5
E1
  8
1
  6
CONTINUOUS
 62
     7
 10
337.500004
 20
105.601202
 30
0.0
 40
0.749996
  0
ARC
  5
E2
  8
1
  6
CONTINUOUS
 62
     7
 10
110.0
 20
110.601089
 30
0.0
 40
36.0
 50
297.306252
 51
299.693748
  0
ARC
  5
E3
  8
1
  6
CONTINUOUS
 62
     7
 10
110.0
 20
110.601089
 30
0.0
 40
36.0
 50
306.806252
 51
309.193748
  0
ARC
  5
E4
  8
1
  6
CONTINUOUS
 62
     7
 10
110.0
 20
110.601089
 30
0.0
 40
36.0
 50
136.306252
 51
138.693748
  0
ARC
  5
E5
  8
1
  6
CONTINUOUS
 62
     7
 10
110.0
 20
110.601089
 30
0.0
 40
36.0
 50
155.306252
 51
157.693748
  0
ARC
  5
E6
  8
1
  6
CONTINUOUS
 62
     7
 10
110.0
 20
110.601089
 30
0.0
 40
33.7
 50
249.724603
 51
251.0
  0
ARC
  5
E7
  8
1
  6
CONTINUOUS
 62
     7
 10
110.0
 20
110.601089
 30
0.0
 40
36.0
 50
145.806252
 51
148.193748
  0
ARC
  5
E8
  8
1
  6
CONTINUOUS
 62
     7
 10
110.0
 20
110.601089
 30
0.0
 40
33.7
 50
240.224603
 51
241.4999999999999
  0
ARC
  5
E9
  8
1
  6
CONTINUOUS
 62
     7
 10
110.0
 20
110.601089
 30
0.0
 40
33.7
 50
186.557616
 51
189.108967
  0
LINE
  5
EA
  8
1
  6
CONTINUOUS
 62
     7
 10
76.985837
 20
96.246123
 30
0.0
 11
80.195548
 21
97.641744
 31
0.0
  0
ARC
  5
EB
  8
1
  6
CONTINUOUS
 62
     7
 10
110.0
 20
110.601089
 30
0.0
 40
33.7
 50
163.057778
 51
165.608803
  0
ARC
  5
EC
  8
1
  6
CONTINUOUS
 62
     7
 10
110.0
 20
110.601089
 30
0.0
 40
33.7
 50
88.724603
 51
90.0
  0
LINE
  5
ED
  8
1
  6
CONTINUOUS
 62
     7
 10
75.490038
 20
120.851089
 30
0.0
 11
76.23022
 21
120.851089
 31
0.0
  0
ARC
  5
EE
  8
1
  6
CONTINUOUS
 62
     7
 10
110.0
 20
110.601089
 30
0.0
 40
32.5
 50
335.1773949999999
 51
24.82281499999999
  0
ARC
  5
EF
  8
1
  6
CONTINUOUS
 62
     7
 10
110.0
 20
110.601089
 30
0.0
 40
33.7
 50
278.224603
 51
279.5
  0
ARC
  5
F0
  8
1
  6
CONTINUOUS
 62
     7
 10
110.0
 20
110.601089
 30
0.0
 40
36.0
 50
60.306252
 51
62.693748
  0
ARC
  5
F1
  8
1
  6
CONTINUOUS
 62
     7
 10
110.0
 20
110.601089
 30
0.0
 40
36.0
 50
41.306252
 51
43.69374800000001
  0
ARC
  5
F2
  8
1
  6
CONTINUOUS
 62
     7
 10
110.0
 20
110.601089
 30
0.0
 40
33.7
 50
145.724603
 51
147.0
  0
ARC
  5
F3
  8
1
  6
CONTINUOUS
 62
     7
 10
110.0
 20
110.601089
 30
0.0
 40
36.0
 50
50.806252
 51
53.193748
  0
ARC
  5
F4
  8
1
  6
CONTINUOUS
 62
     7
 10
110.0
 20
110.601089
 30
0.0
 40
36.0
 50
88.806252
 51
91.193748
  0
ARC
  5
F5
  8
1
  6
CONTINUOUS
 62
     7
 10
110.0
 20
110.601089
 30
0.0
 40
33.7
 50
98.22460299999997
 51
99.5
  0
ARC
  5
F6
  8
1
  6
CONTINUOUS
 62
     7
 10
110.0
 20
110.601089
 30
0.0
 40
33.7
 50
221.224603
 51
222.5
  0
ARC
  5
F7
  8
1
  6
CONTINUOUS
 62
     7
 10
110.0
 20
110.601089
 30
0.0
 40
36.0
 50
107.806252
 51
110.193748
  0
ARC
  5
F8
  8
1
  6
CONTINUOUS
 62
     7
 10
110.0
 20
110.601089
 30
0.0
 40
36.0
 50
69.806252
 51
72.193748
  0
ARC
  5
F9
  8
1
  6
CONTINUOUS
 62
     7
 10
110.0
 20
110.601089
 30
0.0
 40
33.7
 50
230.7246030000001
 51
232.0
  0
ARC
  5
FA
  8
1
  6
CONTINUOUS
 62
     7
 10
110.0
 20
110.601089
 30
0.0
 40
33.7
 50
107.724603
 51
109.0
  0
ARC
  5
FB
  8
1
  6
CONTINUOUS
 62
     7
 10
110.0
 20
110.601089
 30
0.0
 40
36.0
 50
117.306252
 51
119.693748
  0
ARC
  5
FC
  8
1
  6
CONTINUOUS
 62
     7
 10
110.0
 20
110.601089
 30
0.0
 40
33.7
 50
194.391171
 51
196.941977
  0
LINE
  5
FD
  8
0
  6
CENTER
 62
     1
 10
110.0
 20
69.651089
 30
0.0
 11
110.0
 21
151.551089
 31
0.0
  0
LINE
  5
FE
  8
0
  6
CENTER
 62
     1
 10
69.05
 20
110.601089
 30
0.0
 11
150.95
 21
110.601089
 31
0.0
  0
ARC
  5
FF
  8
1
  6
CONTINUOUS
 62
     7
 10
110.0
 20
110.601089
 30
0.0
 40
36.25
 50
98.314485
 51
100.685515
  0
ARC
  5
100
  8
1
  6
CONTINUOUS
 62
     7
 10
110.0
 20
110.601089
 30
0.0
 40
33.0
 50
173.468956
 51
178.697711
  0
ARC
  5
101
  8
1
  6
CONTINUOUS
 62
     7
 10
110.0
 20
110.601089
 30
0.0
 40
33.0
 50
1.302289
 51
6.531044
  0
ARC
  5
102
  8
1
  6
CONTINUOUS
 62
     7
 10
110.0
 20
110.601089
 30
0.0
 40
36.25
 50
163.147819
 51
165.518848
  0
ARC
  5
103
  8
1
  6
CONTINUOUS
 62
     7
 10
110.0
 20
110.601089
 30
0.0
 40
36.25
 50
297.314485
 51
299.685515
  0
ARC
  5
104
  8
1
  6
CONTINUOUS
 62
     7
 10
110.0
 20
110.601089
 30
0.0
 40
36.25
 50
335.314485
 51
337.685515
  0
ARC
  5
105
  8
1
  6
CONTINUOUS
 62
     7
 10
110.0
 20
110.601089
 30
0.0
 40
36.25
 50
358.814485
 51
1.18551500000001
  0
ARC
  5
106
  8
1
  6
CONTINUOUS
 62
     7
 10
110.0
 20
110.601089
 30
0.0
 40
36.25
 50
240.314485
 51
242.685515
  0
LINE
  5
107
  8
1
  6
CONTINUOUS
 62
     7
 10
115.241981
 20
74.732103
 30
0.0
 11
114.383519
 21
79.86207
 31
0.0
  0
ARC
  5
108
  8
1
  6
CONTINUOUS
 62
     7
 10
110.0
 20
110.601089
 30
0.0
 40
36.25
 50
221.314485
 51
223.685515
  0
ARC
  5
109
  8
1
  6
CONTINUOUS
 62
     7
 10
110.0
 20
110.601089
 30
0.0
 40
35.6
 50
194.459503
 51
196.733551
  0
ARC
  5
10A
  8
1
  6
CONTINUOUS
 62
     7
 10
110.0
 20
110.601089
 30
0.0
 40
33.0
 50
353.468956
 51
358.697711
  0
ARC
  5
10B
  8
1
  6
CONTINUOUS
 62
     7
 10
110.0
 20
110.601089
 30
0.0
 40
36.25
 50
194.481152
 51
196.852181
  0
ARC
  5
10C
  8
1
  6
CONTINUOUS
 62
     7
 10
110.0
 20
110.601089
 30
0.0
 40
36.25
 50
202.314485
 51
204.685515
  0
ARC
  5
10D
  8
1
  6
CONTINUOUS
 62
     7
 10
110.0
 20
110.601089
 30
0.0
 40
36.25
 50
14.481152
 51
16.852181
  0
LINE
  5
10E
  8
1
  6
CONTINUOUS
 62
     7
 10
121.09018
 20
76.089201
 30
0.0
 11
119.396803
 21
81.007127
 31
0.0
  0
LINE
  5
10F
  8
1
  6
CONTINUOUS
 62
     7
 10
90.298281
 20
134.599938
 30
0.0
 11
87.096041
 21
138.698618
 31
0.0
  0
ARC
  5
110
  8
1
  6
CONTINUOUS
 62
     7
 10
110.0
 20
110.601089
 30
0.0
 40
35.6
 50
170.959503
 51
173.37383
  0
LINE
  5
111
  8
1
  6
CONTINUOUS
 62
     7
 10
110.75
 20
141.64203
 30
0.0
 11
110.75
 21
146.84333
 31
0.0
  0
LINE
  5
112
  8
1
  6
CONTINUOUS
 62
     7
 10
126.63419
 20
78.392919
 30
0.0
 11
124.152344
 21
82.96391
 31
0.0
  0
ARC
  5
113
  8
1
  6
CONTINUOUS
 62
     7
 10
110.0
 20
110.601089
 30
0.0
 40
33.0
 50
196.968956
 51
202.197711
  0
ARC
  5
114
  8
1
  6
CONTINUOUS
 62
     7
 10
110.0
 20
110.601089
 30
0.0
 40
33.0
 50
181.302289
 51
186.531044
  0
LINE
  5
115
  8
1
  6
CONTINUOUS
 62
     7
 10
104.758019
 20
74.732103
 30
0.0
 11
105.616481
 21
79.86207
 31
0.0
  0
ARC
  5
116
  8
1
  6
CONTINUOUS
 62
     7
 10
110.0
 20
110.601089
 30
0.0
 40
36.25
 50
22.314485
 51
24.68551499999999
  0
ARC
  5
117
  8
1
  6
CONTINUOUS
 62
     7
 10
110.0
 20
110.601089
 30
0.0
 40
36.25
 50
287.814485
 51
290.185515
  0
LINE
  5
118
  8
1
  6
CONTINUOUS
 62
     7
 10
94.52943
 20
83.679648
 30
0.0
 11
92.047585
 21
79.108657
 31
0.0
  0
LINE
  5
119
  8
1
  6
CONTINUOUS
 62
     7
 10
131.721943
 20
81.580068
 30
0.0
 11
128.519703
 21
85.678748
 31
0.0
  0
ARC
  5
11A
  8
1
  6
CONTINUOUS
 62
     7
 10
110.0
 20
110.601089
 30
0.0
 40
36.25
 50
126.814485
 51
129.185515
  0
ARC
  5
11B
  8
1
  6
CONTINUOUS
 62
     7
 10
110.0
 20
110.601089
 30
0.0
 40
36.25
 50
249.8144849999999
 51
252.185515
  0
ARC
  5
11C
  8
1
  6
CONTINUOUS
 62
     7
 10
110.0
 20
110.601089
 30
0.0
 40
33.0
 50
345.635622
 51
350.864378
  0
ARC
  5
11D
  8
1
  6
CONTINUOUS
 62
     7
 10
110.0
 20
110.601089
 30
0.0
 40
35.6
 50
178.792837
 51
181.207163
  0
ARC
  5
11E
  8
1
  6
CONTINUOUS
 62
     7
 10
110.0
 20
110.601089
 30
0.0
 40
33.0
 50
189.135622
 51
194.364378
  0
ARC
  5
11F
  8
1
  6
CONTINUOUS
 62
     7
 10
110.0
 20
110.601089
 30
0.0
 40
36.25
 50
316.314485
 51
318.6855150000001
  0
ARC
  5
120
  8
1
  6
CONTINUOUS
 62
     7
 10
110.0
 20
110.601089
 30
0.0
 40
36.25
 50
6.647819
 51
9.018848
  0
ARC
  5
121
  8
1
  6
CONTINUOUS
 62
     7
 10
110.0
 20
110.601089
 30
0.0
 40
36.25
 50
31.814485
 51
34.185515
  0
ARC
  5
122
  8
1
  6
CONTINUOUS
 62
     7
 10
110.0
 20
110.601089
 30
0.0
 40
33.0
 50
337.8022889999999
 51
343.031044
  0
ARC
  5
123
  8
1
  6
CONTINUOUS
 62
     7
 10
110.0
 20
110.601089
 30
0.0
 40
36.25
 50
107.814485
 51
110.185515
  0
LINE
  5
124
  8
1
  6
CONTINUOUS
 62
     7
 10
98.90982
 20
76.089201
 30
0.0
 11
100.603197
 21
81.007127
 31
0.0
  0
ARC
  5
125
  8
1
  6
CONTINUOUS
 62
     7
 10
110.0
 20
110.601089
 30
0.0
 40
36.25
 50
268.814485
 51
271.185515
  0
ARC
  5
126
  8
1
  6
CONTINUOUS
 62
     7
 10
110.0
 20
110.601089
 30
0.0
 40
36.25
 50
41.31448499999999
 51
43.68551500000001
  0
ARC
  5
127
  8
1
  6
CONTINUOUS
 62
     7
 10
110.0
 20
110.601089
 30
0.0
 40
36.25
 50
230.814485
 51
233.185515
  0
LINE
  5
128
  8
1
  6
CONTINUOUS
 62
     7
 10
111.75
 20
69.688499
 30
0.0
 11
111.75
 21
71.690422
 31
0.0
  0
LINE
  5
129
  8
1
  6
CONTINUOUS
 62
     7
 10
115.862947
 20
80.109642
 30
0.0
 11
116.721409
 21
74.979675
 31
0.0
  0
ARC
  5
12A
  8
1
  6
CONTINUOUS
 62
     7
 10
110.0
 20
110.601089
 30
0.0
 40
36.25
 50
186.647819
 51
189.018848
  0
ARC
  5
12B
  8
1
  6
CONTINUOUS
 62
     7
 10
110.0
 20
110.601089
 30
0.0
 40
33.0
 50
9.135622
 51
14.364378
  0
ARC
  5
12C
  8
1
  6
CONTINUOUS
 62
     7
 10
110.0
 20
110.601089
 30
0.0
 40
36.25
 50
117.314485
 51
119.685515
  0
ARC
  5
12D
  8
1
  6
CONTINUOUS
 62
     7
 10
110.0
 20
110.601089
 30
0.0
 40
33.0
 50
16.968956
 51
22.19771100000001
  0
ARC
  5
12E
  8
1
  6
CONTINUOUS
 62
     7
 10
110.0
 20
110.601089
 30
0.0
 40
33.0
 50
165.635622
 51
170.864378
  0
ARC
  5
12F
  8
1
  6
CONTINUOUS
 62
     7
 10
110.0
 20
110.601089
 30
0.0
 40
36.25
 50
343.147819
 51
345.5188479999999
  0
ARC
  5
130
  8
1
  6
CONTINUOUS
 62
     7
 10
110.0
 20
110.601089
 30
0.0
 40
36.25
 50
325.814485
 51
328.185515
  0
LINE
  5
131
  8
1
  6
CONTINUOUS
 62
     7
 10
104.137053
 20
141.092536
 30
0.0
 11
103.278591
 21
146.222503
 31
0.0
  0
LINE
  5
132
  8
1
  6
CONTINUOUS
 62
     7
 10
120.815081
 20
81.495479
 30
0.0
 11
122.508458
 21
76.577554
 31
0.0
  0
LINE
  5
133
  8
1
  6
CONTINUOUS
 62
     7
 10
104.137053
 20
80.109642
 30
0.0
 11
103.278591
 21
74.979675
 31
0.0
  0
ARC
  5
134
  8
1
  6
CONTINUOUS
 62
     7
 10
110.0
 20
110.601089
 30
0.0
 40
36.25
 50
178.814485
 51
181.185515
  0
ARC
  5
135
  8
1
  6
CONTINUOUS
 62
     7
 10
110.0
 20
110.601089
 30
0.0
 40
36.25
 50
211.814485
 51
214.185515
  0
ARC
  5
136
  8
1
  6
CONTINUOUS
 62
     7
 10
110.0
 20
110.601089
 30
0.0
 40
36.25
 50
350.981152
 51
353.352181
  0
LINE
  5
137
  8
1
  6
CONTINUOUS
 62
     7
 10
131.721943
 20
139.62211
 30
0.0
 11
128.519703
 21
135.52343
 31
0.0
  0
LINE
  5
138
  8
1
  6
CONTINUOUS
 62
     7
 10
90.298281
 20
86.60224
 30
0.0
 11
87.096041
 21
82.50356
 31
0.0
  0
LINE
  5
139
  8
1
  6
CONTINUOUS
 62
     7
 10
115.241981
 20
146.470075
 30
0.0
 11
114.383519
 21
141.340108
 31
0.0
  0
LINE
  5
13A
  8
1
  6
CONTINUOUS
 62
     7
 10
121.09018
 20
145.112977
 30
0.0
 11
119.396803
 21
140.195051
 31
0.0
  0
LINE
  5
13B
  8
1
  6
CONTINUOUS
 62
     7
 10
109.25
 20
79.560148
 30
0.0
 11
109.25
 21
74.358849
 31
0.0
  0
ARC
  5
13C
  8
1
  6
CONTINUOUS
 62
     7
 10
110.0
 20
110.601089
 30
0.0
 40
35.6
 50
163.266449
 51
165.540497
  0
ARC
  5
13D
  8
1
  6
CONTINUOUS
 62
     7
 10
110.0
 20
110.601089
 30
0.0
 40
36.25
 50
136.314485
 51
138.685515
  0
LINE
  5
13E
  8
1
  6
CONTINUOUS
 62
     7
 10
83.78611
 20
85.563228
 30
0.0
 11
87.620911
 21
89.077175
 31
0.0
  0
LINE
  5
13F
  8
1
  6
CONTINUOUS
 62
     7
 10
144.16665
 20
120.601089
 30
0.0
 11
144.8434
 21
120.601089
 31
0.0
  0
ARC
  5
140
  8
1
  6
CONTINUOUS
 62
     7
 10
110.0
 20
110.601089
 30
0.0
 40
36.25
 50
69.81448500000002
 51
72.18551500000001
  0
ARC
  5
141
  8
1
  6
CONTINUOUS
 62
     7
 10
110.0
 20
110.601089
 30
0.0
 40
31.05
 50
138.884091
 51
145.615909
  0
ARC
  5
142
  8
1
  6
CONTINUOUS
 62
     7
 10
110.0
 20
110.601089
 30
0.0
 40
36.25
 50
259.314485
 51
261.685515
  0
ARC
  5
143
  8
1
  6
CONTINUOUS
 62
     7
 10
110.0
 20
110.601089
 30
0.0
 40
36.25
 50
60.31448499999998
 51
62.68551500000001
  0
ARC
  5
144
  8
1
  6
CONTINUOUS
 62
     7
 10
110.0
 20
110.601089
 30
0.0
 40
36.25
 50
155.314485
 51
157.685515
  0
ARC
  5
145
  8
1
  6
CONTINUOUS
 62
     7
 10
110.0
 20
110.601089
 30
0.0
 40
35.6
 50
14.459503
 51
16.733551
  0
ARC
  5
146
  8
1
  6
CONTINUOUS
 62
     7
 10
110.0
 20
110.601089
 30
0.0
 40
33.0
 50
157.802289
 51
163.031044
  0
ARC
  5
147
  8
1
  6
CONTINUOUS
 62
     7
 10
110.0
 20
110.601089
 30
0.0
 40
31.05
 50
62.884091
 51
69.615909
  0
ARC
  5
148
  8
1
  6
CONTINUOUS
 62
     7
 10
110.0
 20
110.601089
 30
0.0
 40
31.05
 50
204.884091
 51
211.615909
  0
ARC
  5
149
  8
1
  6
CONTINUOUS
 62
     7
 10
111.500002
 20
71.179615
 30
0.0
 40
0.500002
 50
92.17927
 51
179.999802
  0
ARC
  5
14A
  8
1
  6
CONTINUOUS
 62
     7
 10
110.0
 20
110.601089
 30
0.0
 40
31.05
 50
129.384091
 51
136.115909
  0
ARC
  5
14B
  8
1
  6
CONTINUOUS
 62
     7
 10
110.0
 20
110.601089
 30
0.0
 40
31.05
 50
223.884091
 51
230.615909
  0
ARC
  5
14C
  8
1
  6
CONTINUOUS
 62
     7
 10
107.0
 20
71.265322
 30
0.0
 40
0.5
 50
0.00005
 51
85.638646
  0
ARC
  5
14D
  8
1
  6
CONTINUOUS
 62
     7
 10
110.0
 20
110.601089
 30
0.0
 40
36.25
 50
88.814485
 51
91.185515
  0
ARC
  5
14E
  8
1
  6
CONTINUOUS
 62
     7
 10
110.0
 20
110.601089
 30
0.0
 40
31.05
 50
43.88409099999999
 51
50.615909
  0
ARC
  5
14F
  8
1
  6
CONTINUOUS
 62
     7
 10
110.0
 20
110.601089
 30
0.0
 40
31.05
 50
309.384091
 51
316.115909
  0
ARC
  5
150
  8
1
  6
CONTINUOUS
 62
     7
 10
110.0
 20
110.601089
 30
0.0
 40
31.05
 50
290.384091
 51
297.115909
  0
ARC
  5
151
  8
1
  6
CONTINUOUS
 62
     7
 10
110.0
 20
110.601089
 30
0.0
 40
36.25
 50
50.814485
 51
53.185515
  0
ARC
  5
152
  8
1
  6
CONTINUOUS
 62
     7
 10
110.0
 20
110.601089
 30
0.0
 40
31.05
 50
261.884091
 51
268.6159089999999
  0
ARC
  5
153
  8
1
  6
CONTINUOUS
 62
     7
 10
110.0
 20
110.601089
 30
0.0
 40
31.05
 50
271.384091
 51
278.115909
  0
LINE
  5
154
  8
1
  6
CONTINUOUS
 62
     7
 10
75.1566
 20
100.601089
 30
0.0
 11
75.83335
 21
100.601089
 31
0.0
  0
ARC
  5
155
  8
1
  6
CONTINUOUS
 62
     7
 10
110.0
 20
110.601089
 30
0.0
 40
36.25
 50
170.981152
 51
173.352181
  0
LINE
  5
156
  8
1
  6
CONTINUOUS
 62
     7
 10
75.83335
 20
120.601089
 30
0.0
 11
75.1566
 21
120.601089
 31
0.0
  0
ARC
  5
157
  8
1
  6
CONTINUOUS
 62
     7
 10
110.0
 20
110.601089
 30
0.0
 40
31.05
 50
110.384091
 51
117.115909
  0
ARC
  5
158
  8
1
  6
CONTINUOUS
 62
     7
 10
110.0
 20
110.601089
 30
0.0
 40
36.25
 50
306.814485
 51
309.185515
  0
ARC
  5
159
  8
1
  6
CONTINUOUS
 62
     7
 10
110.0
 20
110.601089
 30
0.0
 40
39.45
 50
358.54748
 51
1.452519999999993
  0
ARC
  5
15A
  8
1
  6
CONTINUOUS
 62
     7
 10
110.0
 20
110.601089
 30
0.0
 40
31.05
 50
34.384091
 51
41.115909
  0
ARC
  5
15B
  8
1
  6
CONTINUOUS
 62
     7
 10
110.0
 20
110.601089
 30
0.0
 40
31.05
 50
318.884091
 51
325.615909
  0
ARC
  5
15C
  8
1
  6
CONTINUOUS
 62
     7
 10
110.0
 20
110.601089
 30
0.0
 40
31.05
 50
24.884091
 51
31.615909
  0
ARC
  5
15D
  8
1
  6
CONTINUOUS
 62
     7
 10
110.0
 20
110.601089
 30
0.0
 40
31.05
 50
148.384091
 51
155.115909
  0
ARC
  5
15E
  8
1
  6
CONTINUOUS
 62
     7
 10
110.0
 20
110.601089
 30
0.0
 40
31.05
 50
53.38409100000001
 51
60.11590900000001
  0
ARC
  5
15F
  8
1
  6
CONTINUOUS
 62
     7
 10
108.499998
 20
150.022563
 30
0.0
 40
0.500002
 50
272.17927
 51
0.0
  0
ARC
  5
160
  8
1
  6
CONTINUOUS
 62
     7
 10
110.0
 20
110.601089
 30
0.0
 40
31.05
 50
91.38409099999998
 51
98.115909
  0
ARC
  5
161
  8
1
  6
CONTINUOUS
 62
     7
 10
113.0
 20
149.936855
 30
0.0
 40
0.5
 50
180.000015
 51
265.638681
  0
ARC
  5
162
  8
1
  6
CONTINUOUS
 62
     7
 10
110.0
 20
110.601089
 30
0.0
 40
31.05
 50
299.884091
 51
306.615909
  0
LINE
  5
163
  8
1
  6
CONTINUOUS
 62
     7
 10
149.437324
 20
111.601089
 30
0.0
 11
148.937161
 21
111.601089
 31
0.0
  0
ARC
  5
164
  8
1
  6
CONTINUOUS
 62
     7
 10
110.0
 20
110.601089
 30
0.0
 40
31.05
 50
81.884091
 51
88.615909
  0
ARC
  5
165
  8
1
  6
CONTINUOUS
 62
     7
 10
110.0
 20
110.601089
 30
0.0
 40
31.05
 50
214.384091
 51
221.115909
  0
LINE
  5
166
  8
1
  6
CONTINUOUS
 62
     7
 10
149.437324
 20
109.601089
 30
0.0
 11
148.937161
 21
109.601089
 31
0.0
  0
ARC
  5
167
  8
1
  6
CONTINUOUS
 62
     7
 10
110.0
 20
110.601089
 30
0.0
 40
36.25
 50
278.314485
 51
280.685515
  0
LINE
  5
168
  8
1
  6
CONTINUOUS
 62
     7
 10
144.8434
 20
100.601089
 30
0.0
 11
144.16665
 21
100.601089
 31
0.0
  0
ARC
  5
169
  8
1
  6
CONTINUOUS
 62
     7
 10
110.0
 20
110.601089
 30
0.0
 40
31.05
 50
242.884091
 51
249.615909
  0
ARC
  5
16A
  8
1
  6
CONTINUOUS
 62
     7
 10
110.0
 20
110.601089
 30
0.0
 40
31.05
 50
72.384091
 51
79.11590900000002
  0
ARC
  5
16B
  8
1
  6
CONTINUOUS
 62
     7
 10
110.0
 20
110.601089
 30
0.0
 40
31.05
 50
328.384091
 51
335.115909
  0
LINE
  5
16C
  8
1
  6
CONTINUOUS
 62
     7
 10
108.25
 20
149.511756
 30
0.0
 11
108.25
 21
151.513679
 31
0.0
  0
ARC
  5
16D
  8
1
  6
CONTINUOUS
 62
     7
 10
110.0
 20
110.601089
 30
0.0
 40
35.6
 50
186.62617
 51
189.040497
  0
ARC
  5
16E
  8
1
  6
CONTINUOUS
 62
     7
 10
110.0
 20
110.601089
 30
0.0
 40
36.25
 50
79.314485
 51
81.685515
  0
ARC
  5
16F
  8
1
  6
CONTINUOUS
 62
     7
 10
110.0
 20
110.601089
 30
0.0
 40
36.25
 50
145.814485
 51
148.185515
  0
ARC
  5
170
  8
1
  6
CONTINUOUS
 62
     7
 10
110.0
 20
110.601089
 30
0.0
 40
36.0
 50
16.12762
 51
16.860415
  0
ARC
  5
171
  8
1
  6
CONTINUOUS
 62
     7
 10
110.0
 20
110.601089
 30
0.0
 40
32.5
 50
107.677185
 51
110.322815
  0
LINE
  5
172
  8
1
  6
CONTINUOUS
 62
     7
 10
130.93249
 20
83.808723
 30
0.0
 11
130.008998
 21
84.99074
 31
0.0
  0
LINE
  5
173
  8
1
  6
CONTINUOUS
 62
     7
 10
240.807359
 20
151.551089
 30
0.0
 11
226.0
 21
151.551089
 31
0.0
  0
ARC
  5
174
  8
1
  6
CONTINUOUS
 62
     7
 10
202.6
 20
73.651089
 30
0.0
 40
2.0
 50
180.0
 51
270.0
  0
LINE
  5
175
  8
1
  6
CONTINUOUS
 62
     7
 10
121.069317
 20
78.453458
 30
0.0
 11
120.580965
 21
79.871735
 31
0.0
  0
LINE
  5
176
  8
1
  6
CONTINUOUS
 62
     7
 10
322.07132
 20
150.672409
 30
0.0
 11
319.0
 21
147.601089
 31
0.0
  0
ARC
  5
177
  8
1
  6
CONTINUOUS
 62
     7
 10
324.192641
 20
72.651089
 30
0.0
 40
3.0
 50
225.0
 51
270.0
  0
ARC
  5
178
  8
1
  6
CONTINUOUS
 62
     7
 10
110.0
 20
110.601089
 30
0.0
 40
32.5
 50
325.677185
 51
328.322815
  0
ARC
  5
179
  8
1
  6
CONTINUOUS
 62
     7
 10
110.0
 20
110.601089
 30
0.0
 40
36.0
 50
343.139585
 51
343.87238
  0
LINE
  5
17A
  8
1
  6
CONTINUOUS
 62
     7
 10
112.5
 20
71.731403
 30
0.0
 11
112.5
 21
69.727473
 31
0.0
  0
ARC
  5
17B
  8
1
  6
CONTINUOUS
 62
     7
 10
110.0
 20
110.601089
 30
0.0
 40
32.5
 50
88.677185
 51
91.32281500000002
  0
ARC
  5
17C
  8
1
  6
CONTINUOUS
 62
     7
 10
110.0
 20
110.601089
 30
0.0
 40
36.0
 50
202.306252
 51
204.693748
  0
ARC
  5
17D
  8
1
  6
CONTINUOUS
 62
     7
 10
240.807359
 20
72.651089
 30
0.0
 40
3.0
 50
270.0
 51
315.0
  0
LINE
  5
17E
  8
1
  6
CONTINUOUS
 62
     7
 10
107.5
 20
149.470775
 30
0.0
 11
107.5
 21
151.474705
 31
0.0
  0
LINE
  5
17F
  8
1
  6
CONTINUOUS
 62
     7
 10
242.92868
 20
70.529769
 30
0.0
 11
246.0
 21
73.601089
 31
0.0
  0
ARC
  5
180
  8
1
  6
CONTINUOUS
 62
     7
 10
110.0
 20
110.601089
 30
0.0
 40
32.5
 50
31.677185
 51
34.32281499999999
  0
ARC
  5
181
  8
1
  6
CONTINUOUS
 62
     7
 10
110.0
 20
110.601089
 30
0.0
 40
33.7
 50
343.057778
 51
345.608803
  0
LINE
  5
182
  8
1
  6
CONTINUOUS
 62
     7
 10
115.611619
 20
144.1348
 30
0.0
 11
115.364047
 21
142.655371
 31
0.0
  0
ARC
  5
183
  8
1
  6
CONTINUOUS
 62
     7
 10
110.0
 20
110.601089
 30
0.0
 40
33.7
 50
31.724603
 51
33.0
  0
ARC
  5
184
  8
1
  6
CONTINUOUS
 62
     7
 10
110.0
 20
110.601089
 30
0.0
 40
33.7
 50
358.7247169999999
 51
1.275265999999988
  0
ARC
  5
185
  8
1
  6
CONTINUOUS
 62
     7
 10
110.0
 20
110.601089
 30
0.0
 40
33.7
 50
60.22460299999999
 51
61.5
  0
LINE
  5
186
  8
1
  6
CONTINUOUS
 62
     7
 10
202.6
 20
71.651089
 30
0.0
 11
203.72132
 21
70.529769
 31
0.0
  0
ARC
  5
187
  8
1
  6
CONTINUOUS
 62
     7
 10
205.842641
 20
148.551089
 30
0.0
 40
3.0
 50
90.0
 51
135.0
  0
ARC
  5
188
  8
1
  6
CONTINUOUS
 62
     7
 10
324.192641
 20
148.551089
 30
0.0
 40
3.0
 50
90.0
 51
135.0
  0
LINE
  5
189
  8
1
  6
CONTINUOUS
 62
     7
 10
324.192641
 20
69.651089
 30
0.0
 11
339.0
 21
69.651089
 31
0.0
  0
ARC
  5
18A
  8
1
  6
CONTINUOUS
 62
     7
 10
110.0
 20
110.601089
 30
0.0
 40
33.7
 50
50.72460300000001
 51
52.00000000000001
  0
ARC
  5
18B
  8
1
  6
CONTINUOUS
 62
     7
 10
110.0
 20
110.601089
 30
0.0
 40
33.7
 50
316.2246030000001
 51
317.5
  0
ARC
  5
18C
  8
1
  6
CONTINUOUS
 62
     7
 10
110.0
 20
110.601089
 30
0.0
 40
32.5
 50
306.677185
 51
309.3228149999999
  0
LINE
  5
18D
  8
1
  6
CONTINUOUS
 62
     7
 10
138.514799
 20
129.118816
 30
0.0
 11
137.256793
 21
128.301858
 31
0.0
  0
ARC
  5
18E
  8
1
  6
CONTINUOUS
 62
     7
 10
110.0
 20
110.601089
 30
0.0
 40
32.5
 50
136.177185
 51
138.822815
  0
ARC
  5
18F
  8
1
  6
CONTINUOUS
 62
     7
 10
107.0
 20
149.936855
 30
0.0
 40
0.5
 50
274.361304
 51
0.0
  0
ARC
  5
190
  8
1
  6
CONTINUOUS
 62
     7
 10
202.6
 20
147.551089
 30
0.0
 40
2.0
 50
90.0
 51
180.0
  0
LINE
  5
191
  8
1
  6
CONTINUOUS
 62
     7
 10
203.72132
 20
150.672409
 30
0.0
 11
202.6
 21
149.551089
 31
0.0
  0
ARC
  5
192
  8
1
  6
CONTINUOUS
 62
     7
 10
113.0
 20
71.265323
 30
0.0
 40
0.5
 50
94.361304
 51
180.0
  0
LINE
  5
193
  8
1
  6
CONTINUOUS
 62
     7
 10
143.76978
 20
120.851089
 30
0.0
 11
144.509962
 21
120.851089
 31
0.0
  0
ARC
  5
194
  8
1
  6
CONTINUOUS
 62
     7
 10
110.0
 20
110.601089
 30
0.0
 40
33.7
 50
335.224563
 51
337.775498
  0
ARC
  5
195
  8
1
  6
CONTINUOUS
 62
     7
 10
110.0
 20
110.601089
 30
0.0
 40
32.5
 50
249.677185
 51
252.322815
  0
ARC
  5
196
  8
1
  6
CONTINUOUS
 62
     7
 10
110.0
 20
110.601089
 30
0.0
 40
32.5
 50
297.177185
 51
299.822815
  0
ARC
  5
197
  8
1
  6
CONTINUOUS
 62
     7
 10
110.0
 20
110.601089
 30
0.0
 40
32.5
 50
41.177185
 51
43.82281500000001
  0
LINE
  5
198
  8
1
  6
CONTINUOUS
 62
     7
 10
110.0
 20
144.601089
 30
0.0
 11
110.0
 21
143.101089
 31
0.0
  0
ARC
  5
199
  8
1
  6
CONTINUOUS
 62
     7
 10
110.0
 20
110.601089
 30
0.0
 40
32.5
 50
230.677185
 51
233.322815
  0
LINE
  5
19A
  8
1
  6
CONTINUOUS
 62
     7
 10
98.930683
 20
142.748721
 30
0.0
 11
99.419035
 21
141.330443
 31
0.0
  0
LINE
  5
19B
  8
1
  6
CONTINUOUS
 62
     7
 10
130.93249
 20
137.393455
 30
0.0
 11
130.008998
 21
136.211439
 31
0.0
  0
LINE
  5
19C
  8
1
  6
CONTINUOUS
 62
     7
 10
339.4
 20
111.601089
 30
0.0
 11
344.4
 21
111.601089
 31
0.0
  0
ARC
  5
19D
  8
1
  6
CONTINUOUS
 62
     7
 10
110.0
 20
110.601089
 30
0.0
 40
32.5
 50
240.177185
 51
242.822815
  0
ARC
  5
19E
  8
1
  6
CONTINUOUS
 62
     7
 10
240.807359
 20
148.551089
 30
0.0
 40
3.0
 50
45.0
 51
90.0
  0
ARC
  5
19F
  8
1
  6
CONTINUOUS
 62
     7
 10
110.0
 20
110.601089
 30
0.0
 40
32.5
 50
278.177185
 51
280.822815
  0
ARC
  5
1A0
  8
1
  6
CONTINUOUS
 62
     7
 10
110.0
 20
110.601089
 30
0.0
 40
32.5
 50
259.177185
 51
261.8228149999999
  0
LINE
  5
1A1
  8
1
  6
CONTINUOUS
 62
     7
 10
339.0
 20
151.551089
 30
0.0
 11
324.192641
 21
151.551089
 31
0.0
  0
LINE
  5
1A2
  8
1
  6
CONTINUOUS
 62
     7
 10
225.6
 20
151.551089
 30
0.0
 11
205.842641
 21
151.551089
 31
0.0
  0
ARC
  5
1A3
  8
1
  6
CONTINUOUS
 62
     7
 10
110.0
 20
110.601089
 30
0.0
 40
32.5
 50
50.677185
 51
53.322815
  0
ARC
  5
1A4
  8
1
  6
CONTINUOUS
 62
     7
 10
110.0
 20
110.601089
 30
0.0
 40
32.5
 50
60.17718499999999
 51
62.822815
  0
ARC
  5
1A5
  8
1
  6
CONTINUOUS
 62
     7
 10
110.0
 20
110.601089
 30
0.0
 40
33.7
 50
14.391171
 51
16.941977
  0
LINE
  5
1A6
  8
1
  6
CONTINUOUS
 62
     7
 10
104.388381
 20
144.1348
 30
0.0
 11
104.635953
 21
142.655371
 31
0.0
  0
ARC
  5
1A7
  8
1
  6
CONTINUOUS
 62
     7
 10
110.0
 20
110.601089
 30
0.0
 40
32.5
 50
211.677185
 51
214.322815
  0
ARC
  5
1A8
  8
1
  6
CONTINUOUS
 62
     7
 10
110.0
 20
110.601089
 30
0.0
 40
32.5
 50
221.177185
 51
223.822815
  0
ARC
  5
1A9
  8
1
  6
CONTINUOUS
 62
     7
 10
110.0
 20
110.601089
 30
0.0
 40
32.5
 50
145.677185
 51
148.322815
  0
LINE
  5
1AA
  8
1
  6
CONTINUOUS
 62
     7
 10
200.6
 20
73.651089
 30
0.0
 11
200.6
 21
147.551089
 31
0.0
  0
LINE
  5
1AB
  8
1
  6
CONTINUOUS
 62
     7
 10
339.0
 20
151.551089
 30
0.0
 11
339.0
 21
69.651089
 31
0.0
  0
ARC
  5
1AC
  8
1
  6
CONTINUOUS
 62
     7
 10
110.0
 20
110.601089
 30
0.0
 40
36.0
 50
22.306252
 51
24.693748
  0
ARC
  5
1AD
  8
1
  6
CONTINUOUS
 62
     7
 10
110.0
 20
110.601089
 30
0.0
 40
32.5
 50
117.177185
 51
119.822815
  0
LINE
  5
1AE
  8
1
  6
CONTINUOUS
 62
     7
 10
139.986821
 20
130.969031
 30
0.0
 11
135.624644
 21
128.1362
 31
0.0
  0
LINE
  5
1AF
  8
1
  6
CONTINUOUS
 62
     7
 10
93.776602
 20
80.721307
 30
0.0
 11
94.49234
 21
82.039533
 31
0.0
  0
LINE
  5
1B0
  8
1
  6
CONTINUOUS
 62
     7
 10
125.47057
 20
83.679648
 30
0.0
 11
127.952415
 21
79.108657
 31
0.0
  0
LINE
  5
1B1
  8
1
  6
CONTINUOUS
 62
     7
 10
77.214158
 20
114.35456
 30
0.0
 11
73.993727
 21
114.797613
 31
0.0
  0
LINE
  5
1B2
  8
1
  6
CONTINUOUS
 62
     7
 10
344.4
 20
109.601089
 30
0.0
 11
339.4
 21
109.601089
 31
0.0
  0
LINE
  5
1B3
  8
1
  6
CONTINUOUS
 62
     7
 10
226.0
 20
151.551089
 30
0.0
 11
226.0
 21
69.651089
 31
0.0
  0
LINE
  5
1B4
  8
1
  6
CONTINUOUS
 62
     7
 10
138.514799
 20
92.083362
 30
0.0
 11
137.256793
 21
92.90032
 31
0.0
  0
LINE
  5
1B5
  8
1
  6
CONTINUOUS
 62
     7
 10
136.441603
 20
94.323984
 30
0.0
 11
140.80378
 21
91.491153
 31
0.0
  0
LINE
  5
1B6
  8
1
  6
CONTINUOUS
 62
     7
 10
73.757759
 20
111.351089
 30
0.0
 11
77.008524
 21
111.351089
 31
0.0
  0
LINE
  5
1B7
  8
1
  6
CONTINUOUS
 62
     7
 10
78.43672
 20
100.969923
 30
0.0
 11
75.306725
 21
100.092086
 31
0.0
  0
LINE
  5
1B8
  8
1
  6
CONTINUOUS
 62
     7
 10
111.0
 20
71.179617
 30
0.0
 11
111.0
 21
69.663301
 31
0.0
  0
LINE
  5
1B9
  8
1
  6
CONTINUOUS
 62
     7
 10
77.418596
 20
105.361615
 30
0.0
 11
74.198165
 21
104.918562
 31
0.0
  0
LINE
  5
1BA
  8
1
  6
CONTINUOUS
 62
     7
 10
146.242241
 20
111.351089
 30
0.0
 11
142.991476
 21
111.351089
 31
0.0
  0
LINE
  5
1BB
  8
1
  6
CONTINUOUS
 62
     7
 10
143.535374
 20
96.837324
 30
0.0
 11
140.554227
 21
98.133564
 31
0.0
  0
LINE
  5
1BC
  8
1
  6
CONTINUOUS
 62
     7
 10
89.06751
 20
137.393455
 30
0.0
 11
89.991002
 21
136.211439
 31
0.0
  0
LINE
  5
1BD
  8
1
  6
CONTINUOUS
 62
     7
 10
225.6
 20
111.601089
 30
0.0
 11
220.6
 21
111.601089
 31
0.0
  0
LINE
  5
1BE
  8
1
  6
CONTINUOUS
 62
     7
 10
104.388381
 20
77.067379
 30
0.0
 11
104.635953
 21
78.546807
 31
0.0
  0
LINE
  5
1BF
  8
1
  6
CONTINUOUS
 62
     7
 10
110.0
 20
76.601089
 30
0.0
 11
110.0
 21
78.101089
 31
0.0
  0
LINE
  5
1C0
  8
1
  6
CONTINUOUS
 62
     7
 10
84.932571
 20
133.571156
 30
0.0
 11
86.038487
 21
132.557771
 31
0.0
  0
LINE
  5
1C1
  8
1
  6
CONTINUOUS
 62
     7
 10
81.485201
 20
129.118816
 30
0.0
 11
82.743207
 21
128.301858
 31
0.0
  0
LINE
  5
1C2
  8
1
  6
CONTINUOUS
 62
     7
 10
135.067429
 20
133.571156
 30
0.0
 11
133.961513
 21
132.557771
 31
0.0
  0
LINE
  5
1C3
  8
1
  6
CONTINUOUS
 62
     7
 10
339.4
 20
151.551089
 30
0.0
 11
339.4
 21
69.651089
 31
0.0
  0
ARC
  5
1C4
  8
1
  6
CONTINUOUS
 62
     7
 10
110.0
 20
110.601089
 30
0.0
 40
32.5
 50
155.177395
 51
204.822815
  0
ARC
  5
1C5
  8
1
  6
CONTINUOUS
 62
     7
 10
110.0
 20
110.601089
 30
0.0
 40
32.5
 50
268.677185
 51
271.322815
  0
LINE
  5
1C6
  8
1
  6
CONTINUOUS
 62
     7
 10
141.96834
 20
118.787981
 30
0.0
 11
145.098336
 21
119.665819
 31
0.0
  0
LINE
  5
1C7
  8
1
  6
CONTINUOUS
 62
     7
 10
129.701719
 20
86.60224
 30
0.0
 11
132.903959
 21
82.50356
 31
0.0
  0
LINE
  5
1C8
  8
1
  6
CONTINUOUS
 62
     7
 10
126.223398
 20
80.721307
 30
0.0
 11
125.50766
 21
82.039533
 31
0.0
  0
LINE
  5
1C9
  8
1
  6
CONTINUOUS
 62
     7
 10
135.067429
 20
87.631022
 30
0.0
 11
133.961513
 21
88.644407
 31
0.0
  0
ARC
  5
1CA
  8
1
  6
CONTINUOUS
 62
     7
 10
110.0
 20
110.601089
 30
0.0
 40
32.5
 50
79.177185
 51
81.822815
  0
ARC
  5
1CB
  8
1
  6
CONTINUOUS
 62
     7
 10
110.0
 20
110.601089
 30
0.0
 40
40.95
 50
86.49991299999999
 51
93.500087
  0
LINE
  5
1CC
  8
1
  6
CONTINUOUS
 62
     7
 10
225.6
 20
69.651089
 30
0.0
 11
225.6
 21
151.551089
 31
0.0
  0
ARC
  5
1CD
  8
1
  6
CONTINUOUS
 62
     7
 10
110.0
 20
110.601089
 30
0.0
 40
32.5
 50
126.677185
 51
129.322815
  0
LINE
  5
1CE
  8
1
  6
CONTINUOUS
 62
     7
 10
115.611619
 20
77.067379
 30
0.0
 11
115.364047
 21
78.546807
 31
0.0
  0
LINE
  5
1CF
  8
1
  6
CONTINUOUS
 62
     7
 10
121.069317
 20
142.748721
 30
0.0
 11
120.580965
 21
141.330443
 31
0.0
  0
ARC
  5
1D0
  8
1
  6
CONTINUOUS
 62
     7
 10
110.0
 20
110.601089
 30
0.0
 40
40.95
 50
266.499913
 51
273.500087
  0
LINE
  5
1D1
  8
1
  6
CONTINUOUS
 62
     7
 10
84.932571
 20
87.631022
 30
0.0
 11
86.038487
 21
88.644407
 31
0.0
  0
CIRCLE
  5
1D2
  8
1
  6
CONTINUOUS
 62
     7
 10
110.0
 20
110.601089
 30
0.0
 40
38.95
  0
ARC
  5
1D3
  8
1
  6
CONTINUOUS
 62
     7
 10
110.0
 20
110.601089
 30
0.0
 40
32.5
 50
98.17718500000001
 51
100.822815
  0
LINE
  5
1D4
  8
1
  6
CONTINUOUS
 62
     7
 10
126.223398
 20
140.480871
 30
0.0
 11
125.50766
 21
139.162645
 31
0.0
  0
LINE
  5
1D5
  8
1
  6
CONTINUOUS
 62
     7
 10
112.5
 20
151.474705
 30
0.0
 11
112.5
 21
149.936855
 31
0.0
  0
LINE
  5
1D6
  8
1
  6
CONTINUOUS
 62
     7
 10
220.6
 20
109.601089
 30
0.0
 11
225.6
 21
109.601089
 31
0.0
  0
LINE
  5
1D7
  8
1
  6
CONTINUOUS
 62
     7
 10
98.930683
 20
78.453458
 30
0.0
 11
99.419035
 21
79.871735
 31
0.0
  0
ARC
  5
1D8
  8
1
  6
CONTINUOUS
 62
     7
 10
110.0
 20
110.601089
 30
0.0
 40
32.5
 50
69.677185
 51
72.322815
  0
ARC
  5
1D9
  8
1
  6
CONTINUOUS
 62
     7
 10
110.0
 20
110.601089
 30
0.0
 40
32.5
 50
287.677185
 51
290.322815
  0
ARC
  5
1DA
  8
1
  6
CONTINUOUS
 62
     7
 10
110.0
 20
110.601089
 30
0.0
 40
36.0
 50
196.12762
 51
196.860415
  0
LINE
  5
1DB
  8
1
  6
CONTINUOUS
 62
     7
 10
73.993727
 20
106.404565
 30
0.0
 11
77.214158
 21
106.847618
 31
0.0
  0
LINE
  5
1DC
  8
1
  6
CONTINUOUS
 62
     7
 10
141.56328
 20
100.969923
 30
0.0
 11
144.693275
 21
100.092086
 31
0.0
  0
LINE
  5
1DD
  8
1
  6
CONTINUOUS
 62
     7
 10
136.441603
 20
126.878194
 30
0.0
 11
140.80378
 21
129.711025
 31
0.0
  0
ARC
  5
1DE
  8
1
  6
CONTINUOUS
 62
     7
 10
110.0
 20
110.601089
 30
0.0
 40
36.0
 50
163.139585
 51
163.87238
  0
ARC
  5
1DF
  8
1
  6
CONTINUOUS
 62
     7
 10
110.0
 20
110.601089
 30
0.0
 40
32.5
 50
316.177185
 51
318.822815
  0
LINE
  5
1E0
  8
1
  6
CONTINUOUS
 62
     7
 10
83.78611
 20
135.63895
 30
0.0
 11
87.620911
 21
132.125003
 31
0.0
  0
LINE
  5
1E1
  8
1
  6
CONTINUOUS
 62
     7
 10
142.581404
 20
105.361615
 30
0.0
 11
145.801835
 21
104.918562
 31
0.0
  0
LINE
  5
1E2
  8
1
  6
CONTINUOUS
 62
     7
 10
86.607525
 20
131.019087
 30
0.0
 11
82.772725
 21
134.533034
 31
0.0
  0
LINE
  5
1E3
  8
1
  6
CONTINUOUS
 62
     7
 10
93.36581
 20
78.392919
 30
0.0
 11
95.847656
 21
82.96391
 31
0.0
  0
LINE
  5
1E4
  8
1
  6
CONTINUOUS
 62
     7
 10
77.008524
 20
109.851089
 30
0.0
 11
73.757759
 21
109.851089
 31
0.0
  0
LINE
  5
1E5
  8
1
  6
CONTINUOUS
 62
     7
 10
76.464626
 20
96.837324
 30
0.0
 11
79.445773
 21
98.133564
 31
0.0
  0
LINE
  5
1E6
  8
1
  6
CONTINUOUS
 62
     7
 10
99.184919
 20
81.495479
 30
0.0
 11
97.491542
 21
76.577554
 31
0.0
  0
LINE
  5
1E7
  8
1
  6
CONTINUOUS
 62
     7
 10
115.862947
 20
141.092536
 30
0.0
 11
116.721409
 21
146.222503
 31
0.0
  0
LINE
  5
1E8
  8
1
  6
CONTINUOUS
 62
     7
 10
110.75
 20
79.560148
 30
0.0
 11
110.75
 21
74.358849
 31
0.0
  0
LINE
  5
1E9
  8
1
  6
CONTINUOUS
 62
     7
 10
98.90982
 20
145.112977
 30
0.0
 11
100.603197
 21
140.195051
 31
0.0
  0
LINE
  5
1EA
  8
1
  6
CONTINUOUS
 62
     7
 10
70.562676
 20
109.601089
 30
0.0
 11
71.062839
 21
109.601089
 31
0.0
  0
LINE
  5
1EB
  8
1
  6
CONTINUOUS
 62
     7
 10
88.278057
 20
81.580068
 30
0.0
 11
91.480297
 21
85.678748
 31
0.0
  0
LINE
  5
1EC
  8
1
  6
CONTINUOUS
 62
     7
 10
109.25
 20
141.64203
 30
0.0
 11
109.25
 21
146.84333
 31
0.0
  0
LINE
  5
1ED
  8
1
  6
CONTINUOUS
 62
     7
 10
129.701719
 20
134.599938
 30
0.0
 11
132.903959
 21
138.698618
 31
0.0
  0
LINE
  5
1EE
  8
1
  6
CONTINUOUS
 62
     7
 10
74.198165
 20
116.283616
 30
0.0
 11
77.418596
 21
115.840563
 31
0.0
  0
LINE
  5
1EF
  8
1
  6
CONTINUOUS
 62
     7
 10
80.013179
 20
90.233147
 30
0.0
 11
84.375356
 21
93.065978
 31
0.0
  0
LINE
  5
1F0
  8
1
  6
CONTINUOUS
 62
     7
 10
77.06275
 20
125.740444
 30
0.0
 11
81.832654
 21
123.66643
 31
0.0
  0
LINE
  5
1F1
  8
1
  6
CONTINUOUS
 62
     7
 10
136.21389
 20
85.563228
 30
0.0
 11
132.379089
 21
89.077175
 31
0.0
  0
LINE
  5
1F2
  8
1
  6
CONTINUOUS
 62
     7
 10
144.693275
 20
121.110092
 30
0.0
 11
141.56328
 21
120.232255
 31
0.0
  0
LINE
  5
1F3
  8
1
  6
CONTINUOUS
 62
     7
 10
83.558397
 20
126.878194
 30
0.0
 11
79.19622
 21
129.711025
 31
0.0
  0
LINE
  5
1F4
  8
1
  6
CONTINUOUS
 62
     7
 10
107.5
 20
69.727473
 30
0.0
 11
107.5
 21
71.265323
 31
0.0
  0
LINE
  5
1F5
  8
1
  6
CONTINUOUS
 62
     7
 10
109.0
 20
150.022562
 30
0.0
 11
109.0
 21
151.538877
 31
0.0
  0
LINE
  5
1F6
  8
1
  6
CONTINUOUS
 62
     7
 10
83.558397
 20
94.323984
 30
0.0
 11
79.19622
 21
91.491153
 31
0.0
  0
LINE
  5
1F7
  8
1
  6
CONTINUOUS
 62
     7
 10
139.986821
 20
90.233147
 30
0.0
 11
135.624644
 21
93.065978
 31
0.0
  0
LINE
  5
1F8
  8
1
  6
CONTINUOUS
 62
     7
 10
77.06275
 20
95.461734
 30
0.0
 11
81.832654
 21
97.535748
 31
0.0
  0
LINE
  5
1F9
  8
1
  6
CONTINUOUS
 62
     7
 10
136.21389
 20
135.63895
 30
0.0
 11
132.379089
 21
132.125003
 31
0.0
  0
LINE
  5
1FA
  8
1
  6
CONTINUOUS
 62
     7
 10
94.52943
 20
137.52253
 30
0.0
 11
92.047585
 21
142.093521
 31
0.0
  0
LINE
  5
1FB
  8
1
  6
CONTINUOUS
 62
     7
 10
104.758019
 20
146.470075
 30
0.0
 11
105.616481
 21
141.340108
 31
0.0
  0
LINE
  5
1FC
  8
1
  6
CONTINUOUS
 62
     7
 10
81.485201
 20
92.083362
 30
0.0
 11
82.743207
 21
92.90032
 31
0.0
  0
LINE
  5
1FD
  8
1
  6
CONTINUOUS
 62
     7
 10
93.776602
 20
140.480871
 30
0.0
 11
94.49234
 21
139.162645
 31
0.0
  0
LINE
  5
1FE
  8
1
  6
CONTINUOUS
 62
     7
 10
70.562676
 20
111.601089
 30
0.0
 11
71.062839
 21
111.601089
 31
0.0
  0
LINE
  5
1FF
  8
1
  6
CONTINUOUS
 62
     7
 10
74.901664
 20
101.536359
 30
0.0
 11
78.03166
 21
102.414197
 31
0.0
  0
LINE
  5
200
  8
1
  6
CONTINUOUS
 62
     7
 10
142.991476
 20
109.851089
 30
0.0
 11
146.242241
 21
109.851089
 31
0.0
  0
LINE
  5
201
  8
1
  6
CONTINUOUS
 62
     7
 10
140.554227
 20
123.068614
 30
0.0
 11
143.535374
 21
124.364854
 31
0.0
  0
LINE
  5
202
  8
1
  6
CONTINUOUS
 62
     7
 10
88.278057
 20
139.62211
 30
0.0
 11
91.480297
 21
135.52343
 31
0.0
  0
LINE
  5
203
  8
1
  6
CONTINUOUS
 62
     7
 10
75.306725
 20
121.110092
 30
0.0
 11
78.43672
 21
120.232255
 31
0.0
  0
LINE
  5
204
  8
1
  6
CONTINUOUS
 62
     7
 10
126.63419
 20
142.809259
 30
0.0
 11
124.152344
 21
138.238268
 31
0.0
  0
LINE
  5
205
  8
1
  6
CONTINUOUS
 62
     7
 10
142.93725
 20
95.461734
 30
0.0
 11
138.167346
 21
97.535748
 31
0.0
  0
LINE
  5
206
  8
1
  6
CONTINUOUS
 62
     7
 10
145.098336
 20
101.536359
 30
0.0
 11
141.96834
 21
102.414197
 31
0.0
  0
LINE
  5
207
  8
1
  6
CONTINUOUS
 62
     7
 10
89.06751
 20
83.808723
 30
0.0
 11
89.991002
 21
84.99074
 31
0.0
  0
LINE
  5
208
  8
1
  6
CONTINUOUS
 62
     7
 10
120.815081
 20
139.706699
 30
0.0
 11
122.508458
 21
144.624625
 31
0.0
  0
ARC
  5
209
  8
1
  6
CONTINUOUS
 62
     7
 10
110.0
 20
110.601089
 30
0.0
 40
39.45
 50
178.54748
 51
181.45252
  0
CIRCLE
  5
20A
  8
1
  6
CONTINUOUS
 62
     7
 10
110.0
 20
110.601089
 30
0.0
 40
25.5
  0
LINE
  5
20B
  8
1
  6
CONTINUOUS
 62
     7
 10
133.392475
 20
90.183092
 30
0.0
 11
137.227275
 21
86.669144
 31
0.0
  0
LINE
  5
20C
  8
1
  6
CONTINUOUS
 62
     7
 10
80.013179
 20
130.969031
 30
0.0
 11
84.375356
 21
128.1362
 31
0.0
  0
LINE
  5
20D
  8
1
  6
CONTINUOUS
 62
     7
 10
145.801835
 20
116.283616
 30
0.0
 11
142.581404
 21
115.840563
 31
0.0
  0
LINE
  5
20E
  8
1
  6
CONTINUOUS
 62
     7
 10
142.785842
 20
114.35456
 30
0.0
 11
146.006273
 21
114.797613
 31
0.0
  0
LINE
  5
20F
  8
1
  6
CONTINUOUS
 62
     7
 10
86.607525
 20
90.183092
 30
0.0
 11
82.772725
 21
86.669144
 31
0.0
  0
LINE
  5
210
  8
1
  6
CONTINUOUS
 62
     7
 10
99.184919
 20
139.706699
 30
0.0
 11
97.491542
 21
144.624625
 31
0.0
  0
LINE
  5
211
  8
1
  6
CONTINUOUS
 62
     7
 10
146.006273
 20
106.404565
 30
0.0
 11
142.785842
 21
106.847618
 31
0.0
  0
LINE
  5
212
  8
1
  6
CONTINUOUS
 62
     7
 10
78.03166
 20
118.787981
 30
0.0
 11
74.901664
 21
119.665819
 31
0.0
  0
LINE
  5
213
  8
1
  6
CONTINUOUS
 62
     7
 10
93.36581
 20
142.809259
 30
0.0
 11
95.847656
 21
138.238268
 31
0.0
  0
LINE
  5
214
  8
1
  6
CONTINUOUS
 62
     7
 10
125.47057
 20
137.52253
 30
0.0
 11
127.952415
 21
142.093521
 31
0.0
  0
LINE
  5
215
  8
1
  6
CONTINUOUS
 62
     7
 10
142.93725
 20
125.740444
 30
0.0
 11
138.167346
 21
123.66643
 31
0.0
  0
LINE
  5
216
  8
1
  6
CONTINUOUS
 62
     7
 10
79.445773
 20
123.068614
 30
0.0
 11
76.464626
 21
124.364854
 31
0.0
  0
LINE
  5
217
  8
1
  6
CONTINUOUS
 62
     7
 10
133.392475
 20
131.019087
 30
0.0
 11
137.227275
 21
134.533034
 31
0.0
  0
ARC
  5
218
  8
1
  6
CONTINUOUS
 62
     7
 10
110.0
 20
110.601089
 30
0.0
 40
31.05
 50
100.884091
 51
107.615909
  0
ARC
  5
219
  8
1
  6
CONTINUOUS
 62
     7
 10
110.0
 20
110.601089
 30
0.0
 40
31.05
 50
252.384091
 51
259.115909
  0
ARC
  5
21A
  8
1
  6
CONTINUOUS
 62
     7
 10
110.0
 20
110.601089
 30
0.0
 40
31.05
 50
280.884091
 51
287.615909
  0
ARC
  5
21B
  8
1
  6
CONTINUOUS
 62
     7
 10
110.0
 20
110.601089
 30
0.0
 40
31.05
 50
119.884091
 51
126.615909
  0
ARC
  5
21C
  8
1
  6
CONTINUOUS
 62
     7
 10
110.0
 20
110.601089
 30
0.0
 40
31.05
 50
233.384091
 51
240.115909
  0
LINE
  5
21D
  8
1
  6
CONTINUOUS
 62
     7
 10
361.27868
 20
70.529769
 30
0.0
 11
362.4
 21
71.651089
 31
0.0
  0
ARC
  5
21E
  8
1
  6
CONTINUOUS
 62
     7
 10
240.807039
 20
72.687291
 30
0.0
 40
2.998792
 50
270.006114
 51
315.03174
  0
LINE
  5
21F
  8
1
  6
CONTINUOUS
 62
     7
 10
319.0
 20
147.601089
 30
0.0
 11
246.0
 21
147.601089
 31
0.0
  0
LINE
  5
220
  8
1
  6
CONTINUOUS
 62
     7
 10
246.0
 20
73.601089
 30
0.0
 11
319.0
 21
73.601089
 31
0.0
  0
LINE
  5
221
  8
1
  6
CONTINUOUS
 62
     7
 10
202.6
 20
149.438303
 30
0.0
 11
203.06513
 21
149.936855
 31
0.0
  0
ARC
  5
222
  8
1
  6
CONTINUOUS
 62
     7
 10
324.192961
 20
148.514887
 30
0.0
 40
2.998792
 50
90.006114
 51
135.03174
  0
ARC
  5
223
  8
1
  6
CONTINUOUS
 62
     7
 10
359.157359
 20
72.651089
 30
0.0
 40
3.0
 50
270.0
 51
315.0
  0
ARC
  5
224
  8
1
  6
CONTINUOUS
 62
     7
 10
223.598968
 20
147.43925
 30
0.0
 40
2.497606
 50
36.75706100000001
 51
89.976328
  0
LINE
  5
225
  8
1
  6
CONTINUOUS
 62
     7
 10
205.842641
 20
151.474705
 30
0.0
 11
205.842641
 21
151.551089
 31
0.0
  0
ARC
  5
226
  8
1
  6
CONTINUOUS
 62
     7
 10
359.157359
 20
148.551089
 30
0.0
 40
3.0
 50
45.0
 51
90.0
  0
LINE
  5
227
  8
1
  6
CONTINUOUS
 62
     7
 10
203.72132
 20
150.594347
 30
0.0
 11
203.72132
 21
150.672409
 31
0.0
  0
ARC
  5
228
  8
1
  6
CONTINUOUS
 62
     7
 10
362.4
 20
73.651089
 30
0.0
 40
2.0
 50
270.0
 51
0.0
  0
LINE
  5
229
  8
1
  6
CONTINUOUS
 62
     7
 10
203.084154
 20
71.179617
 30
0.0
 11
203.72132
 21
70.542248
 31
0.0
  0
ARC
  5
22A
  8
1
  6
CONTINUOUS
 62
     7
 10
324.0
 20
72.201089
 30
0.0
 40
1.0
 50
104.633673
 51
270.0
  0
ARC
  5
22B
  8
1
  6
CONTINUOUS
 62
     7
 10
241.0
 20
72.201089
 30
0.0
 40
1.0
 50
270.0
 51
75.36632700000001
  0
LINE
  5
22C
  8
1
  6
CONTINUOUS
 62
     7
 10
203.72132
 20
150.594347
 30
0.0
 11
203.06513
 21
149.936855
 31
0.0
  0
LINE
  5
22D
  8
1
  6
CONTINUOUS
 62
     7
 10
240.807359
 20
151.513679
 30
0.0
 11
226.0
 21
151.513679
 31
0.0
  0
LINE
  5
22E
  8
1
  6
CONTINUOUS
 62
     7
 10
223.6
 20
149.438303
 30
0.0
 11
202.6
 21
149.438303
 31
0.0
  0
LINE
  5
22F
  8
1
  6
CONTINUOUS
 62
     7
 10
220.6
 20
111.601089
 30
0.0
 11
220.6
 21
109.601089
 31
0.0
  0
LINE
  5
230
  8
1
  6
CONTINUOUS
 62
     7
 10
203.06513
 20
149.936855
 30
0.0
 11
223.6
 21
149.936855
 31
0.0
  0
LINE
  5
231
  8
1
  6
CONTINUOUS
 62
     7
 10
335.252638
 20
148.033528
 30
0.0
 11
339.0
 21
148.033528
 31
0.0
  0
LINE
  5
232
  8
1
  6
CONTINUOUS
 62
     7
 10
240.807359
 20
69.688499
 30
0.0
 11
226.0
 21
69.688499
 31
0.0
  0
LINE
  5
233
  8
1
  6
CONTINUOUS
 62
     7
 10
143.014163
 20
124.956056
 30
0.0
 11
139.804452
 21
123.560434
 31
0.0
  0
LINE
  5
234
  8
1
  6
CONTINUOUS
 62
     7
 10
202.6
 20
149.438303
 30
0.0
 11
202.6
 21
149.551089
 31
0.0
  0
LINE
  5
235
  8
1
  6
CONTINUOUS
 62
     7
 10
203.72132
 20
70.529769
 30
0.0
 11
203.72132
 21
70.542248
 31
0.0
  0
ARC
  5
236
  8
1
  6
CONTINUOUS
 62
     7
 10
362.4
 20
147.551089
 30
0.0
 40
2.0
 50
0.0
 51
90.0
  0
LINE
  5
237
  8
1
  6
CONTINUOUS
 62
     7
 10
339.4
 20
69.651089
 30
0.0
 11
359.157359
 21
69.651089
 31
0.0
  0
LINE
  5
238
  8
1
  6
CONTINUOUS
 62
     7
 10
240.807359
 20
151.513679
 30
0.0
 11
240.807359
 21
151.551089
 31
0.0
  0
LINE
  5
239
  8
1
  6
CONTINUOUS
 62
     7
 10
362.4
 20
149.551089
 30
0.0
 11
361.27868
 21
150.672409
 31
0.0
  0
LINE
  5
23A
  8
1
  6
CONTINUOUS
 62
     7
 10
225.6
 20
74.601089
 30
0.0
 11
226.0
 21
74.601089
 31
0.0
  0
LINE
  5
23B
  8
1
  6
CONTINUOUS
 62
     7
 10
324.192641
 20
151.513679
 30
0.0
 11
324.192641
 21
151.551089
 31
0.0
  0
LINE
  5
23C
  8
1
  6
CONTINUOUS
 62
     7
 10
324.192641
 20
69.688499
 30
0.0
 11
324.192641
 21
69.651089
 31
0.0
  0
LINE
  5
23D
  8
1
  6
CONTINUOUS
 62
     7
 10
240.807359
 20
69.688499
 30
0.0
 11
240.807359
 21
69.651089
 31
0.0
  0
LINE
  5
23E
  8
1
  6
CONTINUOUS
 62
     7
 10
202.6
 20
71.679255
 30
0.0
 11
223.6
 21
71.679255
 31
0.0
  0
LINE
  5
23F
  8
1
  6
CONTINUOUS
 62
     7
 10
202.6
 20
71.651089
 30
0.0
 11
202.6
 21
71.679255
 31
0.0
  0
ARC
  5
240
  8
1
  6
CONTINUOUS
 62
     7
 10
241.0
 20
149.001089
 30
0.0
 40
1.0
 50
284.633673
 51
90.0
  0
LINE
  5
241
  8
1
  6
CONTINUOUS
 62
     7
 10
205.842641
 20
69.663301
 30
0.0
 11
225.6
 21
69.663301
 31
0.0
  0
ARC
  5
242
  8
1
  6
CONTINUOUS
 62
     7
 10
335.0
 20
149.001089
 30
0.0
 40
1.0
 50
284.633673
 51
90.0
  0
LINE
  5
243
  8
1
  6
CONTINUOUS
 62
     7
 10
230.0
 20
150.001089
 30
0.0
 11
241.0
 21
150.001089
 31
0.0
  0
ARC
  5
244
  8
1
  6
CONTINUOUS
 62
     7
 10
324.0
 20
149.001089
 30
0.0
 40
1.0
 50
90.0
 51
255.366327
  0
ARC
  5
245
  8
1
  6
CONTINUOUS
 62
     7
 10
324.192961
 20
72.687291
 30
0.0
 40
2.998792
 50
224.96826
 51
269.993886
  0
LINE
  5
246
  8
1
  6
CONTINUOUS
 62
     7
 10
319.0
 20
73.601089
 30
0.0
 11
322.07132
 21
70.529769
 31
0.0
  0
LINE
  5
247
  8
1
  6
CONTINUOUS
 62
     7
 10
225.6
 20
151.474705
 30
0.0
 11
205.842641
 21
151.474705
 31
0.0
  0
ARC
  5
248
  8
1
  6
CONTINUOUS
 62
     7
 10
223.599768
 20
73.678967
 30
0.0
 40
2.499351
 50
270.005314
 51
323.158817
  0
ARC
  5
249
  8
1
  6
CONTINUOUS
 62
     7
 10
110.0
 20
110.601089
 30
0.0
 40
33.7
 50
6.557616
 51
9.108966999999998
  0
ARC
  5
24A
  8
1
  6
CONTINUOUS
 62
     7
 10
110.0
 20
110.601089
 30
0.0
 40
33.7
 50
297.224603
 51
298.4999999999999
  0
LINE
  5
24B
  8
1
  6
CONTINUOUS
 62
     7
 10
205.842641
 20
69.651089
 30
0.0
 11
225.6
 21
69.651089
 31
0.0
  0
LINE
  5
24C
  8
1
  6
CONTINUOUS
 62
     7
 10
226.0
 20
69.651089
 30
0.0
 11
240.807359
 21
69.651089
 31
0.0
  0
ARC
  5
24D
  8
1
  6
CONTINUOUS
 62
     7
 10
335.0
 20
72.201089
 30
0.0
 40
1.0
 50
270.0
 51
75.36632700000001
  0
ARC
  5
24E
  8
1
  6
CONTINUOUS
 62
     7
 10
223.596058
 20
147.434358
 30
0.0
 40
2.003949
 50
359.849697
 51
89.88730299999997
  0
LINE
  5
24F
  8
1
  6
CONTINUOUS
 62
     7
 10
359.157359
 20
151.551089
 30
0.0
 11
339.4
 21
151.551089
 31
0.0
  0
LINE
  5
250
  8
1
  6
CONTINUOUS
 62
     7
 10
335.0
 20
71.201089
 30
0.0
 11
324.0
 21
71.201089
 31
0.0
  0
ARC
  5
251
  8
1
  6
CONTINUOUS
 62
     7
 10
205.842641
 20
72.651089
 30
0.0
 40
3.0
 50
225.0
 51
270.0
  0
ARC
  5
252
  8
1
  6
CONTINUOUS
 62
     7
 10
223.598841
 20
73.680414
 30
0.0
 40
2.001159
 50
270.033186
 51
0.0324729999999818
  0
ARC
  5
253
  8
1
  6
CONTINUOUS
 62
     7
 10
230.0
 20
72.201089
 30
0.0
 40
1.0
 50
104.633673
 51
270.0
  0
ARC
  5
254
  8
1
  6
CONTINUOUS
 62
     7
 10
110.0
 20
110.601089
 30
0.0
 40
33.7
 50
350.8910130000001
 51
353.44239
  0
ENDSEC
  0
EOF
